ISO-10303-21;
HEADER;
FILE_DESCRIPTION(('CATIA V5 STEP Exchange','CAx-IF Rec.Pracs.--- Model Styling and Organization---1.5--- 2016-08-15','CAx-IF Rec.Pracs.---Supplemental Geometry---1.0---2011-11-01','CAx-IF Rec.Pracs.--- Composite Materials ---1.1---2010-07-15'),'2;1');

FILE_NAME ('706725-2_3_2652400000_2652400000.stp','2024-06-13T08:06:35+00:00',('none'),('Weidmueller'),'CATIA Version 5-6 Release 2022 SP4 HF5','CATIA V5 STEP AP214 v3','none');

FILE_SCHEMA(('AUTOMOTIVE_DESIGN { 1 0 10303 214 1 1 1 1 }'));

ENDSEC;
DATA;
#5=PRODUCT('CABTITE BP 12MM PA','CABTITE BP 12MM PA',' ',(#2)) ;
#2=PRODUCT_CONTEXT(' ',#1,'mechanical') ;
#1=APPLICATION_CONTEXT('automotive design') ;
#10=PRODUCT_DEFINITION(' ',' ',#6,#3) ;
#3=PRODUCT_DEFINITION_CONTEXT('part definition',#1,' ') ;
#11=PRODUCT_DEFINITION_SHAPE(' ',' ',#10) ;
#459=MECHANICAL_DESIGN_GEOMETRIC_PRESENTATION_REPRESENTATION(' ',(#87,#113,#184,#208,#225,#237,#244,#276,#289,#321,#334,#405,#437,#450,#456,#29),#16) ;
#19=SHAPE_REPRESENTATION(' ',(#18),#16) ;
#18=AXIS2_PLACEMENT_3D(' ',#17,$,$) ;
#35=AXIS2_PLACEMENT_3D('Cylinder Axis2P3D',#32,#33,#34) ;
#48=AXIS2_PLACEMENT_3D('Circle Axis2P3D',#46,#47,$) ;
#62=AXIS2_PLACEMENT_3D('Circle Axis2P3D',#60,#61,$) ;
#69=AXIS2_PLACEMENT_3D('Circle Axis2P3D',#67,#68,$) ;
#90=AXIS2_PLACEMENT_3D('Circle Axis2P3D',#88,#89,$) ;
#95=AXIS2_PLACEMENT_3D('Circle Axis2P3D',#93,#94,$) ;
#102=AXIS2_PLACEMENT_3D('Circle Axis2P3D',#100,#101,$) ;
#117=AXIS2_PLACEMENT_3D('Plane Axis2P3D',#114,#115,#116) ;
#188=AXIS2_PLACEMENT_3D('Sphere Axis2P3D',#185,#186,#187) ;
#192=AXIS2_PLACEMENT_3D('Circle Axis2P3D',#190,#191,$) ;
#199=AXIS2_PLACEMENT_3D('Circle Axis2P3D',#197,#198,$) ;
#212=AXIS2_PLACEMENT_3D('Sphere Axis2P3D',#209,#210,#211) ;
#216=AXIS2_PLACEMENT_3D('Circle Axis2P3D',#214,#215,$) ;
#228=AXIS2_PLACEMENT_3D('Circle Axis2P3D',#226,#227,$) ;
#248=AXIS2_PLACEMENT_3D('Cylinder Axis2P3D',#245,#246,#247) ;
#259=AXIS2_PLACEMENT_3D('Circle Axis2P3D',#257,#258,$) ;
#279=AXIS2_PLACEMENT_3D('Circle Axis2P3D',#277,#278,$) ;
#293=AXIS2_PLACEMENT_3D('Cone Axis2P3D',#290,#291,#292) ;
#311=AXIS2_PLACEMENT_3D('Circle Axis2P3D',#309,#310,$) ;
#324=AXIS2_PLACEMENT_3D('Circle Axis2P3D',#322,#323,$) ;
#338=AXIS2_PLACEMENT_3D('Plane Axis2P3D',#335,#336,#337) ;
#409=AXIS2_PLACEMENT_3D('Cylinder Axis2P3D',#406,#407,#408) ;
#413=AXIS2_PLACEMENT_3D('Circle Axis2P3D',#411,#412,$) ;
#440=AXIS2_PLACEMENT_3D('Circle Axis2P3D',#438,#439,$) ;
#17=CARTESIAN_POINT(' ',(0.,0.,0.)) ;
#32=CARTESIAN_POINT('Axis2P3D Location',(6.9,6.9,16.5)) ;
#37=CARTESIAN_POINT('Line Origine',(13.8,6.9,16.5)) ;
#41=CARTESIAN_POINT('Vertex',(13.8,6.9,17.)) ;
#43=CARTESIAN_POINT('Vertex',(13.8,6.9,16.5)) ;
#46=CARTESIAN_POINT('Axis2P3D Location',(6.9,6.9,16.5)) ;
#50=CARTESIAN_POINT('Vertex',(0.,6.9,16.5)) ;
#53=CARTESIAN_POINT('Line Origine',(0.,6.9,16.5)) ;
#57=CARTESIAN_POINT('Vertex',(0.,6.9,17.)) ;
#60=CARTESIAN_POINT('Axis2P3D Location',(6.9,6.9,17.)) ;
#64=CARTESIAN_POINT('Vertex',(6.9,13.8,17.)) ;
#67=CARTESIAN_POINT('Axis2P3D Location',(6.9,6.9,17.)) ;
#88=CARTESIAN_POINT('Axis2P3D Location',(6.9,6.9,16.5)) ;
#93=CARTESIAN_POINT('Axis2P3D Location',(6.9,6.9,17.)) ;
#97=CARTESIAN_POINT('Vertex',(6.9,0.,17.)) ;
#100=CARTESIAN_POINT('Axis2P3D Location',(6.9,6.9,17.)) ;
#114=CARTESIAN_POINT('Axis2P3D Location',(6.9,0.,16.5)) ;
#124=CARTESIAN_POINT('Control Point',(12.9,6.90000000037,16.5)) ;
#125=CARTESIAN_POINT('Control Point',(12.9,6.30004505107,16.5)) ;
#126=CARTESIAN_POINT('Control Point',(12.8250112599,5.70009087346,16.5)) ;
#127=CARTESIAN_POINT('Control Point',(12.6749660429,5.11245664272,16.5)) ;
#128=CARTESIAN_POINT('Control Point',(12.2313228103,3.98752935362,16.5)) ;
#129=CARTESIAN_POINT('Control Point',(11.5244448811,3.00640912737,16.5)) ;
#130=CARTESIAN_POINT('Control Point',(11.1110438571,2.56264438995,16.5)) ;
#131=CARTESIAN_POINT('Control Point',(10.1823964694,1.78811565219,16.5)) ;
#132=CARTESIAN_POINT('Control Point',(9.09168203773,1.26598986688,16.5)) ;
#133=CARTESIAN_POINT('Control Point',(8.51613760764,1.07474092464,16.5)) ;
#134=CARTESIAN_POINT('Control Point',(7.32984552477,0.840237545093,16.5)) ;
#135=CARTESIAN_POINT('Control Point',(6.12233270441,0.904937538452,16.5)) ;
#136=CARTESIAN_POINT('Control Point',(5.52555461412,1.01302760917,16.5)) ;
#137=CARTESIAN_POINT('Control Point',(4.37205608679,1.37596272834,16.5)) ;
#138=CARTESIAN_POINT('Control Point',(3.34337857565,2.01164809149,16.5)) ;
#139=CARTESIAN_POINT('Control Point',(2.87147519725,2.39261362323,16.5)) ;
#140=CARTESIAN_POINT('Control Point',(2.03317967307,3.26413034693,16.5)) ;
#141=CARTESIAN_POINT('Control Point',(1.43518716864,4.31516711576,16.5)) ;
#142=CARTESIAN_POINT('Control Point',(1.20369394972,4.87573682229,16.5)) ;
#143=CARTESIAN_POINT('Control Point',(0.999778343437,5.62423716463,16.5)) ;
#144=CARTESIAN_POINT('Control Point',(0.918079953783,6.39016273501,16.5)) ;
#145=CARTESIAN_POINT('Control Point',(0.906009097288,6.56033179891,16.5)) ;
#146=CARTESIAN_POINT('Control Point',(0.9,6.73016589972,16.5)) ;
#147=CARTESIAN_POINT('Control Point',(0.9,6.90000000037,16.5)) ;
#148=CARTESIAN_POINT('Vertex',(12.9,6.9,16.5)) ;
#150=CARTESIAN_POINT('Vertex',(0.9,6.90000000037,16.5)) ;
#154=CARTESIAN_POINT('Control Point',(0.9,6.90000000037,16.5)) ;
#155=CARTESIAN_POINT('Control Point',(0.9,7.49995494535,16.5)) ;
#156=CARTESIAN_POINT('Control Point',(0.974988739092,8.09990911863,16.5)) ;
#157=CARTESIAN_POINT('Control Point',(1.1250339577,8.68754336186,16.5)) ;
#158=CARTESIAN_POINT('Control Point',(1.56867718605,9.81247064084,16.5)) ;
#159=CARTESIAN_POINT('Control Point',(2.27555510656,10.7935908597,16.5)) ;
#160=CARTESIAN_POINT('Control Point',(2.68895614329,11.2373556095,16.5)) ;
#161=CARTESIAN_POINT('Control Point',(3.61760352272,12.0118843418,16.5)) ;
#162=CARTESIAN_POINT('Control Point',(4.70831794391,12.534010126,16.5)) ;
#163=CARTESIAN_POINT('Control Point',(5.2838623788,12.7252590716,16.5)) ;
#164=CARTESIAN_POINT('Control Point',(6.47015445646,12.9597624533,16.5)) ;
#165=CARTESIAN_POINT('Control Point',(7.67766727248,12.8950624646,16.5)) ;
#166=CARTESIAN_POINT('Control Point',(8.27444536433,12.7869723957,16.5)) ;
#167=CARTESIAN_POINT('Control Point',(9.42794389057,12.4240372815,16.5)) ;
#168=CARTESIAN_POINT('Control Point',(10.4566214022,11.7883519239,16.5)) ;
#169=CARTESIAN_POINT('Control Point',(10.9285247835,11.4073863946,16.5)) ;
#170=CARTESIAN_POINT('Control Point',(11.76682031,10.535869676,16.5)) ;
#171=CARTESIAN_POINT('Control Point',(12.3648128183,9.48483291179,16.5)) ;
#172=CARTESIAN_POINT('Control Point',(12.5963060411,8.92426320357,16.5)) ;
#173=CARTESIAN_POINT('Control Point',(12.8002216523,8.17576285749,16.5)) ;
#174=CARTESIAN_POINT('Control Point',(12.8819200454,7.40983728255,16.5)) ;
#175=CARTESIAN_POINT('Control Point',(12.8939909024,7.23966821323,16.5)) ;
#176=CARTESIAN_POINT('Control Point',(12.9,7.06983410672,16.5)) ;
#177=CARTESIAN_POINT('Control Point',(12.9,6.90000000037,16.5)) ;
#185=CARTESIAN_POINT('Axis2P3D Location',(6.9,6.9,-30.36)) ;
#190=CARTESIAN_POINT('Axis2P3D Location',(6.9,6.9,-30.36)) ;
#194=CARTESIAN_POINT('Vertex',(6.9,6.9,17.5)) ;
#197=CARTESIAN_POINT('Axis2P3D Location',(6.9,6.9,-30.36)) ;
#209=CARTESIAN_POINT('Axis2P3D Location',(6.9,6.9,-30.36)) ;
#214=CARTESIAN_POINT('Axis2P3D Location',(6.9,6.9,-30.36)) ;
#226=CARTESIAN_POINT('Axis2P3D Location',(6.9,6.9,-30.36)) ;
#245=CARTESIAN_POINT('Axis2P3D Location',(6.9,6.9,16.5)) ;
#250=CARTESIAN_POINT('Line Origine',(0.9,6.9,16.5)) ;
#254=CARTESIAN_POINT('Vertex',(0.9,6.9,2.)) ;
#257=CARTESIAN_POINT('Axis2P3D Location',(6.9,6.9,2.)) ;
#261=CARTESIAN_POINT('Vertex',(12.9,6.9,2.)) ;
#264=CARTESIAN_POINT('Line Origine',(12.9,6.9,16.5)) ;
#277=CARTESIAN_POINT('Axis2P3D Location',(6.9,6.9,2.)) ;
#290=CARTESIAN_POINT('Axis2P3D Location',(6.9,6.9,0.)) ;
#295=CARTESIAN_POINT('Line Origine',(980590.374583,6.89999999976,4902889.37868)) ;
#299=CARTESIAN_POINT('Vertex',(12.5,6.9,0.)) ;
#302=CARTESIAN_POINT('Line Origine',(-980576.574583,6.90000000012,4902889.37868)) ;
#306=CARTESIAN_POINT('Vertex',(1.30000000002,6.9,-1.1473639658E-10)) ;
#309=CARTESIAN_POINT('Axis2P3D Location',(6.9,6.9,0.)) ;
#322=CARTESIAN_POINT('Axis2P3D Location',(6.9,6.9,0.)) ;
#335=CARTESIAN_POINT('Axis2P3D Location',(6.9,0.9,0.)) ;
#345=CARTESIAN_POINT('Control Point',(2.9,6.9,0.)) ;
#346=CARTESIAN_POINT('Control Point',(2.9,7.2918913301,0.)) ;
#347=CARTESIAN_POINT('Control Point',(2.94799338173,7.68378191932,0.)) ;
#348=CARTESIAN_POINT('Control Point',(3.04402007184,8.06794329242,0.)) ;
#349=CARTESIAN_POINT('Control Point',(3.32811752119,8.80470626995,0.)) ;
#350=CARTESIAN_POINT('Control Point',(3.78160785872,9.45113717117,0.)) ;
#351=CARTESIAN_POINT('Control Point',(4.04709999228,9.74493133204,0.)) ;
#352=CARTESIAN_POINT('Control Point',(4.64445260103,10.261362275,0.)) ;
#353=CARTESIAN_POINT('Control Point',(5.34877068352,10.6183811023,0.)) ;
#354=CARTESIAN_POINT('Control Point',(5.72127577229,10.7526980066,0.)) ;
#355=CARTESIAN_POINT('Control Point',(6.4913665752,10.9273153754,0.)) ;
#356=CARTESIAN_POINT('Control Point',(7.28083363917,10.910939559,0.)) ;
#357=CARTESIAN_POINT('Control Point',(7.67272624356,10.8541834675,0.)) ;
#358=CARTESIAN_POINT('Control Point',(8.43440456444,10.6459115112,0.)) ;
#359=CARTESIAN_POINT('Control Point',(9.12331199807,10.2599931804,0.)) ;
#360=CARTESIAN_POINT('Control Point',(9.44240610452,10.0255149872,0.)) ;
#361=CARTESIAN_POINT('Control Point',(10.0165001618,9.48334611586,0.)) ;
#362=CARTESIAN_POINT('Control Point',(10.442794289,8.81866595011,0.)) ;
#363=CARTESIAN_POINT('Control Point',(10.6140284704,8.46162263811,0.)) ;
#364=CARTESIAN_POINT('Control Point',(10.7915913649,7.93307332276,0.)) ;
#365=CARTESIAN_POINT('Control Point',(10.8753866487,7.38529919889,0.)) ;
#366=CARTESIAN_POINT('Control Point',(10.8918441629,7.22310116949,0.)) ;
#367=CARTESIAN_POINT('Control Point',(10.9,7.06155058467,0.)) ;
#368=CARTESIAN_POINT('Control Point',(10.9,6.9,0.)) ;
#369=CARTESIAN_POINT('Vertex',(2.9,6.9,3.72523345504E-10)) ;
#371=CARTESIAN_POINT('Vertex',(10.9,6.9,0.)) ;
#375=CARTESIAN_POINT('Control Point',(10.9,6.9,0.)) ;
#376=CARTESIAN_POINT('Control Point',(10.9,6.50810866988,0.)) ;
#377=CARTESIAN_POINT('Control Point',(10.8520066183,6.11621808063,0.)) ;
#378=CARTESIAN_POINT('Control Point',(10.7559799282,5.73205670764,0.)) ;
#379=CARTESIAN_POINT('Control Point',(10.4718824788,4.99529373002,0.)) ;
#380=CARTESIAN_POINT('Control Point',(10.0183921412,4.34886282876,0.)) ;
#381=CARTESIAN_POINT('Control Point',(9.75290000777,4.05506866807,0.)) ;
#382=CARTESIAN_POINT('Control Point',(9.15554739794,3.53863772403,0.)) ;
#383=CARTESIAN_POINT('Control Point',(8.4512293138,3.18161889645,0.)) ;
#384=CARTESIAN_POINT('Control Point',(8.07872422872,3.04730199395,0.)) ;
#385=CARTESIAN_POINT('Control Point',(7.30863342511,2.87268462475,0.)) ;
#386=CARTESIAN_POINT('Control Point',(6.51916636042,2.88906044096,0.)) ;
#387=CARTESIAN_POINT('Control Point',(6.12727375504,2.94581653288,0.)) ;
#388=CARTESIAN_POINT('Control Point',(5.36559543495,3.15408848917,0.)) ;
#389=CARTESIAN_POINT('Control Point',(4.67668800199,3.54000681951,0.)) ;
#390=CARTESIAN_POINT('Control Point',(4.35759389542,3.77448501284,0.)) ;
#391=CARTESIAN_POINT('Control Point',(3.7834998382,4.31665388415,0.)) ;
#392=CARTESIAN_POINT('Control Point',(3.35720571104,4.98133404989,0.)) ;
#393=CARTESIAN_POINT('Control Point',(3.18597152957,5.33837736189,0.)) ;
#394=CARTESIAN_POINT('Control Point',(3.00840863517,5.86692667725,0.)) ;
#395=CARTESIAN_POINT('Control Point',(2.92461335133,6.41470080114,0.)) ;
#396=CARTESIAN_POINT('Control Point',(2.90815583709,6.57689883049,0.)) ;
#397=CARTESIAN_POINT('Control Point',(2.9,6.73844941532,0.)) ;
#398=CARTESIAN_POINT('Control Point',(2.9,6.9,0.)) ;
#406=CARTESIAN_POINT('Axis2P3D Location',(6.9,6.9,163.35)) ;
#411=CARTESIAN_POINT('Axis2P3D Location',(6.9,6.9,16.5000000004)) ;
#415=CARTESIAN_POINT('Vertex',(10.9,6.90000000037,16.5000000004)) ;
#417=CARTESIAN_POINT('Vertex',(2.9,6.9,16.5000000004)) ;
#420=CARTESIAN_POINT('Line Origine',(2.9,6.9,163.35)) ;
#425=CARTESIAN_POINT('Line Origine',(10.9,6.9,163.35)) ;
#438=CARTESIAN_POINT('Axis2P3D Location',(6.9,6.9,16.5000000004)) ;
#33=DIRECTION('Axis2P3D Direction',(0.,0.,-1.)) ;
#34=DIRECTION('Axis2P3D XDirection',(-1.,0.,0.)) ;
#38=DIRECTION('Vector Direction',(0.,0.,-1.)) ;
#47=DIRECTION('Axis2P3D Direction',(0.,0.,-1.)) ;
#54=DIRECTION('Vector Direction',(0.,0.,-1.)) ;
#61=DIRECTION('Axis2P3D Direction',(0.,0.,-1.)) ;
#68=DIRECTION('Axis2P3D Direction',(0.,0.,-1.)) ;
#89=DIRECTION('Axis2P3D Direction',(0.,0.,-1.)) ;
#94=DIRECTION('Axis2P3D Direction',(0.,0.,-1.)) ;
#101=DIRECTION('Axis2P3D Direction',(0.,0.,-1.)) ;
#115=DIRECTION('Axis2P3D Direction',(0.,0.,1.)) ;
#116=DIRECTION('Axis2P3D XDirection',(1.,0.,0.)) ;
#186=DIRECTION('Axis2P3D Direction',(-0.,0.,-1.)) ;
#187=DIRECTION('Axis2P3D XDirection',(-1.,-3.15483350082E-16,0.)) ;
#191=DIRECTION('Axis2P3D Direction',(3.15483350082E-16,-1.,0.)) ;
#198=DIRECTION('Axis2P3D Direction',(-1.,-3.76715690039E-16,-0.)) ;
#210=DIRECTION('Axis2P3D Direction',(0.,0.,-1.)) ;
#211=DIRECTION('Axis2P3D XDirection',(1.,1.85578441224E-16,0.)) ;
#215=DIRECTION('Axis2P3D Direction',(-1.85578441224E-16,1.,0.)) ;
#227=DIRECTION('Axis2P3D Direction',(1.,2.46810781181E-16,0.)) ;
#246=DIRECTION('Axis2P3D Direction',(0.,0.,-1.)) ;
#247=DIRECTION('Axis2P3D XDirection',(-1.,-2.64687485605E-28,-0.)) ;
#251=DIRECTION('Vector Direction',(0.,0.,-1.)) ;
#258=DIRECTION('Axis2P3D Direction',(0.,0.,-1.)) ;
#265=DIRECTION('Vector Direction',(0.,0.,-1.)) ;
#278=DIRECTION('Axis2P3D Direction',(0.,0.,-1.)) ;
#291=DIRECTION('Axis2P3D Direction',(0.,0.,1.)) ;
#292=DIRECTION('Axis2P3D XDirection',(1.,0.,0.)) ;
#296=DIRECTION('Vector Direction',(0.196116134917,-4.80346834049E-17,0.980580675735)) ;
#303=DIRECTION('Vector Direction',(-0.196116134917,2.40173417025E-17,0.980580675735)) ;
#310=DIRECTION('Axis2P3D Direction',(0.,0.,1.)) ;
#323=DIRECTION('Axis2P3D Direction',(0.,0.,1.)) ;
#336=DIRECTION('Axis2P3D Direction',(0.,0.,1.)) ;
#337=DIRECTION('Axis2P3D XDirection',(1.,0.,0.)) ;
#407=DIRECTION('Axis2P3D Direction',(0.,0.,-1.)) ;
#408=DIRECTION('Axis2P3D XDirection',(-1.,0.,0.)) ;
#412=DIRECTION('Axis2P3D Direction',(0.,0.,-1.)) ;
#421=DIRECTION('Vector Direction',(0.,0.,-1.)) ;
#426=DIRECTION('Vector Direction',(0.,0.,-1.)) ;
#439=DIRECTION('Axis2P3D Direction',(0.,0.,-1.)) ;
#30=PRESENTATION_LAYER_ASSIGNMENT('1',' ',(#21)) ;
#8=PRODUCT_RELATED_PRODUCT_CATEGORY('part',$,(#5)) ;
#7=PRODUCT_CATEGORY('part','specification') ;
#29=STYLED_ITEM(' ',(#28),#21) ;
#28=PRESENTATION_STYLE_ASSIGNMENT((#27)) ;
#86=PRESENTATION_STYLE_ASSIGNMENT((#85)) ;
#27=SURFACE_STYLE_USAGE(.BOTH.,#26) ;
#85=SURFACE_STYLE_USAGE(.BOTH.,#84) ;
#26=SURFACE_SIDE_STYLE(' ',(#25)) ;
#84=SURFACE_SIDE_STYLE(' ',(#83)) ;
#25=SURFACE_STYLE_FILL_AREA(#24) ;
#83=SURFACE_STYLE_FILL_AREA(#82) ;
#24=FILL_AREA_STYLE(' ',(#23)) ;
#82=FILL_AREA_STYLE(' ',(#81)) ;
#23=FILL_AREA_STYLE_COLOUR(' ',#22) ;
#81=FILL_AREA_STYLE_COLOUR(' ',#80) ;
#39=VECTOR('Line Direction',#38,1.) ;
#55=VECTOR('Line Direction',#54,1.) ;
#252=VECTOR('Line Direction',#251,1.) ;
#266=VECTOR('Line Direction',#265,1.) ;
#297=VECTOR('Line Direction',#296,1.) ;
#304=VECTOR('Line Direction',#303,1.) ;
#422=VECTOR('Line Direction',#421,1.) ;
#427=VECTOR('Line Direction',#426,1.) ;
#15=UNCERTAINTY_MEASURE_WITH_UNIT(LENGTH_MEASURE(0.005),#12,'distance_accuracy_value','CONFUSED CURVE UNCERTAINTY') ;
#458=SHAPE_REPRESENTATION_RELATIONSHIP(' ',' ',#19,#457) ;
#73=ORIENTED_EDGE('',*,*,#45,.T.) ;
#74=ORIENTED_EDGE('',*,*,#52,.F.) ;
#75=ORIENTED_EDGE('',*,*,#59,.T.) ;
#76=ORIENTED_EDGE('',*,*,#66,.T.) ;
#77=ORIENTED_EDGE('',*,*,#71,.T.) ;
#106=ORIENTED_EDGE('',*,*,#59,.F.) ;
#107=ORIENTED_EDGE('',*,*,#92,.F.) ;
#108=ORIENTED_EDGE('',*,*,#45,.F.) ;
#109=ORIENTED_EDGE('',*,*,#99,.T.) ;
#110=ORIENTED_EDGE('',*,*,#104,.T.) ;
#120=ORIENTED_EDGE('',*,*,#52,.T.) ;
#121=ORIENTED_EDGE('',*,*,#92,.T.) ;
#180=ORIENTED_EDGE('',*,*,#152,.F.) ;
#181=ORIENTED_EDGE('',*,*,#178,.F.) ;
#203=ORIENTED_EDGE('',*,*,#66,.F.) ;
#204=ORIENTED_EDGE('',*,*,#196,.F.) ;
#205=ORIENTED_EDGE('',*,*,#201,.T.) ;
#220=ORIENTED_EDGE('',*,*,#218,.T.) ;
#221=ORIENTED_EDGE('',*,*,#71,.F.) ;
#222=ORIENTED_EDGE('',*,*,#201,.F.) ;
#232=ORIENTED_EDGE('',*,*,#99,.F.) ;
#233=ORIENTED_EDGE('',*,*,#218,.F.) ;
#234=ORIENTED_EDGE('',*,*,#230,.T.) ;
#239=ORIENTED_EDGE('',*,*,#196,.T.) ;
#240=ORIENTED_EDGE('',*,*,#104,.F.) ;
#241=ORIENTED_EDGE('',*,*,#230,.F.) ;
#270=ORIENTED_EDGE('',*,*,#256,.F.) ;
#271=ORIENTED_EDGE('',*,*,#263,.T.) ;
#272=ORIENTED_EDGE('',*,*,#268,.F.) ;
#273=ORIENTED_EDGE('',*,*,#152,.T.) ;
#283=ORIENTED_EDGE('',*,*,#268,.T.) ;
#284=ORIENTED_EDGE('',*,*,#281,.T.) ;
#285=ORIENTED_EDGE('',*,*,#256,.T.) ;
#286=ORIENTED_EDGE('',*,*,#178,.T.) ;
#315=ORIENTED_EDGE('',*,*,#301,.F.) ;
#316=ORIENTED_EDGE('',*,*,#263,.F.) ;
#317=ORIENTED_EDGE('',*,*,#308,.F.) ;
#318=ORIENTED_EDGE('',*,*,#313,.F.) ;
#328=ORIENTED_EDGE('',*,*,#308,.T.) ;
#329=ORIENTED_EDGE('',*,*,#281,.F.) ;
#330=ORIENTED_EDGE('',*,*,#301,.T.) ;
#331=ORIENTED_EDGE('',*,*,#326,.F.) ;
#341=ORIENTED_EDGE('',*,*,#313,.T.) ;
#342=ORIENTED_EDGE('',*,*,#326,.T.) ;
#401=ORIENTED_EDGE('',*,*,#373,.F.) ;
#402=ORIENTED_EDGE('',*,*,#399,.F.) ;
#431=ORIENTED_EDGE('',*,*,#419,.T.) ;
#432=ORIENTED_EDGE('',*,*,#424,.F.) ;
#433=ORIENTED_EDGE('',*,*,#373,.T.) ;
#434=ORIENTED_EDGE('',*,*,#429,.F.) ;
#444=ORIENTED_EDGE('',*,*,#442,.T.) ;
#445=ORIENTED_EDGE('',*,*,#429,.T.) ;
#446=ORIENTED_EDGE('',*,*,#399,.T.) ;
#447=ORIENTED_EDGE('',*,*,#424,.T.) ;
#452=ORIENTED_EDGE('',*,*,#442,.F.) ;
#453=ORIENTED_EDGE('',*,*,#419,.F.) ;
#182=FACE_BOUND('',#179,.T.) ;
#403=FACE_BOUND('',#400,.T.) ;
#31=CLOSED_SHELL('Closed Shell',(#79,#112,#183,#207,#224,#236,#243,#275,#288,#320,#333,#404,#436,#449,#455)) ;
#457=ADVANCED_BREP_SHAPE_REPRESENTATION('NONE',(#21),#16) ;
#79=ADVANCED_FACE('CABTITE BP 12MM PA',(#78),#36,.T.) ;
#112=ADVANCED_FACE('CABTITE BP 12MM PA',(#111),#36,.T.) ;
#183=ADVANCED_FACE('CABTITE BP 12MM PA',(#122,#182),#118,.F.) ;
#207=ADVANCED_FACE('CABTITE BP 12MM PA',(#206),#189,.T.) ;
#224=ADVANCED_FACE('CABTITE BP 12MM PA',(#223),#213,.T.) ;
#236=ADVANCED_FACE('CABTITE BP 12MM PA',(#235),#213,.T.) ;
#243=ADVANCED_FACE('CABTITE BP 12MM PA',(#242),#213,.T.) ;
#275=ADVANCED_FACE('CABTITE BP 12MM PA',(#274),#249,.T.) ;
#288=ADVANCED_FACE('CABTITE BP 12MM PA',(#287),#249,.T.) ;
#320=ADVANCED_FACE('CABTITE BP 12MM PA',(#319),#294,.T.) ;
#333=ADVANCED_FACE('CABTITE BP 12MM PA',(#332),#294,.T.) ;
#404=ADVANCED_FACE('CABTITE BP 12MM PA',(#343,#403),#339,.F.) ;
#436=ADVANCED_FACE('CABTITE BP 12MM PA',(#435),#410,.F.) ;
#449=ADVANCED_FACE('CABTITE BP 12MM PA',(#448),#410,.F.) ;
#455=ADVANCED_FACE('CABTITE BP 12MM PA',(#454),#118,.F.) ;
#4=APPLICATION_PROTOCOL_DEFINITION('international standard','automotive_design',2001,#1) ;
#123=B_SPLINE_CURVE_WITH_KNOTS('',5,(#124,#125,#126,#127,#128,#129,#130,#131,#132,#133,#134,#135,#136,#137,#138,#139,#140,#141,#142,#143,#144,#145,#146,#147),.UNSPECIFIED.,.F.,.U.,(6,3,3,3,3,3,3,6),(0.,4.25310057838,8.50620117254,12.7593017723,17.0124023624,21.2655029811,25.5186036465,26.7225632314),.UNSPECIFIED.) ;
#153=B_SPLINE_CURVE_WITH_KNOTS('',5,(#154,#155,#156,#157,#158,#159,#160,#161,#162,#163,#164,#165,#166,#167,#168,#169,#170,#171,#172,#173,#174,#175,#176,#177),.UNSPECIFIED.,.F.,.U.,(6,3,3,3,3,3,3,6),(0.,4.25310056104,8.50620112262,12.7593017129,17.0124023072,21.2655029309,25.5186036037,26.7225632328),.UNSPECIFIED.) ;
#344=B_SPLINE_CURVE_WITH_KNOTS('',5,(#345,#346,#347,#348,#349,#350,#351,#352,#353,#354,#355,#356,#357,#358,#359,#360,#361,#362,#363,#364,#365,#366,#367,#368),.UNSPECIFIED.,.F.,.U.,(6,3,3,3,3,3,3,6),(0.,2.77783828062,5.55567657906,8.3335149048,11.1113532477,13.8891915725,16.6670299034,17.8121468374),.UNSPECIFIED.) ;
#374=B_SPLINE_CURVE_WITH_KNOTS('',5,(#375,#376,#377,#378,#379,#380,#381,#382,#383,#384,#385,#386,#387,#388,#389,#390,#391,#392,#393,#394,#395,#396,#397,#398),.UNSPECIFIED.,.F.,.U.,(6,3,3,3,3,3,3,6),(0.,2.77783828079,5.55567657957,8.33351491564,11.1113532534,13.889191578,16.6670299089,17.8121468429),.UNSPECIFIED.) ;
#21=MANIFOLD_SOLID_BREP('CABTITE BP 12MM PA',#31) ;
#49=CIRCLE('generated circle',#48,6.9) ;
#63=CIRCLE('generated circle',#62,6.9) ;
#70=CIRCLE('generated circle',#69,6.9) ;
#91=CIRCLE('generated circle',#90,6.9) ;
#96=CIRCLE('generated circle',#95,6.9) ;
#103=CIRCLE('generated circle',#102,6.9) ;
#193=CIRCLE('generated circle',#192,47.86) ;
#200=CIRCLE('generated circle',#199,47.86) ;
#217=CIRCLE('generated circle',#216,47.86) ;
#229=CIRCLE('generated circle',#228,47.86) ;
#260=CIRCLE('generated circle',#259,6.) ;
#280=CIRCLE('generated circle',#279,6.) ;
#312=CIRCLE('generated circle',#311,5.6) ;
#325=CIRCLE('generated circle',#324,5.6) ;
#414=CIRCLE('generated circle',#413,4.) ;
#441=CIRCLE('generated circle',#440,4.) ;
#22=COLOUR_RGB('Colour',0.823529411765,0.823529411765,1.) ;
#80=COLOUR_RGB('Colour',0.964705882353,0.937254901961,0.894117647059) ;
#294=CONICAL_SURFACE('Cone',#293,5.6,0.197395559624) ;
#87=OVER_RIDING_STYLED_ITEM(' ',(#86),#79,#29) ;
#113=OVER_RIDING_STYLED_ITEM(' ',(#86),#112,#29) ;
#184=OVER_RIDING_STYLED_ITEM(' ',(#86),#183,#29) ;
#208=OVER_RIDING_STYLED_ITEM(' ',(#86),#207,#29) ;
#225=OVER_RIDING_STYLED_ITEM(' ',(#86),#224,#29) ;
#237=OVER_RIDING_STYLED_ITEM(' ',(#86),#236,#29) ;
#244=OVER_RIDING_STYLED_ITEM(' ',(#86),#243,#29) ;
#276=OVER_RIDING_STYLED_ITEM(' ',(#86),#275,#29) ;
#289=OVER_RIDING_STYLED_ITEM(' ',(#86),#288,#29) ;
#321=OVER_RIDING_STYLED_ITEM(' ',(#86),#320,#29) ;
#334=OVER_RIDING_STYLED_ITEM(' ',(#86),#333,#29) ;
#405=OVER_RIDING_STYLED_ITEM(' ',(#86),#404,#29) ;
#437=OVER_RIDING_STYLED_ITEM(' ',(#86),#436,#29) ;
#450=OVER_RIDING_STYLED_ITEM(' ',(#86),#449,#29) ;
#456=OVER_RIDING_STYLED_ITEM(' ',(#86),#455,#29) ;
#36=CYLINDRICAL_SURFACE('generated cylinder',#35,6.9) ;
#249=CYLINDRICAL_SURFACE('generated cylinder',#248,6.) ;
#410=CYLINDRICAL_SURFACE('generated cylinder',#409,4.) ;
#45=EDGE_CURVE('',#42,#44,#40,.T.) ;
#52=EDGE_CURVE('',#51,#44,#49,.T.) ;
#59=EDGE_CURVE('',#51,#58,#56,.F.) ;
#66=EDGE_CURVE('',#58,#65,#63,.T.) ;
#71=EDGE_CURVE('',#65,#42,#70,.T.) ;
#92=EDGE_CURVE('',#44,#51,#91,.T.) ;
#99=EDGE_CURVE('',#42,#98,#96,.T.) ;
#104=EDGE_CURVE('',#98,#58,#103,.T.) ;
#152=EDGE_CURVE('',#149,#151,#123,.T.) ;
#178=EDGE_CURVE('',#151,#149,#153,.T.) ;
#196=EDGE_CURVE('',#195,#58,#193,.T.) ;
#201=EDGE_CURVE('',#195,#65,#200,.T.) ;
#218=EDGE_CURVE('',#195,#42,#217,.T.) ;
#230=EDGE_CURVE('',#195,#98,#229,.T.) ;
#256=EDGE_CURVE('',#255,#151,#253,.F.) ;
#263=EDGE_CURVE('',#255,#262,#260,.F.) ;
#268=EDGE_CURVE('',#149,#262,#267,.T.) ;
#281=EDGE_CURVE('',#262,#255,#280,.F.) ;
#301=EDGE_CURVE('',#262,#300,#298,.F.) ;
#308=EDGE_CURVE('',#307,#255,#305,.T.) ;
#313=EDGE_CURVE('',#300,#307,#312,.F.) ;
#326=EDGE_CURVE('',#307,#300,#325,.F.) ;
#373=EDGE_CURVE('',#370,#372,#344,.T.) ;
#399=EDGE_CURVE('',#372,#370,#374,.T.) ;
#419=EDGE_CURVE('',#416,#418,#414,.F.) ;
#424=EDGE_CURVE('',#370,#418,#423,.F.) ;
#429=EDGE_CURVE('',#416,#372,#428,.T.) ;
#442=EDGE_CURVE('',#418,#416,#441,.F.) ;
#72=EDGE_LOOP('',(#73,#74,#75,#76,#77)) ;
#105=EDGE_LOOP('',(#106,#107,#108,#109,#110)) ;
#119=EDGE_LOOP('',(#120,#121)) ;
#179=EDGE_LOOP('',(#180,#181)) ;
#202=EDGE_LOOP('',(#203,#204,#205)) ;
#219=EDGE_LOOP('',(#220,#221,#222)) ;
#231=EDGE_LOOP('',(#232,#233,#234)) ;
#238=EDGE_LOOP('',(#239,#240,#241)) ;
#269=EDGE_LOOP('',(#270,#271,#272,#273)) ;
#282=EDGE_LOOP('',(#283,#284,#285,#286)) ;
#314=EDGE_LOOP('',(#315,#316,#317,#318)) ;
#327=EDGE_LOOP('',(#328,#329,#330,#331)) ;
#340=EDGE_LOOP('',(#341,#342)) ;
#400=EDGE_LOOP('',(#401,#402)) ;
#430=EDGE_LOOP('',(#431,#432,#433,#434)) ;
#443=EDGE_LOOP('',(#444,#445,#446,#447)) ;
#451=EDGE_LOOP('',(#452,#453)) ;
#78=FACE_OUTER_BOUND('',#72,.T.) ;
#111=FACE_OUTER_BOUND('',#105,.T.) ;
#122=FACE_OUTER_BOUND('',#119,.T.) ;
#206=FACE_OUTER_BOUND('',#202,.T.) ;
#223=FACE_OUTER_BOUND('',#219,.T.) ;
#235=FACE_OUTER_BOUND('',#231,.T.) ;
#242=FACE_OUTER_BOUND('',#238,.T.) ;
#274=FACE_OUTER_BOUND('',#269,.T.) ;
#287=FACE_OUTER_BOUND('',#282,.T.) ;
#319=FACE_OUTER_BOUND('',#314,.T.) ;
#332=FACE_OUTER_BOUND('',#327,.T.) ;
#343=FACE_OUTER_BOUND('',#340,.T.) ;
#435=FACE_OUTER_BOUND('',#430,.T.) ;
#448=FACE_OUTER_BOUND('',#443,.T.) ;
#454=FACE_OUTER_BOUND('',#451,.T.) ;
#40=LINE('Line',#37,#39) ;
#56=LINE('Line',#53,#55) ;
#253=LINE('Line',#250,#252) ;
#267=LINE('Line',#264,#266) ;
#298=LINE('Line',#295,#297) ;
#305=LINE('Line',#302,#304) ;
#423=LINE('Line',#420,#422) ;
#428=LINE('Line',#425,#427) ;
#118=PLANE('',#117) ;
#339=PLANE('',#338) ;
#9=PRODUCT_CATEGORY_RELATIONSHIP(' ',' ',#7,#8) ;
#6=PRODUCT_DEFINITION_FORMATION_WITH_SPECIFIED_SOURCE(' ',' ',#5,.NOT_KNOWN.) ;
#20=SHAPE_DEFINITION_REPRESENTATION(#11,#19) ;
#189=SPHERICAL_SURFACE('',#188,47.86) ;
#213=SPHERICAL_SURFACE('',#212,47.86) ;
#42=VERTEX_POINT('',#41) ;
#44=VERTEX_POINT('',#43) ;
#51=VERTEX_POINT('',#50) ;
#58=VERTEX_POINT('',#57) ;
#65=VERTEX_POINT('',#64) ;
#98=VERTEX_POINT('',#97) ;
#149=VERTEX_POINT('',#148) ;
#151=VERTEX_POINT('',#150) ;
#195=VERTEX_POINT('',#194) ;
#255=VERTEX_POINT('',#254) ;
#262=VERTEX_POINT('',#261) ;
#300=VERTEX_POINT('',#299) ;
#307=VERTEX_POINT('',#306) ;
#370=VERTEX_POINT('',#369) ;
#372=VERTEX_POINT('',#371) ;
#416=VERTEX_POINT('',#415) ;
#418=VERTEX_POINT('',#417) ;
#12=(LENGTH_UNIT()NAMED_UNIT(*)SI_UNIT(.MILLI.,.METRE.)) ;
#13=(NAMED_UNIT(*)PLANE_ANGLE_UNIT()SI_UNIT($,.RADIAN.)) ;
#14=(NAMED_UNIT(*)SI_UNIT($,.STERADIAN.)SOLID_ANGLE_UNIT()) ;
#16=(GEOMETRIC_REPRESENTATION_CONTEXT(3)GLOBAL_UNCERTAINTY_ASSIGNED_CONTEXT((#15))GLOBAL_UNIT_ASSIGNED_CONTEXT((#12,#13,#14))REPRESENTATION_CONTEXT(' ',' ')) ;
ENDSEC;
END-ISO-10303-21;
