ISO-10303-21;
HEADER;
FILE_DESCRIPTION(('CATIA V5R24 STEP','CAx-IF Rec.Pracs.--- Model Styling and Organization---1.2---2011-12-15'),'2;1');

FILE_NAME ('D1464878_0', '2016-08-10T14:23:27+00:00', ('Weidmueller Interface'), ('Weidmueller'), 'CATIA Version 5-6 Release 2014 SP4', 'CATIA V5 STEP AP214', 'none');

FILE_SCHEMA(('AUTOMOTIVE_DESIGN { 1 0 10303 214 1 1 1 1 }'));

ENDSEC;
DATA;
#5=PRODUCT('v5-standard_part','','',(#2)) ;
#2=PRODUCT_CONTEXT(' ',#1,'mechanical') ;
#1=APPLICATION_CONTEXT('automotive design') ;
#10=PRODUCT_DEFINITION('',' ',#6,#3) ;
#3=PRODUCT_DEFINITION_CONTEXT('part definition',#1,' ') ;
#11=PRODUCT_DEFINITION_SHAPE(' ',' ',#10) ;
#351=MECHANICAL_DESIGN_GEOMETRIC_PRESENTATION_REPRESENTATION(' ',(#46),#16) ;
#19=SHAPE_REPRESENTATION(' ',(#18),#16) ;
#18=AXIS2_PLACEMENT_3D(' ',#17,$,$) ;
#24=AXIS2_PLACEMENT_3D('Plane Axis2P3D',#21,#22,#23) ;
#31=AXIS2_PLACEMENT_3D('Plane Axis2P3D',#28,#29,#30) ;
#36=AXIS2_PLACEMENT_3D('Plane Axis2P3D',#33,#34,#35) ;
#52=AXIS2_PLACEMENT_3D('Plane Axis2P3D',#49,#50,#51) ;
#92=AXIS2_PLACEMENT_3D('Plane Axis2P3D',#89,#90,#91) ;
#166=AXIS2_PLACEMENT_3D('Plane Axis2P3D',#163,#164,#165) ;
#240=AXIS2_PLACEMENT_3D('Plane Axis2P3D',#237,#238,#239) ;
#17=CARTESIAN_POINT(' ',(0.,0.,0.)) ;
#21=CARTESIAN_POINT('Axis2P3D Location',(0.,0.,0.)) ;
#28=CARTESIAN_POINT('Axis2P3D Location',(0.,0.,0.)) ;
#33=CARTESIAN_POINT('Axis2P3D Location',(0.,0.,0.)) ;
#49=CARTESIAN_POINT('Axis2P3D Location',(2.55,4.09703869271,0.)) ;
#54=CARTESIAN_POINT('Line Origine',(2.57424242426,4.49630339828,-7.10184310494E-018)) ;
#58=CARTESIAN_POINT('Vertex',(2.59848484852,4.89556810385,-8.48962188679E-018)) ;
#60=CARTESIAN_POINT('Vertex',(2.55,4.09703869271,-5.71406432309E-018)) ;
#63=CARTESIAN_POINT('Line Origine',(2.55,4.09703869271,6.75)) ;
#67=CARTESIAN_POINT('Vertex',(2.55,4.09703869271,13.5)) ;
#70=CARTESIAN_POINT('Line Origine',(2.57424242426,4.49630339828,13.5)) ;
#74=CARTESIAN_POINT('Vertex',(2.59848484852,4.89556810385,13.5)) ;
#77=CARTESIAN_POINT('Line Origine',(2.59848484852,4.89556810385,6.75)) ;
#89=CARTESIAN_POINT('Axis2P3D Location',(2.45,2.45007178351,13.5)) ;
#95=CARTESIAN_POINT('Control Point',(2.35000000028,4.09703869331,13.5)) ;
#96=CARTESIAN_POINT('Control Point',(1.85256556238,4.06683563065,13.5)) ;
#97=CARTESIAN_POINT('Control Point',(1.36653393674,3.84883202875,13.5)) ;
#98=CARTESIAN_POINT('Control Point',(0.988146397488,3.44677283133,13.5)) ;
#99=CARTESIAN_POINT('Control Point',(0.611853602513,2.45007178351,13.5)) ;
#100=CARTESIAN_POINT('Control Point',(0.988146397487,1.45337073569,13.5)) ;
#101=CARTESIAN_POINT('Control Point',(1.36653393674,1.05131153827,13.5)) ;
#102=CARTESIAN_POINT('Control Point',(1.85256556238,0.833307936366,13.5)) ;
#103=CARTESIAN_POINT('Control Point',(2.35,0.80310487431,13.5)) ;
#104=CARTESIAN_POINT('Vertex',(2.35,0.80310487431,13.5)) ;
#106=CARTESIAN_POINT('Vertex',(2.34999999996,4.09703869329,13.5)) ;
#110=CARTESIAN_POINT('Control Point',(2.30151515155,4.89556810252,13.5)) ;
#111=CARTESIAN_POINT('Control Point',(2.31121212132,4.7358622206,13.5)) ;
#112=CARTESIAN_POINT('Control Point',(2.32090909109,4.57615633882,13.5)) ;
#113=CARTESIAN_POINT('Control Point',(2.33060606085,4.41645045705,13.5)) ;
#114=CARTESIAN_POINT('Control Point',(2.34030303061,4.25674457527,13.5)) ;
#115=CARTESIAN_POINT('Control Point',(2.35000000028,4.09703869331,13.5)) ;
#116=CARTESIAN_POINT('Vertex',(2.30151515156,4.89556810252,13.5)) ;
#120=CARTESIAN_POINT('Control Point',(2.30151515151,0.00457546378918,13.5)) ;
#121=CARTESIAN_POINT('Control Point',(1.5629003805,0.0494224347221,13.5)) ;
#122=CARTESIAN_POINT('Control Point',(0.841217057577,0.373124752699,13.5)) ;
#123=CARTESIAN_POINT('Control Point',(0.279368893237,0.970121742806,13.5)) ;
#124=CARTESIAN_POINT('Control Point',(-0.279368893238,2.45007178351,13.5)) ;
#125=CARTESIAN_POINT('Control Point',(0.279368893239,3.93002182422,13.5)) ;
#126=CARTESIAN_POINT('Control Point',(0.841217057579,4.52701881432,13.5)) ;
#127=CARTESIAN_POINT('Control Point',(1.56290038051,4.8507211323,13.5)) ;
#128=CARTESIAN_POINT('Control Point',(2.30151515155,4.89556810252,13.5)) ;
#129=CARTESIAN_POINT('Vertex',(2.30151515151,0.00457546378918,13.5)) ;
#133=CARTESIAN_POINT('Control Point',(2.59848484852,4.89556810385,13.5)) ;
#134=CARTESIAN_POINT('Control Point',(3.36676017572,4.84892021232,13.5)) ;
#135=CARTESIAN_POINT('Control Point',(4.11671691904,4.5005713059,13.5)) ;
#136=CARTESIAN_POINT('Control Point',(4.68709108606,3.85645617344,13.5)) ;
#137=CARTESIAN_POINT('Control Point',(5.19719733522,2.2832683511,13.5)) ;
#138=CARTESIAN_POINT('Control Point',(4.50049952239,0.783354864464,13.5)) ;
#139=CARTESIAN_POINT('Control Point',(3.85638438992,0.212980697451,13.5)) ;
#140=CARTESIAN_POINT('Control Point',(3.06979047875,-0.0420724271303,13.5)) ;
#141=CARTESIAN_POINT('Control Point',(2.30151515151,0.00457546378918,13.5)) ;
#144=CARTESIAN_POINT('Control Point',(2.35,0.80310487431,13.5)) ;
#145=CARTESIAN_POINT('Control Point',(2.86740991426,0.771688947774,13.5)) ;
#146=CARTESIAN_POINT('Control Point',(3.39715683403,0.943459419431,13.5)) ;
#147=CARTESIAN_POINT('Control Point',(3.83094865793,1.32758896048,13.5)) ;
#148=CARTESIAN_POINT('Control Point',(4.30015330739,2.33773477801,13.5)) ;
#149=CARTESIAN_POINT('Control Point',(3.95661236408,3.39722861754,13.5)) ;
#150=CARTESIAN_POINT('Control Point',(3.57248282303,3.83102044144,13.5)) ;
#151=CARTESIAN_POINT('Control Point',(3.06740991427,4.06562276617,13.5)) ;
#152=CARTESIAN_POINT('Control Point',(2.55,4.09703869271,13.5)) ;
#163=CARTESIAN_POINT('Axis2P3D Location',(2.45,2.45007178351,0.)) ;
#169=CARTESIAN_POINT('Control Point',(2.35,0.80310487431,5.71406432309E-018)) ;
#170=CARTESIAN_POINT('Control Point',(2.86740991426,0.771688947774,5.82306021365E-018)) ;
#171=CARTESIAN_POINT('Control Point',(3.39715683403,0.943459419431,5.22711167432E-018)) ;
#172=CARTESIAN_POINT('Control Point',(3.83094865793,1.32758896048,3.89439460898E-018)) ;
#173=CARTESIAN_POINT('Control Point',(4.30015330739,2.33773477801,3.89747281331E-019)) ;
#174=CARTESIAN_POINT('Control Point',(3.95661236408,3.39722861754,-3.28611039085E-018)) ;
#175=CARTESIAN_POINT('Control Point',(3.57248282303,3.83102044144,-4.79112811207E-018)) ;
#176=CARTESIAN_POINT('Control Point',(3.06740991427,4.06562276617,-5.60506843252E-018)) ;
#177=CARTESIAN_POINT('Control Point',(2.55,4.09703869271,-5.71406432309E-018)) ;
#178=CARTESIAN_POINT('Vertex',(2.35,0.80310487431,5.71406432309E-018)) ;
#182=CARTESIAN_POINT('Control Point',(2.59848484852,4.89556810385,-8.4845197546E-018)) ;
#183=CARTESIAN_POINT('Control Point',(3.36676017572,4.84892021232,-8.32267736951E-018)) ;
#184=CARTESIAN_POINT('Control Point',(4.11671691904,4.5005713059,-7.11409931793E-018)) ;
#185=CARTESIAN_POINT('Control Point',(4.68709108606,3.85645617344,-4.8793760349E-018)) ;
#186=CARTESIAN_POINT('Control Point',(5.19719733522,2.2832683511,5.78715660159E-019)) ;
#187=CARTESIAN_POINT('Control Point',(4.50049952239,0.783354864464,5.78258593455E-018)) ;
#188=CARTESIAN_POINT('Control Point',(3.85638438992,0.212980697451,7.76146884976E-018)) ;
#189=CARTESIAN_POINT('Control Point',(3.06979047875,-0.0420724271303,8.64636213543E-018)) ;
#190=CARTESIAN_POINT('Control Point',(2.30151515151,0.00457546378918,8.48451975246E-018)) ;
#191=CARTESIAN_POINT('Vertex',(2.30151515151,0.00457546378918,8.48451975246E-018)) ;
#195=CARTESIAN_POINT('Control Point',(2.30151515151,0.00457546378918,8.48451975246E-018)) ;
#196=CARTESIAN_POINT('Control Point',(1.5629003805,0.0494224347221,8.32892556585E-018)) ;
#197=CARTESIAN_POINT('Control Point',(0.841217057577,0.373124752699,7.20585754541E-018)) ;
#198=CARTESIAN_POINT('Control Point',(0.279368893237,0.970121742806,5.13460815776E-018)) ;
#199=CARTESIAN_POINT('Control Point',(-0.279368893238,2.45007178351,-5.36024822121E-030)) ;
#200=CARTESIAN_POINT('Control Point',(0.279368893239,3.93002182422,-5.13460815777E-018)) ;
#201=CARTESIAN_POINT('Control Point',(0.841217057579,4.52701881432,-7.20585754542E-018)) ;
#202=CARTESIAN_POINT('Control Point',(1.56290038051,4.8507211323,-8.32892556586E-018)) ;
#203=CARTESIAN_POINT('Control Point',(2.30151515155,4.89556810252,-8.48451975001E-018)) ;
#204=CARTESIAN_POINT('Vertex',(2.30151515156,4.89556810252,-8.48451975001E-018)) ;
#208=CARTESIAN_POINT('Control Point',(2.30151515155,4.89556810252,-8.48451975001E-018)) ;
#209=CARTESIAN_POINT('Control Point',(2.31121212132,4.7358622206,-7.93042866475E-018)) ;
#210=CARTESIAN_POINT('Control Point',(2.32090909109,4.57615633882,-7.37633758002E-018)) ;
#211=CARTESIAN_POINT('Control Point',(2.33060606085,4.41645045705,-6.82224649529E-018)) ;
#212=CARTESIAN_POINT('Control Point',(2.34030303061,4.25674457527,-6.26815541056E-018)) ;
#213=CARTESIAN_POINT('Control Point',(2.35000000028,4.09703869331,-5.71406432516E-018)) ;
#214=CARTESIAN_POINT('Vertex',(2.34999999996,4.09703869329,-5.71406432509E-018)) ;
#218=CARTESIAN_POINT('Control Point',(2.35000000028,4.09703869331,-5.71406432516E-018)) ;
#219=CARTESIAN_POINT('Control Point',(1.85256556238,4.06683563065,-5.6092764015E-018)) ;
#220=CARTESIAN_POINT('Control Point',(1.36653393674,3.84883202875,-4.85292446937E-018)) ;
#221=CARTESIAN_POINT('Control Point',(0.988146397488,3.44677283133,-3.45800141238E-018)) ;
#222=CARTESIAN_POINT('Control Point',(0.611853602513,2.45007178351,-3.07840642311E-030)) ;
#223=CARTESIAN_POINT('Control Point',(0.988146397487,1.45337073569,3.45800141237E-018)) ;
#224=CARTESIAN_POINT('Control Point',(1.36653393674,1.05131153827,4.85292446936E-018)) ;
#225=CARTESIAN_POINT('Control Point',(1.85256556238,0.833307936366,5.6092764015E-018)) ;
#226=CARTESIAN_POINT('Control Point',(2.35,0.80310487431,5.71406432309E-018)) ;
#237=CARTESIAN_POINT('Axis2P3D Location',(2.35,4.09703869271,0.)) ;
#242=CARTESIAN_POINT('Line Origine',(2.30151515156,4.89556810252,6.75)) ;
#247=CARTESIAN_POINT('Line Origine',(2.34999999996,4.09703869329,6.75)) ;
#260=CARTESIAN_POINT('Control Point',(2.35,0.80310487431,13.5)) ;
#261=CARTESIAN_POINT('Control Point',(2.86740991426,0.771688947774,13.5)) ;
#262=CARTESIAN_POINT('Control Point',(3.39715683403,0.943459419431,13.5)) ;
#263=CARTESIAN_POINT('Control Point',(3.83094865793,1.32758896048,13.5)) ;
#264=CARTESIAN_POINT('Control Point',(4.30015330739,2.33773477801,13.5)) ;
#265=CARTESIAN_POINT('Control Point',(3.95661236408,3.39722861754,13.5)) ;
#266=CARTESIAN_POINT('Control Point',(3.57248282303,3.83102044144,13.5)) ;
#267=CARTESIAN_POINT('Control Point',(3.06740991427,4.06562276617,13.5)) ;
#268=CARTESIAN_POINT('Control Point',(2.55,4.09703869271,13.5)) ;
#272=CARTESIAN_POINT('Line Origine',(2.35,0.80310487431,6.75)) ;
#285=CARTESIAN_POINT('Control Point',(2.35000000028,4.09703869331,13.5)) ;
#286=CARTESIAN_POINT('Control Point',(1.85256556238,4.06683563065,13.5)) ;
#287=CARTESIAN_POINT('Control Point',(1.36653393674,3.84883202875,13.5)) ;
#288=CARTESIAN_POINT('Control Point',(0.988146397488,3.44677283133,13.5)) ;
#289=CARTESIAN_POINT('Control Point',(0.611853602513,2.45007178351,13.5)) ;
#290=CARTESIAN_POINT('Control Point',(0.988146397487,1.45337073569,13.5)) ;
#291=CARTESIAN_POINT('Control Point',(1.36653393674,1.05131153827,13.5)) ;
#292=CARTESIAN_POINT('Control Point',(1.85256556238,0.833307936366,13.5)) ;
#293=CARTESIAN_POINT('Control Point',(2.35,0.80310487431,13.5)) ;
#305=CARTESIAN_POINT('Control Point',(2.30151515151,0.00457546378918,13.5)) ;
#306=CARTESIAN_POINT('Control Point',(1.5629003805,0.0494224347221,13.5)) ;
#307=CARTESIAN_POINT('Control Point',(0.841217057577,0.373124752699,13.5)) ;
#308=CARTESIAN_POINT('Control Point',(0.279368893237,0.970121742806,13.5)) ;
#309=CARTESIAN_POINT('Control Point',(-0.279368893238,2.45007178351,13.5)) ;
#310=CARTESIAN_POINT('Control Point',(0.279368893239,3.93002182422,13.5)) ;
#311=CARTESIAN_POINT('Control Point',(0.841217057579,4.52701881432,13.5)) ;
#312=CARTESIAN_POINT('Control Point',(1.56290038051,4.8507211323,13.5)) ;
#313=CARTESIAN_POINT('Control Point',(2.30151515155,4.89556810252,13.5)) ;
#317=CARTESIAN_POINT('Line Origine',(2.30151515151,0.00457546378918,6.75)) ;
#330=CARTESIAN_POINT('Control Point',(2.59848484852,4.89556810385,13.5)) ;
#331=CARTESIAN_POINT('Control Point',(3.36676017572,4.84892021232,13.5)) ;
#332=CARTESIAN_POINT('Control Point',(4.11671691904,4.5005713059,13.5)) ;
#333=CARTESIAN_POINT('Control Point',(4.68709108606,3.85645617344,13.5)) ;
#334=CARTESIAN_POINT('Control Point',(5.19719733522,2.2832683511,13.5)) ;
#335=CARTESIAN_POINT('Control Point',(4.50049952239,0.783354864464,13.5)) ;
#336=CARTESIAN_POINT('Control Point',(3.85638438992,0.212980697451,13.5)) ;
#337=CARTESIAN_POINT('Control Point',(3.06979047875,-0.0420724271303,13.5)) ;
#338=CARTESIAN_POINT('Control Point',(2.30151515151,0.00457546378918,13.5)) ;
#22=DIRECTION('Axis2P3D Direction',(0.,0.,1.)) ;
#23=DIRECTION('Axis2P3D XDirection',(1.,0.,0.)) ;
#29=DIRECTION('Axis2P3D Direction',(1.,0.,0.)) ;
#30=DIRECTION('Axis2P3D XDirection',(0.,1.,0.)) ;
#34=DIRECTION('Axis2P3D Direction',(0.,1.,0.)) ;
#35=DIRECTION('Axis2P3D XDirection',(0.,0.,1.)) ;
#50=DIRECTION('Axis2P3D Direction',(0.998161763152,-0.0606060606061,2.1026951224E-019)) ;
#51=DIRECTION('Axis2P3D XDirection',(0.0606060606061,0.998161763152,-3.46944695195E-018)) ;
#55=DIRECTION('Vector Direction',(0.0606060606061,0.998161763152,-3.46944695195E-018)) ;
#64=DIRECTION('Vector Direction',(0.,0.,-1.)) ;
#71=DIRECTION('Vector Direction',(0.0606060606061,0.998161763152,0.)) ;
#78=DIRECTION('Vector Direction',(0.,0.,-1.)) ;
#90=DIRECTION('Axis2P3D Direction',(-0.,-3.46944695195E-018,-1.)) ;
#91=DIRECTION('Axis2P3D XDirection',(-1.,0.,0.)) ;
#164=DIRECTION('Axis2P3D Direction',(-0.,-3.46944695195E-018,-1.)) ;
#165=DIRECTION('Axis2P3D XDirection',(-1.,0.,0.)) ;
#238=DIRECTION('Axis2P3D Direction',(0.998161763152,0.0606060606061,-2.1026951224E-019)) ;
#239=DIRECTION('Axis2P3D XDirection',(-0.0606060606061,0.998161763152,-3.46944695195E-018)) ;
#243=DIRECTION('Vector Direction',(0.,0.,-1.)) ;
#248=DIRECTION('Vector Direction',(0.,0.,-1.)) ;
#269=DIRECTION('Vector Direction',(0.,-3.46944695195E-018,-1.)) ;
#273=DIRECTION('Vector Direction',(0.,0.,-1.)) ;
#294=DIRECTION('Vector Direction',(0.,-3.46944695195E-018,-1.)) ;
#314=DIRECTION('Vector Direction',(0.,-3.46944695195E-018,-1.)) ;
#318=DIRECTION('Vector Direction',(0.,-3.46944695195E-018,-1.)) ;
#339=DIRECTION('Vector Direction',(0.,-3.46944695195E-018,-1.)) ;
#47=PRESENTATION_LAYER_ASSIGNMENT('1',' ',(#38)) ;
#8=PRODUCT_RELATED_PRODUCT_CATEGORY('part',$,(#5)) ;
#7=PRODUCT_CATEGORY('part','specification') ;
#46=STYLED_ITEM(' ',(#45),#38) ;
#45=PRESENTATION_STYLE_ASSIGNMENT((#44)) ;
#44=SURFACE_STYLE_USAGE(.BOTH.,#43) ;
#43=SURFACE_SIDE_STYLE(' ',(#42)) ;
#42=SURFACE_STYLE_FILL_AREA(#41) ;
#41=FILL_AREA_STYLE(' ',(#40)) ;
#40=FILL_AREA_STYLE_COLOUR(' ',#39) ;
#56=VECTOR('Line Direction',#55,1.) ;
#65=VECTOR('Line Direction',#64,1.) ;
#72=VECTOR('Line Direction',#71,1.) ;
#79=VECTOR('Line Direction',#78,1.) ;
#244=VECTOR('Line Direction',#243,1.) ;
#249=VECTOR('Line Direction',#248,1.) ;
#270=VECTOR('Extrusion Surface Vector',#269,1.) ;
#274=VECTOR('Line Direction',#273,1.) ;
#295=VECTOR('Extrusion Surface Vector',#294,1.) ;
#315=VECTOR('Extrusion Surface Vector',#314,1.) ;
#319=VECTOR('Line Direction',#318,1.) ;
#340=VECTOR('Extrusion Surface Vector',#339,1.) ;
#15=UNCERTAINTY_MEASURE_WITH_UNIT(LENGTH_MEASURE(0.005),#12,'distance_accuracy_value','CONFUSED CURVE UNCERTAINTY') ;
#350=SHAPE_REPRESENTATION_RELATIONSHIP(' ',' ',#19,#349) ;
#83=ORIENTED_EDGE('',*,*,#62,.T.) ;
#84=ORIENTED_EDGE('',*,*,#69,.F.) ;
#85=ORIENTED_EDGE('',*,*,#76,.F.) ;
#86=ORIENTED_EDGE('',*,*,#81,.T.) ;
#155=ORIENTED_EDGE('',*,*,#108,.T.) ;
#156=ORIENTED_EDGE('',*,*,#118,.T.) ;
#157=ORIENTED_EDGE('',*,*,#131,.T.) ;
#158=ORIENTED_EDGE('',*,*,#142,.T.) ;
#159=ORIENTED_EDGE('',*,*,#76,.T.) ;
#160=ORIENTED_EDGE('',*,*,#153,.T.) ;
#229=ORIENTED_EDGE('',*,*,#180,.F.) ;
#230=ORIENTED_EDGE('',*,*,#62,.F.) ;
#231=ORIENTED_EDGE('',*,*,#193,.T.) ;
#232=ORIENTED_EDGE('',*,*,#206,.F.) ;
#233=ORIENTED_EDGE('',*,*,#216,.F.) ;
#234=ORIENTED_EDGE('',*,*,#227,.F.) ;
#253=ORIENTED_EDGE('',*,*,#216,.T.) ;
#254=ORIENTED_EDGE('',*,*,#246,.F.) ;
#255=ORIENTED_EDGE('',*,*,#118,.F.) ;
#256=ORIENTED_EDGE('',*,*,#251,.T.) ;
#278=ORIENTED_EDGE('',*,*,#153,.F.) ;
#279=ORIENTED_EDGE('',*,*,#69,.T.) ;
#280=ORIENTED_EDGE('',*,*,#180,.T.) ;
#281=ORIENTED_EDGE('',*,*,#276,.F.) ;
#298=ORIENTED_EDGE('',*,*,#227,.T.) ;
#299=ORIENTED_EDGE('',*,*,#251,.F.) ;
#300=ORIENTED_EDGE('',*,*,#108,.F.) ;
#301=ORIENTED_EDGE('',*,*,#276,.T.) ;
#323=ORIENTED_EDGE('',*,*,#131,.F.) ;
#324=ORIENTED_EDGE('',*,*,#246,.T.) ;
#325=ORIENTED_EDGE('',*,*,#206,.T.) ;
#326=ORIENTED_EDGE('',*,*,#321,.F.) ;
#343=ORIENTED_EDGE('',*,*,#193,.F.) ;
#344=ORIENTED_EDGE('',*,*,#81,.F.) ;
#345=ORIENTED_EDGE('',*,*,#142,.F.) ;
#346=ORIENTED_EDGE('',*,*,#321,.T.) ;
#48=CLOSED_SHELL('Closed Shell',(#88,#162,#236,#258,#283,#303,#328,#348)) ;
#349=ADVANCED_BREP_SHAPE_REPRESENTATION('NONE',(#38),#16) ;
#88=ADVANCED_FACE('K\X2\00F6\X0\rper.3',(#87),#53,.F.) ;
#162=ADVANCED_FACE('K\X2\00F6\X0\rper.3',(#161),#93,.F.) ;
#236=ADVANCED_FACE('K\X2\00F6\X0\rper.3',(#235),#167,.T.) ;
#258=ADVANCED_FACE('K\X2\00F6\X0\rper.3',(#257),#241,.T.) ;
#283=ADVANCED_FACE('K\X2\00F6\X0\rper.3',(#282),#271,.T.) ;
#303=ADVANCED_FACE('K\X2\00F6\X0\rper.3',(#302),#296,.T.) ;
#328=ADVANCED_FACE('K\X2\00F6\X0\rper.3',(#327),#316,.T.) ;
#348=ADVANCED_FACE('K\X2\00F6\X0\rper.3',(#347),#341,.T.) ;
#4=APPLICATION_PROTOCOL_DEFINITION('international standard','automotive_design',2001,#1) ;
#94=B_SPLINE_CURVE_WITH_KNOTS('',5,(#95,#96,#97,#98,#99,#100,#101,#102,#103),.UNSPECIFIED.,.F.,.U.,(6,3,6),(0.,2.64851568153,5.29703136306),.UNSPECIFIED.) ;
#109=B_SPLINE_CURVE_WITH_KNOTS('',5,(#110,#111,#112,#113,#114,#115),.UNSPECIFIED.,.F.,.U.,(6,6),(0.,0.799999998713),.UNSPECIFIED.) ;
#119=B_SPLINE_CURVE_WITH_KNOTS('',5,(#120,#121,#122,#123,#124,#125,#126,#127,#128),.UNSPECIFIED.,.F.,.U.,(6,3,6),(0.,3.93264449658,7.86528899316),.UNSPECIFIED.) ;
#132=B_SPLINE_CURVE_WITH_KNOTS('',5,(#133,#134,#135,#136,#137,#138,#139,#140,#141),.UNSPECIFIED.,.F.,.U.,(6,3,6),(0.,4.11077885582,8.22155771164),.UNSPECIFIED.) ;
#143=B_SPLINE_CURVE_WITH_KNOTS('',5,(#144,#145,#146,#147,#148,#149,#150,#151,#152),.UNSPECIFIED.,.F.,.U.,(6,3,6),(0.,2.76848371922,5.53696743845),.UNSPECIFIED.) ;
#168=B_SPLINE_CURVE_WITH_KNOTS('',5,(#169,#170,#171,#172,#173,#174,#175,#176,#177),.UNSPECIFIED.,.F.,.U.,(6,3,6),(0.,2.76848371922,5.53696743845),.UNSPECIFIED.) ;
#181=B_SPLINE_CURVE_WITH_KNOTS('',5,(#182,#183,#184,#185,#186,#187,#188,#189,#190),.UNSPECIFIED.,.F.,.U.,(6,3,6),(0.,4.11077885582,8.22155771164),.UNSPECIFIED.) ;
#194=B_SPLINE_CURVE_WITH_KNOTS('',5,(#195,#196,#197,#198,#199,#200,#201,#202,#203),.UNSPECIFIED.,.F.,.U.,(6,3,6),(0.,3.93264449658,7.86528899316),.UNSPECIFIED.) ;
#207=B_SPLINE_CURVE_WITH_KNOTS('',5,(#208,#209,#210,#211,#212,#213),.UNSPECIFIED.,.F.,.U.,(6,6),(0.,0.799999998713),.UNSPECIFIED.) ;
#217=B_SPLINE_CURVE_WITH_KNOTS('',5,(#218,#219,#220,#221,#222,#223,#224,#225,#226),.UNSPECIFIED.,.F.,.U.,(6,3,6),(0.,2.64851568153,5.29703136306),.UNSPECIFIED.) ;
#259=B_SPLINE_CURVE_WITH_KNOTS('',5,(#260,#261,#262,#263,#264,#265,#266,#267,#268),.UNSPECIFIED.,.F.,.U.,(6,3,6),(0.,2.76848371922,5.53696743845),.UNSPECIFIED.) ;
#284=B_SPLINE_CURVE_WITH_KNOTS('',5,(#285,#286,#287,#288,#289,#290,#291,#292,#293),.UNSPECIFIED.,.F.,.U.,(6,3,6),(0.,2.64851568153,5.29703136306),.UNSPECIFIED.) ;
#304=B_SPLINE_CURVE_WITH_KNOTS('',5,(#305,#306,#307,#308,#309,#310,#311,#312,#313),.UNSPECIFIED.,.F.,.U.,(6,3,6),(0.,3.93264449658,7.86528899316),.UNSPECIFIED.) ;
#329=B_SPLINE_CURVE_WITH_KNOTS('',5,(#330,#331,#332,#333,#334,#335,#336,#337,#338),.UNSPECIFIED.,.F.,.U.,(6,3,6),(0.,4.11077885582,8.22155771164),.UNSPECIFIED.) ;
#38=MANIFOLD_SOLID_BREP('K\X2\00F6\X0\rper.3',#48) ;
#39=COLOUR_RGB('Colour',0.823529411765,0.823529411765,1.) ;
#26=CONSTRUCTIVE_GEOMETRY_REPRESENTATION('supplemental geometry',(#25,#32,#37),#16) ;
#27=CONSTRUCTIVE_GEOMETRY_REPRESENTATION_RELATIONSHIP('supplemental geometry','',#19,#26) ;
#62=EDGE_CURVE('',#59,#61,#57,.F.) ;
#69=EDGE_CURVE('',#68,#61,#66,.T.) ;
#76=EDGE_CURVE('',#75,#68,#73,.F.) ;
#81=EDGE_CURVE('',#75,#59,#80,.T.) ;
#108=EDGE_CURVE('',#105,#107,#94,.F.) ;
#118=EDGE_CURVE('',#107,#117,#109,.F.) ;
#131=EDGE_CURVE('',#117,#130,#119,.F.) ;
#142=EDGE_CURVE('',#130,#75,#132,.F.) ;
#153=EDGE_CURVE('',#68,#105,#143,.F.) ;
#180=EDGE_CURVE('',#61,#179,#168,.F.) ;
#193=EDGE_CURVE('',#59,#192,#181,.T.) ;
#206=EDGE_CURVE('',#205,#192,#194,.F.) ;
#216=EDGE_CURVE('',#215,#205,#207,.F.) ;
#227=EDGE_CURVE('',#179,#215,#217,.F.) ;
#246=EDGE_CURVE('',#117,#205,#245,.T.) ;
#251=EDGE_CURVE('',#107,#215,#250,.T.) ;
#276=EDGE_CURVE('',#105,#179,#275,.T.) ;
#321=EDGE_CURVE('',#130,#192,#320,.T.) ;
#82=EDGE_LOOP('',(#83,#84,#85,#86)) ;
#154=EDGE_LOOP('',(#155,#156,#157,#158,#159,#160)) ;
#228=EDGE_LOOP('',(#229,#230,#231,#232,#233,#234)) ;
#252=EDGE_LOOP('',(#253,#254,#255,#256)) ;
#277=EDGE_LOOP('',(#278,#279,#280,#281)) ;
#297=EDGE_LOOP('',(#298,#299,#300,#301)) ;
#322=EDGE_LOOP('',(#323,#324,#325,#326)) ;
#342=EDGE_LOOP('',(#343,#344,#345,#346)) ;
#87=FACE_OUTER_BOUND('',#82,.T.) ;
#161=FACE_OUTER_BOUND('',#154,.T.) ;
#235=FACE_OUTER_BOUND('',#228,.T.) ;
#257=FACE_OUTER_BOUND('',#252,.T.) ;
#282=FACE_OUTER_BOUND('',#277,.T.) ;
#302=FACE_OUTER_BOUND('',#297,.T.) ;
#327=FACE_OUTER_BOUND('',#322,.T.) ;
#347=FACE_OUTER_BOUND('',#342,.T.) ;
#57=LINE('Line',#54,#56) ;
#66=LINE('Line',#63,#65) ;
#73=LINE('Line',#70,#72) ;
#80=LINE('Line',#77,#79) ;
#245=LINE('Line',#242,#244) ;
#250=LINE('Line',#247,#249) ;
#275=LINE('Line',#272,#274) ;
#320=LINE('Line',#317,#319) ;
#25=PLANE('Referenz_xy',#24) ;
#32=PLANE('Referenz_yz',#31) ;
#37=PLANE('Referenz_xz',#36) ;
#53=PLANE('',#52) ;
#93=PLANE('',#92) ;
#167=PLANE('',#166) ;
#241=PLANE('',#240) ;
#9=PRODUCT_CATEGORY_RELATIONSHIP(' ',' ',#7,#8) ;
#6=PRODUCT_DEFINITION_FORMATION_WITH_SPECIFIED_SOURCE('',' ',#5,.NOT_KNOWN.) ;
#20=SHAPE_DEFINITION_REPRESENTATION(#11,#19) ;
#271=SURFACE_OF_LINEAR_EXTRUSION('generated tabulated cylinder',#259,#270) ;
#296=SURFACE_OF_LINEAR_EXTRUSION('generated tabulated cylinder',#284,#295) ;
#316=SURFACE_OF_LINEAR_EXTRUSION('generated tabulated cylinder',#304,#315) ;
#341=SURFACE_OF_LINEAR_EXTRUSION('generated tabulated cylinder',#329,#340) ;
#59=VERTEX_POINT('',#58) ;
#61=VERTEX_POINT('',#60) ;
#68=VERTEX_POINT('',#67) ;
#75=VERTEX_POINT('',#74) ;
#105=VERTEX_POINT('',#104) ;
#107=VERTEX_POINT('',#106) ;
#117=VERTEX_POINT('',#116) ;
#130=VERTEX_POINT('',#129) ;
#179=VERTEX_POINT('',#178) ;
#192=VERTEX_POINT('',#191) ;
#205=VERTEX_POINT('',#204) ;
#215=VERTEX_POINT('',#214) ;
#12=(LENGTH_UNIT()NAMED_UNIT(*)SI_UNIT(.MILLI.,.METRE.)) ;
#13=(NAMED_UNIT(*)PLANE_ANGLE_UNIT()SI_UNIT($,.RADIAN.)) ;
#14=(NAMED_UNIT(*)SI_UNIT($,.STERADIAN.)SOLID_ANGLE_UNIT()) ;
#16=(GEOMETRIC_REPRESENTATION_CONTEXT(3)GLOBAL_UNCERTAINTY_ASSIGNED_CONTEXT((#15))GLOBAL_UNIT_ASSIGNED_CONTEXT((#12,#13,#14))REPRESENTATION_CONTEXT(' ',' ')) ;
ENDSEC;
END-ISO-10303-21;
