ISO-10303-21;
HEADER;
FILE_DESCRIPTION(('CATIA V5R19 STEP'),'2;1');

FILE_NAME ('D1450240_0', '2015-02-20T07:51:00+00:00', ('Weidmueller Interface'), ('Weidmueller'), 'CATIA Version 5 Release 20 SP 5 (IN-10)', 'CATIA V5 STEP AP214', 'none');

FILE_SCHEMA(('AUTOMOTIVE_DESIGN { 1 0 10303 214 1 1 1 1 }'));

ENDSEC;
/* file written by CATIA V5R20 */
DATA;
#5=PRODUCT('SM 45/45-24','','GERAETEMARKIERER\X2\000A\X0\<Q-CHECKER_SEAL> Q-Checker Version 2.6.2  \X2\000A\X0\CATIA-Version         : Catia V5 R19 SP5 Build Date 07-20-2009.19.00\X2\000A\X0\Model size (in KByte) : 0\X2\000A\X0\Checking date         : 2011-04-12 07:55:10\X2\000A\X0\Checking profile      : ADMIN / Release_2D-3D [CATPart]\X2\000A\X0\Model assessment      : In Ordnung (IO)\X2\000A\X0\Total weight sum      : 0\X2\000A\X0\<CROSS_CHECK_SUM>\X2\000A\X0\  <CHKSUM_DATE> -2006521304 </CHKSUM_DATE>\X2\000A\X0\  <CHKSUM_ENTITIES> -883094262 </CHKSUM_ENTITIES>\X2\000A\X0\  <CHKSUM_PROFILE> -1101559662 </CHKSUM_PROFILE>\X2\000A\X0\  <CHKSUM_DIMENSION> -186917087 </CHKSUM_DIMENSION>\X2\000A\X0\  <CHKSUM_PROJINTERSEC> -896974048 </CHKSUM_PROJINTERSEC>\X2\000A\X0\  <CHKSUM_IDENTCRV> -896974048 </CHKSUM_IDENTCRV>\X2\000A\X0\  <CHKSUM_INFINITY> 138018827 </CHKSUM_INFINITY>\X2\000A\X0\</CROSS_CHECK_SUM>\X2\000A\X0\</Q-CHECKER_SEAL> \X2\000A\X0\ \X2\000A\X0\ \X2\000A\X0\ \X2\000A\X0\ \X2\000A\X0\ \X2\000A\X0\ \X2\000A\X0\',(#2)) ;
#2=PRODUCT_CONTEXT(' ',#1,'mechanical') ;
#1=APPLICATION_CONTEXT('automotive design') ;
#10=PRODUCT_DEFINITION('52414',' ',#6,#3) ;
#3=PRODUCT_DEFINITION_CONTEXT('part definition',#1,' ') ;
#11=PRODUCT_DEFINITION_SHAPE(' ',' ',#10) ;
#470=MECHANICAL_DESIGN_GEOMETRIC_PRESENTATION_REPRESENTATION(' ',(#80,#168,#199,#280,#304,#328,#352,#376,#400,#419,#448,#467,#30),#17) ;
#20=SHAPE_REPRESENTATION(' ',(#19),#17) ;
#19=AXIS2_PLACEMENT_3D(' ',#18,$,$) ;
#36=AXIS2_PLACEMENT_3D('Cylinder Axis2P3D',#33,#34,#35) ;
#40=AXIS2_PLACEMENT_3D('Circle Axis2P3D',#38,#39,$) ;
#56=AXIS2_PLACEMENT_3D('Circle Axis2P3D',#54,#55,$) ;
#84=AXIS2_PLACEMENT_3D('Plane Axis2P3D',#81,#82,#83) ;
#95=AXIS2_PLACEMENT_3D('Circle Axis2P3D',#93,#94,$) ;
#109=AXIS2_PLACEMENT_3D('Circle Axis2P3D',#107,#108,$) ;
#123=AXIS2_PLACEMENT_3D('Circle Axis2P3D',#121,#122,$) ;
#145=AXIS2_PLACEMENT_3D('Circle Axis2P3D',#143,#144,$) ;
#154=AXIS2_PLACEMENT_3D('Circle Axis2P3D',#152,#153,$) ;
#172=AXIS2_PLACEMENT_3D('Plane Axis2P3D',#169,#170,#171) ;
#203=AXIS2_PLACEMENT_3D('Plane Axis2P3D',#200,#201,#202) ;
#207=AXIS2_PLACEMENT_3D('Circle Axis2P3D',#205,#206,$) ;
#221=AXIS2_PLACEMENT_3D('Circle Axis2P3D',#219,#220,$) ;
#235=AXIS2_PLACEMENT_3D('Circle Axis2P3D',#233,#234,$) ;
#257=AXIS2_PLACEMENT_3D('Circle Axis2P3D',#255,#256,$) ;
#266=AXIS2_PLACEMENT_3D('Circle Axis2P3D',#264,#265,$) ;
#284=AXIS2_PLACEMENT_3D('Plane Axis2P3D',#281,#282,#283) ;
#308=AXIS2_PLACEMENT_3D('Cylinder Axis2P3D',#305,#306,#307) ;
#332=AXIS2_PLACEMENT_3D('Plane Axis2P3D',#329,#330,#331) ;
#356=AXIS2_PLACEMENT_3D('Cylinder Axis2P3D',#353,#354,#355) ;
#380=AXIS2_PLACEMENT_3D('Plane Axis2P3D',#377,#378,#379) ;
#404=AXIS2_PLACEMENT_3D('Cylinder Axis2P3D',#401,#402,#403) ;
#423=AXIS2_PLACEMENT_3D('Cylinder Axis2P3D',#420,#421,#422) ;
#452=AXIS2_PLACEMENT_3D('Cylinder Axis2P3D',#449,#450,#451) ;
#18=CARTESIAN_POINT(' ',(0.,0.,0.)) ;
#33=CARTESIAN_POINT('Axis2P3D Location',(41.1,3.5,0.6)) ;
#38=CARTESIAN_POINT('Axis2P3D Location',(41.1,3.5,3.72529007642E-010)) ;
#42=CARTESIAN_POINT('Vertex',(41.1,0.,3.72529221955E-010)) ;
#44=CARTESIAN_POINT('Vertex',(44.6,3.5,3.72529007642E-010)) ;
#47=CARTESIAN_POINT('Line Origine',(44.6,3.5,0.599999999627)) ;
#51=CARTESIAN_POINT('Vertex',(44.6,3.5,1.19999999963)) ;
#54=CARTESIAN_POINT('Axis2P3D Location',(41.1,3.5,1.19999999963)) ;
#58=CARTESIAN_POINT('Vertex',(41.1,-1.31228980983E-032,1.19999999963)) ;
#61=CARTESIAN_POINT('Line Origine',(41.1,0.,0.599999999627)) ;
#81=CARTESIAN_POINT('Axis2P3D Location',(22.3,22.3,0.)) ;
#86=CARTESIAN_POINT('Line Origine',(22.3,-7.4505734915E-010,1.3654811811E-015)) ;
#90=CARTESIAN_POINT('Vertex',(3.5,0.,3.72529221955E-010)) ;
#93=CARTESIAN_POINT('Axis2P3D Location',(3.50000000396,3.50000000396,1.15116799096E-015)) ;
#97=CARTESIAN_POINT('Vertex',(0.,3.50000000037,7.4506023573E-010)) ;
#100=CARTESIAN_POINT('Line Origine',(-7.4505734915E-010,22.3,0.)) ;
#104=CARTESIAN_POINT('Vertex',(0.,41.1,3.72529007642E-010)) ;
#107=CARTESIAN_POINT('Axis2P3D Location',(3.50000000396,41.099999996,-1.15116799096E-015)) ;
#111=CARTESIAN_POINT('Vertex',(3.5,44.6,7.45058015283E-010)) ;
#114=CARTESIAN_POINT('Line Origine',(22.3,44.6000000007,-1.3654811811E-015)) ;
#118=CARTESIAN_POINT('Vertex',(41.1,44.6,3.72528793329E-010)) ;
#121=CARTESIAN_POINT('Axis2P3D Location',(41.099999996,41.099999996,-1.15116799096E-015)) ;
#125=CARTESIAN_POINT('Vertex',(44.6,41.0999999996,7.45055794837E-010)) ;
#128=CARTESIAN_POINT('Line Origine',(44.6000000007,22.3,0.)) ;
#143=CARTESIAN_POINT('Axis2P3D Location',(22.3,22.3,1.63155728814E-031)) ;
#147=CARTESIAN_POINT('Vertex',(9.8,22.3,-3.50625701647E-031)) ;
#149=CARTESIAN_POINT('Vertex',(34.8,22.3,3.72529007642E-010)) ;
#152=CARTESIAN_POINT('Axis2P3D Location',(22.3,22.3,-1.63155728814E-031)) ;
#169=CARTESIAN_POINT('Axis2P3D Location',(44.6,3.5,1.2)) ;
#174=CARTESIAN_POINT('Line Origine',(44.6,41.0999999996,0.600000000373)) ;
#178=CARTESIAN_POINT('Vertex',(44.6,41.0999999996,1.2)) ;
#181=CARTESIAN_POINT('Line Origine',(44.6,22.2999999998,1.2)) ;
#200=CARTESIAN_POINT('Axis2P3D Location',(22.3,22.3,1.2)) ;
#205=CARTESIAN_POINT('Axis2P3D Location',(41.099999996,41.099999996,1.2)) ;
#209=CARTESIAN_POINT('Vertex',(41.1,44.6,1.19999999963)) ;
#212=CARTESIAN_POINT('Line Origine',(22.3,44.6000000007,1.2)) ;
#216=CARTESIAN_POINT('Vertex',(3.5,44.6,1.2)) ;
#219=CARTESIAN_POINT('Axis2P3D Location',(3.50000000396,41.099999996,1.2)) ;
#223=CARTESIAN_POINT('Vertex',(0.,41.1,1.19999999963)) ;
#226=CARTESIAN_POINT('Line Origine',(-7.4505734915E-010,22.3,1.2)) ;
#230=CARTESIAN_POINT('Vertex',(0.,3.50000000037,1.2)) ;
#233=CARTESIAN_POINT('Axis2P3D Location',(3.50000000396,3.50000000396,1.2)) ;
#237=CARTESIAN_POINT('Vertex',(3.5,0.,1.19999999963)) ;
#240=CARTESIAN_POINT('Line Origine',(22.3,-7.4505734915E-010,1.2)) ;
#255=CARTESIAN_POINT('Axis2P3D Location',(22.3,22.3,1.2)) ;
#259=CARTESIAN_POINT('Vertex',(34.8,22.3,1.2)) ;
#261=CARTESIAN_POINT('Vertex',(9.8,22.3,1.19999999963)) ;
#264=CARTESIAN_POINT('Axis2P3D Location',(22.3,22.3,1.2)) ;
#281=CARTESIAN_POINT('Axis2P3D Location',(41.1,0.,1.2)) ;
#286=CARTESIAN_POINT('Line Origine',(3.50000000037,-3.67394039516E-017,0.600000000373)) ;
#305=CARTESIAN_POINT('Axis2P3D Location',(3.5,3.5,0.6)) ;
#310=CARTESIAN_POINT('Line Origine',(0.,3.5,0.599999999627)) ;
#329=CARTESIAN_POINT('Axis2P3D Location',(0.,41.1,1.2)) ;
#334=CARTESIAN_POINT('Line Origine',(0.,41.1,0.600000000373)) ;
#353=CARTESIAN_POINT('Axis2P3D Location',(3.5,41.1,0.6)) ;
#358=CARTESIAN_POINT('Line Origine',(3.5,44.6,0.599999999627)) ;
#377=CARTESIAN_POINT('Axis2P3D Location',(3.5,44.6,1.2)) ;
#382=CARTESIAN_POINT('Line Origine',(41.0999999996,44.6,0.600000000373)) ;
#401=CARTESIAN_POINT('Axis2P3D Location',(41.1,41.1,0.6)) ;
#420=CARTESIAN_POINT('Axis2P3D Location',(22.3,22.3,0.6)) ;
#425=CARTESIAN_POINT('Line Origine',(9.8,22.3,0.599999999627)) ;
#430=CARTESIAN_POINT('Line Origine',(34.8,22.3,0.599999999627)) ;
#449=CARTESIAN_POINT('Axis2P3D Location',(22.3,22.3,0.6)) ;
#34=DIRECTION('Axis2P3D Direction',(0.,6.12323399574E-017,1.)) ;
#35=DIRECTION('Axis2P3D XDirection',(-6.12323399574E-017,-1.,6.12323399574E-017)) ;
#39=DIRECTION('Axis2P3D Direction',(0.,6.12323399574E-017,1.)) ;
#48=DIRECTION('Vector Direction',(0.,6.12323525218E-017,1.)) ;
#55=DIRECTION('Axis2P3D Direction',(0.,6.12323399574E-017,1.)) ;
#62=DIRECTION('Vector Direction',(0.,6.12323525218E-017,1.)) ;
#82=DIRECTION('Axis2P3D Direction',(0.,6.12323399574E-017,1.)) ;
#83=DIRECTION('Axis2P3D XDirection',(-1.,0.,0.)) ;
#87=DIRECTION('Vector Direction',(-1.,0.,0.)) ;
#94=DIRECTION('Axis2P3D Direction',(0.,6.12323399574E-017,1.)) ;
#101=DIRECTION('Vector Direction',(0.,-1.,6.12323399574E-017)) ;
#108=DIRECTION('Axis2P3D Direction',(0.,6.12323399574E-017,1.)) ;
#115=DIRECTION('Vector Direction',(1.,0.,0.)) ;
#122=DIRECTION('Axis2P3D Direction',(0.,6.12323399574E-017,1.)) ;
#129=DIRECTION('Vector Direction',(0.,1.,-6.12323399574E-017)) ;
#144=DIRECTION('Axis2P3D Direction',(0.,6.12323399574E-017,1.)) ;
#153=DIRECTION('Axis2P3D Direction',(0.,6.12323399574E-017,1.)) ;
#170=DIRECTION('Axis2P3D Direction',(-1.,0.,-0.)) ;
#171=DIRECTION('Axis2P3D XDirection',(0.,1.,-6.12323399574E-017)) ;
#175=DIRECTION('Vector Direction',(0.,0.,-1.)) ;
#182=DIRECTION('Vector Direction',(0.,1.,-5.90544162041E-017)) ;
#201=DIRECTION('Axis2P3D Direction',(0.,6.12323399574E-017,1.)) ;
#202=DIRECTION('Axis2P3D XDirection',(-1.,0.,0.)) ;
#206=DIRECTION('Axis2P3D Direction',(0.,6.12323399574E-017,1.)) ;
#213=DIRECTION('Vector Direction',(1.,0.,0.)) ;
#220=DIRECTION('Axis2P3D Direction',(0.,6.12323399574E-017,1.)) ;
#227=DIRECTION('Vector Direction',(0.,-1.,5.90544162011E-017)) ;
#234=DIRECTION('Axis2P3D Direction',(0.,6.12323399574E-017,1.)) ;
#241=DIRECTION('Vector Direction',(-1.,0.,0.)) ;
#256=DIRECTION('Axis2P3D Direction',(0.,6.12323399574E-017,1.)) ;
#265=DIRECTION('Axis2P3D Direction',(0.,6.12323399574E-017,1.)) ;
#282=DIRECTION('Axis2P3D Direction',(0.,-1.,6.12323399574E-017)) ;
#283=DIRECTION('Axis2P3D XDirection',(-1.,0.,0.)) ;
#287=DIRECTION('Vector Direction',(0.,6.12323399574E-017,1.)) ;
#306=DIRECTION('Axis2P3D Direction',(0.,6.12323399574E-017,1.)) ;
#307=DIRECTION('Axis2P3D XDirection',(-1.,0.,0.)) ;
#311=DIRECTION('Vector Direction',(0.,6.12323525218E-017,1.)) ;
#330=DIRECTION('Axis2P3D Direction',(1.,0.,0.)) ;
#331=DIRECTION('Axis2P3D XDirection',(0.,-1.,6.12323399574E-017)) ;
#335=DIRECTION('Vector Direction',(0.,0.,1.)) ;
#354=DIRECTION('Axis2P3D Direction',(0.,6.12323399574E-017,1.)) ;
#355=DIRECTION('Axis2P3D XDirection',(1.83697019872E-016,1.,-6.12323399574E-017)) ;
#359=DIRECTION('Vector Direction',(0.,6.12324413396E-017,1.)) ;
#378=DIRECTION('Axis2P3D Direction',(0.,1.,-6.12323399574E-017)) ;
#379=DIRECTION('Axis2P3D XDirection',(1.,0.,0.)) ;
#383=DIRECTION('Vector Direction',(0.,0.,1.)) ;
#402=DIRECTION('Axis2P3D Direction',(1.94567007478E-044,6.12323399574E-017,1.)) ;
#403=DIRECTION('Axis2P3D XDirection',(1.,-1.22464679915E-016,7.49879891331E-033)) ;
#421=DIRECTION('Axis2P3D Direction',(0.,6.12323399574E-017,1.)) ;
#422=DIRECTION('Axis2P3D XDirection',(-1.,0.,0.)) ;
#426=DIRECTION('Vector Direction',(0.,6.12324413396E-017,1.)) ;
#431=DIRECTION('Vector Direction',(0.,6.12324413396E-017,1.)) ;
#450=DIRECTION('Axis2P3D Direction',(0.,6.12323399574E-017,1.)) ;
#451=DIRECTION('Axis2P3D XDirection',(1.,-1.22464679915E-016,7.49879891331E-033)) ;
#31=PRESENTATION_LAYER_ASSIGNMENT('1',' ',(#22)) ;
#8=PRODUCT_RELATED_PRODUCT_CATEGORY('part',$,(#5)) ;
#7=PRODUCT_CATEGORY('part','specification') ;
#30=STYLED_ITEM(' ',(#29),#22) ;
#29=PRESENTATION_STYLE_ASSIGNMENT((#28)) ;
#79=PRESENTATION_STYLE_ASSIGNMENT((#78)) ;
#167=PRESENTATION_STYLE_ASSIGNMENT((#166)) ;
#198=PRESENTATION_STYLE_ASSIGNMENT((#197)) ;
#279=PRESENTATION_STYLE_ASSIGNMENT((#278)) ;
#303=PRESENTATION_STYLE_ASSIGNMENT((#302)) ;
#327=PRESENTATION_STYLE_ASSIGNMENT((#326)) ;
#351=PRESENTATION_STYLE_ASSIGNMENT((#350)) ;
#375=PRESENTATION_STYLE_ASSIGNMENT((#374)) ;
#399=PRESENTATION_STYLE_ASSIGNMENT((#398)) ;
#418=PRESENTATION_STYLE_ASSIGNMENT((#417)) ;
#447=PRESENTATION_STYLE_ASSIGNMENT((#446)) ;
#466=PRESENTATION_STYLE_ASSIGNMENT((#465)) ;
#28=SURFACE_STYLE_USAGE(.BOTH.,#27) ;
#78=SURFACE_STYLE_USAGE(.BOTH.,#77) ;
#166=SURFACE_STYLE_USAGE(.BOTH.,#165) ;
#197=SURFACE_STYLE_USAGE(.BOTH.,#196) ;
#278=SURFACE_STYLE_USAGE(.BOTH.,#277) ;
#302=SURFACE_STYLE_USAGE(.BOTH.,#301) ;
#326=SURFACE_STYLE_USAGE(.BOTH.,#325) ;
#350=SURFACE_STYLE_USAGE(.BOTH.,#349) ;
#374=SURFACE_STYLE_USAGE(.BOTH.,#373) ;
#398=SURFACE_STYLE_USAGE(.BOTH.,#397) ;
#417=SURFACE_STYLE_USAGE(.BOTH.,#416) ;
#446=SURFACE_STYLE_USAGE(.BOTH.,#445) ;
#465=SURFACE_STYLE_USAGE(.BOTH.,#464) ;
#27=SURFACE_SIDE_STYLE(' ',(#26)) ;
#77=SURFACE_SIDE_STYLE(' ',(#76)) ;
#165=SURFACE_SIDE_STYLE(' ',(#164)) ;
#196=SURFACE_SIDE_STYLE(' ',(#195)) ;
#277=SURFACE_SIDE_STYLE(' ',(#276)) ;
#301=SURFACE_SIDE_STYLE(' ',(#300)) ;
#325=SURFACE_SIDE_STYLE(' ',(#324)) ;
#349=SURFACE_SIDE_STYLE(' ',(#348)) ;
#373=SURFACE_SIDE_STYLE(' ',(#372)) ;
#397=SURFACE_SIDE_STYLE(' ',(#396)) ;
#416=SURFACE_SIDE_STYLE(' ',(#415)) ;
#445=SURFACE_SIDE_STYLE(' ',(#444)) ;
#464=SURFACE_SIDE_STYLE(' ',(#463)) ;
#26=SURFACE_STYLE_FILL_AREA(#25) ;
#76=SURFACE_STYLE_FILL_AREA(#75) ;
#164=SURFACE_STYLE_FILL_AREA(#163) ;
#195=SURFACE_STYLE_FILL_AREA(#194) ;
#276=SURFACE_STYLE_FILL_AREA(#275) ;
#300=SURFACE_STYLE_FILL_AREA(#299) ;
#324=SURFACE_STYLE_FILL_AREA(#323) ;
#348=SURFACE_STYLE_FILL_AREA(#347) ;
#372=SURFACE_STYLE_FILL_AREA(#371) ;
#396=SURFACE_STYLE_FILL_AREA(#395) ;
#415=SURFACE_STYLE_FILL_AREA(#414) ;
#444=SURFACE_STYLE_FILL_AREA(#443) ;
#463=SURFACE_STYLE_FILL_AREA(#462) ;
#25=FILL_AREA_STYLE(' ',(#24)) ;
#75=FILL_AREA_STYLE(' ',(#74)) ;
#163=FILL_AREA_STYLE(' ',(#162)) ;
#194=FILL_AREA_STYLE(' ',(#193)) ;
#275=FILL_AREA_STYLE(' ',(#274)) ;
#299=FILL_AREA_STYLE(' ',(#298)) ;
#323=FILL_AREA_STYLE(' ',(#322)) ;
#347=FILL_AREA_STYLE(' ',(#346)) ;
#371=FILL_AREA_STYLE(' ',(#370)) ;
#395=FILL_AREA_STYLE(' ',(#394)) ;
#414=FILL_AREA_STYLE(' ',(#413)) ;
#443=FILL_AREA_STYLE(' ',(#442)) ;
#462=FILL_AREA_STYLE(' ',(#461)) ;
#24=FILL_AREA_STYLE_COLOUR(' ',#23) ;
#74=FILL_AREA_STYLE_COLOUR(' ',#73) ;
#162=FILL_AREA_STYLE_COLOUR(' ',#73) ;
#193=FILL_AREA_STYLE_COLOUR(' ',#73) ;
#274=FILL_AREA_STYLE_COLOUR(' ',#73) ;
#298=FILL_AREA_STYLE_COLOUR(' ',#73) ;
#322=FILL_AREA_STYLE_COLOUR(' ',#73) ;
#346=FILL_AREA_STYLE_COLOUR(' ',#73) ;
#370=FILL_AREA_STYLE_COLOUR(' ',#73) ;
#394=FILL_AREA_STYLE_COLOUR(' ',#73) ;
#413=FILL_AREA_STYLE_COLOUR(' ',#73) ;
#442=FILL_AREA_STYLE_COLOUR(' ',#73) ;
#461=FILL_AREA_STYLE_COLOUR(' ',#73) ;
#49=VECTOR('Line Direction',#48,1.) ;
#63=VECTOR('Line Direction',#62,1.) ;
#88=VECTOR('Line Direction',#87,1.) ;
#102=VECTOR('Line Direction',#101,1.) ;
#116=VECTOR('Line Direction',#115,1.) ;
#130=VECTOR('Line Direction',#129,1.) ;
#176=VECTOR('Line Direction',#175,1.) ;
#183=VECTOR('Line Direction',#182,1.) ;
#214=VECTOR('Line Direction',#213,1.) ;
#228=VECTOR('Line Direction',#227,1.) ;
#242=VECTOR('Line Direction',#241,1.) ;
#288=VECTOR('Line Direction',#287,1.) ;
#312=VECTOR('Line Direction',#311,1.) ;
#336=VECTOR('Line Direction',#335,1.) ;
#360=VECTOR('Line Direction',#359,1.) ;
#384=VECTOR('Line Direction',#383,1.) ;
#427=VECTOR('Line Direction',#426,1.) ;
#432=VECTOR('Line Direction',#431,1.) ;
#16=UNCERTAINTY_MEASURE_WITH_UNIT(LENGTH_MEASURE(0.005),#12,'distance_accuracy_value','CONFUSED CURVE UNCERTAINTY') ;
#469=SHAPE_REPRESENTATION_RELATIONSHIP(' ',' ',#20,#468) ;
#67=ORIENTED_EDGE('',*,*,#46,.T.) ;
#68=ORIENTED_EDGE('',*,*,#53,.F.) ;
#69=ORIENTED_EDGE('',*,*,#60,.F.) ;
#70=ORIENTED_EDGE('',*,*,#65,.T.) ;
#134=ORIENTED_EDGE('',*,*,#92,.F.) ;
#135=ORIENTED_EDGE('',*,*,#99,.F.) ;
#136=ORIENTED_EDGE('',*,*,#106,.F.) ;
#137=ORIENTED_EDGE('',*,*,#113,.F.) ;
#138=ORIENTED_EDGE('',*,*,#120,.F.) ;
#139=ORIENTED_EDGE('',*,*,#127,.F.) ;
#140=ORIENTED_EDGE('',*,*,#132,.F.) ;
#141=ORIENTED_EDGE('',*,*,#46,.F.) ;
#158=ORIENTED_EDGE('',*,*,#151,.T.) ;
#159=ORIENTED_EDGE('',*,*,#156,.T.) ;
#187=ORIENTED_EDGE('',*,*,#132,.T.) ;
#188=ORIENTED_EDGE('',*,*,#180,.F.) ;
#189=ORIENTED_EDGE('',*,*,#185,.F.) ;
#190=ORIENTED_EDGE('',*,*,#53,.T.) ;
#246=ORIENTED_EDGE('',*,*,#60,.T.) ;
#247=ORIENTED_EDGE('',*,*,#185,.T.) ;
#248=ORIENTED_EDGE('',*,*,#211,.T.) ;
#249=ORIENTED_EDGE('',*,*,#218,.T.) ;
#250=ORIENTED_EDGE('',*,*,#225,.T.) ;
#251=ORIENTED_EDGE('',*,*,#232,.T.) ;
#252=ORIENTED_EDGE('',*,*,#239,.T.) ;
#253=ORIENTED_EDGE('',*,*,#244,.T.) ;
#270=ORIENTED_EDGE('',*,*,#263,.F.) ;
#271=ORIENTED_EDGE('',*,*,#268,.F.) ;
#292=ORIENTED_EDGE('',*,*,#92,.T.) ;
#293=ORIENTED_EDGE('',*,*,#65,.F.) ;
#294=ORIENTED_EDGE('',*,*,#244,.F.) ;
#295=ORIENTED_EDGE('',*,*,#290,.T.) ;
#316=ORIENTED_EDGE('',*,*,#99,.T.) ;
#317=ORIENTED_EDGE('',*,*,#290,.F.) ;
#318=ORIENTED_EDGE('',*,*,#239,.F.) ;
#319=ORIENTED_EDGE('',*,*,#314,.T.) ;
#340=ORIENTED_EDGE('',*,*,#106,.T.) ;
#341=ORIENTED_EDGE('',*,*,#314,.F.) ;
#342=ORIENTED_EDGE('',*,*,#232,.F.) ;
#343=ORIENTED_EDGE('',*,*,#338,.T.) ;
#364=ORIENTED_EDGE('',*,*,#113,.T.) ;
#365=ORIENTED_EDGE('',*,*,#338,.F.) ;
#366=ORIENTED_EDGE('',*,*,#225,.F.) ;
#367=ORIENTED_EDGE('',*,*,#362,.T.) ;
#388=ORIENTED_EDGE('',*,*,#120,.T.) ;
#389=ORIENTED_EDGE('',*,*,#362,.F.) ;
#390=ORIENTED_EDGE('',*,*,#218,.F.) ;
#391=ORIENTED_EDGE('',*,*,#386,.T.) ;
#407=ORIENTED_EDGE('',*,*,#127,.T.) ;
#408=ORIENTED_EDGE('',*,*,#386,.F.) ;
#409=ORIENTED_EDGE('',*,*,#211,.F.) ;
#410=ORIENTED_EDGE('',*,*,#180,.T.) ;
#436=ORIENTED_EDGE('',*,*,#429,.F.) ;
#437=ORIENTED_EDGE('',*,*,#268,.T.) ;
#438=ORIENTED_EDGE('',*,*,#434,.T.) ;
#439=ORIENTED_EDGE('',*,*,#151,.F.) ;
#455=ORIENTED_EDGE('',*,*,#434,.F.) ;
#456=ORIENTED_EDGE('',*,*,#263,.T.) ;
#457=ORIENTED_EDGE('',*,*,#429,.T.) ;
#458=ORIENTED_EDGE('',*,*,#156,.F.) ;
#160=FACE_BOUND('',#157,.T.) ;
#272=FACE_BOUND('',#269,.T.) ;
#32=CLOSED_SHELL('Closed Shell',(#72,#161,#192,#273,#297,#321,#345,#369,#393,#412,#441,#460)) ;
#468=ADVANCED_BREP_SHAPE_REPRESENTATION('NONE',(#22),#17) ;
#72=ADVANCED_FACE('S3D gedreht',(#71),#37,.T.) ;
#161=ADVANCED_FACE('S3D gedreht',(#142,#160),#85,.F.) ;
#192=ADVANCED_FACE('S3D gedreht',(#191),#173,.F.) ;
#273=ADVANCED_FACE('S3D gedreht',(#254,#272),#204,.T.) ;
#297=ADVANCED_FACE('S3D gedreht',(#296),#285,.T.) ;
#321=ADVANCED_FACE('S3D gedreht',(#320),#309,.T.) ;
#345=ADVANCED_FACE('S3D gedreht',(#344),#333,.F.) ;
#369=ADVANCED_FACE('S3D gedreht',(#368),#357,.T.) ;
#393=ADVANCED_FACE('S3D gedreht',(#392),#381,.T.) ;
#412=ADVANCED_FACE('S3D gedreht',(#411),#405,.T.) ;
#441=ADVANCED_FACE('S3D gedreht',(#440),#424,.F.) ;
#460=ADVANCED_FACE('S3D gedreht',(#459),#453,.F.) ;
#4=APPLICATION_PROTOCOL_DEFINITION('international standard','automotive_design',2001,#1) ;
#22=MANIFOLD_SOLID_BREP('S3D gedreht',#32) ;
#41=CIRCLE('generated circle',#40,3.5) ;
#57=CIRCLE('generated circle',#56,3.5) ;
#96=CIRCLE('generated circle',#95,3.5000000047) ;
#110=CIRCLE('generated circle',#109,3.5000000047) ;
#124=CIRCLE('generated circle',#123,3.5000000047) ;
#146=CIRCLE('generated circle',#145,12.5) ;
#155=CIRCLE('generated circle',#154,12.5) ;
#208=CIRCLE('generated circle',#207,3.5000000047) ;
#222=CIRCLE('generated circle',#221,3.5000000047) ;
#236=CIRCLE('generated circle',#235,3.5000000047) ;
#258=CIRCLE('generated circle',#257,12.5) ;
#267=CIRCLE('generated circle',#266,12.5) ;
#23=COLOUR_RGB('Colour',0.823529411765,0.823529411765,1.) ;
#80=OVER_RIDING_STYLED_ITEM(' ',(#79),#72,#30) ;
#168=OVER_RIDING_STYLED_ITEM(' ',(#167),#161,#30) ;
#199=OVER_RIDING_STYLED_ITEM(' ',(#198),#192,#30) ;
#280=OVER_RIDING_STYLED_ITEM(' ',(#279),#273,#30) ;
#304=OVER_RIDING_STYLED_ITEM(' ',(#303),#297,#30) ;
#328=OVER_RIDING_STYLED_ITEM(' ',(#327),#321,#30) ;
#352=OVER_RIDING_STYLED_ITEM(' ',(#351),#345,#30) ;
#376=OVER_RIDING_STYLED_ITEM(' ',(#375),#369,#30) ;
#400=OVER_RIDING_STYLED_ITEM(' ',(#399),#393,#30) ;
#419=OVER_RIDING_STYLED_ITEM(' ',(#418),#412,#30) ;
#448=OVER_RIDING_STYLED_ITEM(' ',(#447),#441,#30) ;
#467=OVER_RIDING_STYLED_ITEM(' ',(#466),#460,#30) ;
#37=CYLINDRICAL_SURFACE('generated cylinder',#36,3.5) ;
#309=CYLINDRICAL_SURFACE('generated cylinder',#308,3.5) ;
#357=CYLINDRICAL_SURFACE('generated cylinder',#356,3.5) ;
#405=CYLINDRICAL_SURFACE('generated cylinder',#404,3.5) ;
#424=CYLINDRICAL_SURFACE('generated cylinder',#423,12.5) ;
#453=CYLINDRICAL_SURFACE('generated cylinder',#452,12.5) ;
#73=DRAUGHTING_PRE_DEFINED_COLOUR('yellow') ;
#46=EDGE_CURVE('',#43,#45,#41,.T.) ;
#53=EDGE_CURVE('',#52,#45,#50,.F.) ;
#60=EDGE_CURVE('',#59,#52,#57,.T.) ;
#65=EDGE_CURVE('',#59,#43,#64,.F.) ;
#92=EDGE_CURVE('',#91,#43,#89,.F.) ;
#99=EDGE_CURVE('',#98,#91,#96,.T.) ;
#106=EDGE_CURVE('',#105,#98,#103,.T.) ;
#113=EDGE_CURVE('',#112,#105,#110,.T.) ;
#120=EDGE_CURVE('',#119,#112,#117,.F.) ;
#127=EDGE_CURVE('',#126,#119,#124,.T.) ;
#132=EDGE_CURVE('',#45,#126,#131,.T.) ;
#151=EDGE_CURVE('',#148,#150,#146,.T.) ;
#156=EDGE_CURVE('',#150,#148,#155,.T.) ;
#180=EDGE_CURVE('',#179,#126,#177,.T.) ;
#185=EDGE_CURVE('',#52,#179,#184,.T.) ;
#211=EDGE_CURVE('',#179,#210,#208,.T.) ;
#218=EDGE_CURVE('',#210,#217,#215,.F.) ;
#225=EDGE_CURVE('',#217,#224,#222,.T.) ;
#232=EDGE_CURVE('',#224,#231,#229,.T.) ;
#239=EDGE_CURVE('',#231,#238,#236,.T.) ;
#244=EDGE_CURVE('',#238,#59,#243,.F.) ;
#263=EDGE_CURVE('',#260,#262,#258,.T.) ;
#268=EDGE_CURVE('',#262,#260,#267,.T.) ;
#290=EDGE_CURVE('',#238,#91,#289,.F.) ;
#314=EDGE_CURVE('',#231,#98,#313,.F.) ;
#338=EDGE_CURVE('',#224,#105,#337,.F.) ;
#362=EDGE_CURVE('',#217,#112,#361,.F.) ;
#386=EDGE_CURVE('',#210,#119,#385,.F.) ;
#429=EDGE_CURVE('',#262,#148,#428,.F.) ;
#434=EDGE_CURVE('',#260,#150,#433,.F.) ;
#66=EDGE_LOOP('',(#67,#68,#69,#70)) ;
#133=EDGE_LOOP('',(#134,#135,#136,#137,#138,#139,#140,#141)) ;
#157=EDGE_LOOP('',(#158,#159)) ;
#186=EDGE_LOOP('',(#187,#188,#189,#190)) ;
#245=EDGE_LOOP('',(#246,#247,#248,#249,#250,#251,#252,#253)) ;
#269=EDGE_LOOP('',(#270,#271)) ;
#291=EDGE_LOOP('',(#292,#293,#294,#295)) ;
#315=EDGE_LOOP('',(#316,#317,#318,#319)) ;
#339=EDGE_LOOP('',(#340,#341,#342,#343)) ;
#363=EDGE_LOOP('',(#364,#365,#366,#367)) ;
#387=EDGE_LOOP('',(#388,#389,#390,#391)) ;
#406=EDGE_LOOP('',(#407,#408,#409,#410)) ;
#435=EDGE_LOOP('',(#436,#437,#438,#439)) ;
#454=EDGE_LOOP('',(#455,#456,#457,#458)) ;
#71=FACE_OUTER_BOUND('',#66,.T.) ;
#142=FACE_OUTER_BOUND('',#133,.T.) ;
#191=FACE_OUTER_BOUND('',#186,.T.) ;
#254=FACE_OUTER_BOUND('',#245,.T.) ;
#296=FACE_OUTER_BOUND('',#291,.T.) ;
#320=FACE_OUTER_BOUND('',#315,.T.) ;
#344=FACE_OUTER_BOUND('',#339,.T.) ;
#368=FACE_OUTER_BOUND('',#363,.T.) ;
#392=FACE_OUTER_BOUND('',#387,.T.) ;
#411=FACE_OUTER_BOUND('',#406,.T.) ;
#440=FACE_OUTER_BOUND('',#435,.T.) ;
#459=FACE_OUTER_BOUND('',#454,.T.) ;
#50=LINE('Line',#47,#49) ;
#64=LINE('Line',#61,#63) ;
#89=LINE('Line',#86,#88) ;
#103=LINE('Line',#100,#102) ;
#117=LINE('Line',#114,#116) ;
#131=LINE('Line',#128,#130) ;
#177=LINE('Line',#174,#176) ;
#184=LINE('Line',#181,#183) ;
#215=LINE('Line',#212,#214) ;
#229=LINE('Line',#226,#228) ;
#243=LINE('Line',#240,#242) ;
#289=LINE('Line',#286,#288) ;
#313=LINE('Line',#310,#312) ;
#337=LINE('Line',#334,#336) ;
#361=LINE('Line',#358,#360) ;
#385=LINE('Line',#382,#384) ;
#428=LINE('Line',#425,#427) ;
#433=LINE('Line',#430,#432) ;
#85=PLANE('',#84) ;
#173=PLANE('',#172) ;
#204=PLANE('',#203) ;
#285=PLANE('',#284) ;
#333=PLANE('',#332) ;
#381=PLANE('',#380) ;
#14=PLANE_ANGLE_MEASURE_WITH_UNIT(PLANE_ANGLE_MEASURE(0.0174532925199),#13) ;
#9=PRODUCT_CATEGORY_RELATIONSHIP(' ',' ',#7,#8) ;
#6=PRODUCT_DEFINITION_FORMATION_WITH_SPECIFIED_SOURCE('',' ',#5,.NOT_KNOWN.) ;
#21=SHAPE_DEFINITION_REPRESENTATION(#11,#20) ;
#43=VERTEX_POINT('',#42) ;
#45=VERTEX_POINT('',#44) ;
#52=VERTEX_POINT('',#51) ;
#59=VERTEX_POINT('',#58) ;
#91=VERTEX_POINT('',#90) ;
#98=VERTEX_POINT('',#97) ;
#105=VERTEX_POINT('',#104) ;
#112=VERTEX_POINT('',#111) ;
#119=VERTEX_POINT('',#118) ;
#126=VERTEX_POINT('',#125) ;
#148=VERTEX_POINT('',#147) ;
#150=VERTEX_POINT('',#149) ;
#179=VERTEX_POINT('',#178) ;
#210=VERTEX_POINT('',#209) ;
#217=VERTEX_POINT('',#216) ;
#224=VERTEX_POINT('',#223) ;
#231=VERTEX_POINT('',#230) ;
#238=VERTEX_POINT('',#237) ;
#260=VERTEX_POINT('',#259) ;
#262=VERTEX_POINT('',#261) ;
#12=(LENGTH_UNIT()NAMED_UNIT(*)SI_UNIT(.MILLI.,.METRE.)) ;
#13=(NAMED_UNIT(*)PLANE_ANGLE_UNIT()SI_UNIT($,.RADIAN.)) ;
#15=(NAMED_UNIT(*)SI_UNIT($,.STERADIAN.)SOLID_ANGLE_UNIT()) ;
#17=(GEOMETRIC_REPRESENTATION_CONTEXT(3)GLOBAL_UNCERTAINTY_ASSIGNED_CONTEXT((#16))GLOBAL_UNIT_ASSIGNED_CONTEXT((#12,#13,#15))REPRESENTATION_CONTEXT(' ',' ')) ;
ENDSEC;
END-ISO-10303-21;
