ISO-10303-21;
HEADER;
FILE_DESCRIPTION(('CATIA V5R24 STEP','CAx-IF Rec.Pracs.--- Model Styling and Organization---1.2---2011-12-15'),'2;1');

FILE_NAME ('035238-1_1', '2018-07-19T09:49:08+00:00', ('Weidmueller Interface'), ('Weidmueller'), 'CATIA Version 5-6 Release 2014 SP4 HF52', 'CATIA V5 STEP AP214', 'none');

FILE_SCHEMA(('AUTOMOTIVE_DESIGN { 1 0 10303 214 1 1 1 1 }'));

ENDSEC;
DATA;
#5=PRODUCT('0299700000','','',(#2)) ;
#2=PRODUCT_CONTEXT(' ',#1,'mechanical') ;
#1=APPLICATION_CONTEXT('automotive design') ;
#10=PRODUCT_DEFINITION('',' ',#6,#3) ;
#3=PRODUCT_DEFINITION_CONTEXT('part definition',#1,' ') ;
#11=PRODUCT_DEFINITION_SHAPE(' ',' ',#10) ;
#186=MECHANICAL_DESIGN_GEOMETRIC_PRESENTATION_REPRESENTATION(' ',(#29),#16) ;
#19=SHAPE_REPRESENTATION(' ',(#18),#16) ;
#18=AXIS2_PLACEMENT_3D(' ',#17,$,$) ;
#35=AXIS2_PLACEMENT_3D('Cylinder Axis2P3D',#32,#33,#34) ;
#39=AXIS2_PLACEMENT_3D('Circle Axis2P3D',#37,#38,$) ;
#55=AXIS2_PLACEMENT_3D('Circle Axis2P3D',#53,#54,$) ;
#75=AXIS2_PLACEMENT_3D('Plane Axis2P3D',#72,#73,#74) ;
#79=AXIS2_PLACEMENT_3D('Circle Axis2P3D',#77,#78,$) ;
#88=AXIS2_PLACEMENT_3D('Circle Axis2P3D',#86,#87,$) ;
#97=AXIS2_PLACEMENT_3D('Circle Axis2P3D',#95,#96,$) ;
#108=AXIS2_PLACEMENT_3D('Cylinder Axis2P3D',#105,#106,#107) ;
#112=AXIS2_PLACEMENT_3D('Circle Axis2P3D',#110,#111,$) ;
#125=AXIS2_PLACEMENT_3D('Plane Axis2P3D',#122,#123,#124) ;
#129=AXIS2_PLACEMENT_3D('Circle Axis2P3D',#127,#128,$) ;
#138=AXIS2_PLACEMENT_3D('Circle Axis2P3D',#136,#137,$) ;
#153=AXIS2_PLACEMENT_3D('Cylinder Axis2P3D',#150,#151,#152) ;
#175=AXIS2_PLACEMENT_3D('Cylinder Axis2P3D',#172,#173,#174) ;
#17=CARTESIAN_POINT(' ',(0.,0.,0.)) ;
#32=CARTESIAN_POINT('Axis2P3D Location',(3.5,3.5,13.5)) ;
#37=CARTESIAN_POINT('Axis2P3D Location',(3.5,3.5,13.5999999996)) ;
#41=CARTESIAN_POINT('Vertex',(1.65707662003,4.50679363107,13.5999999996)) ;
#43=CARTESIAN_POINT('Vertex',(5.34292337997,2.49320636893,13.5999999996)) ;
#46=CARTESIAN_POINT('Line Origine',(1.65707662003,4.50679363107,13.5)) ;
#50=CARTESIAN_POINT('Vertex',(1.65707662003,4.50679363107,-3.65791513483E-015)) ;
#53=CARTESIAN_POINT('Axis2P3D Location',(3.5,3.5,-3.5527136788E-015)) ;
#57=CARTESIAN_POINT('Vertex',(5.34292337997,2.49320636893,-3.44751222278E-015)) ;
#60=CARTESIAN_POINT('Line Origine',(5.34292337997,2.49320636893,13.5)) ;
#72=CARTESIAN_POINT('Axis2P3D Location',(3.5,7.,13.6)) ;
#77=CARTESIAN_POINT('Axis2P3D Location',(3.5,3.5,13.6)) ;
#81=CARTESIAN_POINT('Vertex',(5.17798938511,6.57153896662,13.6000000007)) ;
#83=CARTESIAN_POINT('Vertex',(1.82201061489,0.428461033382,13.6000000007)) ;
#86=CARTESIAN_POINT('Axis2P3D Location',(3.5,3.5,13.6)) ;
#95=CARTESIAN_POINT('Axis2P3D Location',(3.5,3.5,13.6)) ;
#105=CARTESIAN_POINT('Axis2P3D Location',(3.5,3.5,13.5)) ;
#110=CARTESIAN_POINT('Axis2P3D Location',(3.5,3.5,-3.5527136788E-015)) ;
#122=CARTESIAN_POINT('Axis2P3D Location',(3.5,3.5,-1.0285889787E-015)) ;
#127=CARTESIAN_POINT('Axis2P3D Location',(3.5,3.5,-1.0285889787E-015)) ;
#131=CARTESIAN_POINT('Vertex',(5.17798938602,6.57153896615,-1.93126072962E-015)) ;
#133=CARTESIAN_POINT('Vertex',(1.82201061398,0.428461033851,-1.25917227781E-016)) ;
#136=CARTESIAN_POINT('Axis2P3D Location',(3.5,3.5,-1.0285889787E-015)) ;
#150=CARTESIAN_POINT('Axis2P3D Location',(3.5,3.5,6.8)) ;
#155=CARTESIAN_POINT('Line Origine',(5.17798938511,6.57153896662,6.80000000005)) ;
#160=CARTESIAN_POINT('Line Origine',(1.82201061489,0.428461033384,6.80000000005)) ;
#172=CARTESIAN_POINT('Axis2P3D Location',(3.5,3.5,6.8)) ;
#33=DIRECTION('Axis2P3D Direction',(1.58671975514E-028,-1.04491578788E-016,-1.)) ;
#34=DIRECTION('Axis2P3D XDirection',(-0.87758256189,0.479425538604,-5.00959314402E-017)) ;
#38=DIRECTION('Axis2P3D Direction',(1.58671975514E-028,-1.04491578788E-016,-1.)) ;
#47=DIRECTION('Vector Direction',(0.,-1.04491526542E-016,-1.)) ;
#54=DIRECTION('Axis2P3D Direction',(1.58671975514E-028,-1.04491578788E-016,-1.)) ;
#61=DIRECTION('Vector Direction',(0.,-1.04491526542E-016,-1.)) ;
#73=DIRECTION('Axis2P3D Direction',(0.,-2.93882565342E-016,-1.)) ;
#74=DIRECTION('Axis2P3D XDirection',(1.,0.,0.)) ;
#78=DIRECTION('Axis2P3D Direction',(0.,-2.93882565342E-016,-1.)) ;
#87=DIRECTION('Axis2P3D Direction',(0.,-2.93882565342E-016,-1.)) ;
#96=DIRECTION('Axis2P3D Direction',(0.,-2.93882565342E-016,-1.)) ;
#106=DIRECTION('Axis2P3D Direction',(1.58671975514E-028,-1.04491578788E-016,-1.)) ;
#107=DIRECTION('Axis2P3D XDirection',(0.87758256189,-0.479425538604,5.00959314402E-017)) ;
#111=DIRECTION('Axis2P3D Direction',(1.58671975514E-028,-1.04491578788E-016,-1.)) ;
#123=DIRECTION('Axis2P3D Direction',(0.,-2.93882565342E-016,-1.)) ;
#124=DIRECTION('Axis2P3D XDirection',(1.,0.,0.)) ;
#128=DIRECTION('Axis2P3D Direction',(0.,-2.93882565342E-016,-1.)) ;
#137=DIRECTION('Axis2P3D Direction',(0.,-2.93882565342E-016,-1.)) ;
#151=DIRECTION('Axis2P3D Direction',(-1.73721962472E-028,-2.93882565342E-016,-1.)) ;
#152=DIRECTION('Axis2P3D XDirection',(0.479425538604,0.87758256189,-2.57906214588E-016)) ;
#156=DIRECTION('Vector Direction',(0.,-2.93882251867E-016,-1.)) ;
#161=DIRECTION('Vector Direction',(0.,-2.93882695956E-016,-1.)) ;
#173=DIRECTION('Axis2P3D Direction',(-1.73721962472E-028,-2.93882565342E-016,-1.)) ;
#174=DIRECTION('Axis2P3D XDirection',(-0.479425538604,-0.87758256189,2.57906214588E-016)) ;
#30=PRESENTATION_LAYER_ASSIGNMENT('1',' ',(#21)) ;
#8=PRODUCT_RELATED_PRODUCT_CATEGORY('part',$,(#5)) ;
#7=PRODUCT_CATEGORY('part','specification') ;
#29=STYLED_ITEM(' ',(#28),#21) ;
#28=PRESENTATION_STYLE_ASSIGNMENT((#27)) ;
#27=SURFACE_STYLE_USAGE(.BOTH.,#26) ;
#26=SURFACE_SIDE_STYLE(' ',(#25)) ;
#25=SURFACE_STYLE_FILL_AREA(#24) ;
#24=FILL_AREA_STYLE(' ',(#23)) ;
#23=FILL_AREA_STYLE_COLOUR(' ',#22) ;
#48=VECTOR('Line Direction',#47,1.) ;
#62=VECTOR('Line Direction',#61,1.) ;
#157=VECTOR('Line Direction',#156,1.) ;
#162=VECTOR('Line Direction',#161,1.) ;
#15=UNCERTAINTY_MEASURE_WITH_UNIT(LENGTH_MEASURE(0.005),#12,'distance_accuracy_value','CONFUSED CURVE UNCERTAINTY') ;
#185=SHAPE_REPRESENTATION_RELATIONSHIP(' ',' ',#19,#184) ;
#66=ORIENTED_EDGE('',*,*,#45,.F.) ;
#67=ORIENTED_EDGE('',*,*,#52,.F.) ;
#68=ORIENTED_EDGE('',*,*,#59,.T.) ;
#69=ORIENTED_EDGE('',*,*,#64,.T.) ;
#92=ORIENTED_EDGE('',*,*,#85,.F.) ;
#93=ORIENTED_EDGE('',*,*,#90,.F.) ;
#101=ORIENTED_EDGE('',*,*,#45,.T.) ;
#102=ORIENTED_EDGE('',*,*,#99,.T.) ;
#116=ORIENTED_EDGE('',*,*,#99,.F.) ;
#117=ORIENTED_EDGE('',*,*,#64,.F.) ;
#118=ORIENTED_EDGE('',*,*,#114,.T.) ;
#119=ORIENTED_EDGE('',*,*,#52,.T.) ;
#142=ORIENTED_EDGE('',*,*,#135,.T.) ;
#143=ORIENTED_EDGE('',*,*,#140,.T.) ;
#146=ORIENTED_EDGE('',*,*,#114,.F.) ;
#147=ORIENTED_EDGE('',*,*,#59,.F.) ;
#166=ORIENTED_EDGE('',*,*,#135,.F.) ;
#167=ORIENTED_EDGE('',*,*,#159,.T.) ;
#168=ORIENTED_EDGE('',*,*,#85,.T.) ;
#169=ORIENTED_EDGE('',*,*,#164,.F.) ;
#178=ORIENTED_EDGE('',*,*,#140,.F.) ;
#179=ORIENTED_EDGE('',*,*,#164,.T.) ;
#180=ORIENTED_EDGE('',*,*,#90,.T.) ;
#181=ORIENTED_EDGE('',*,*,#159,.F.) ;
#103=FACE_BOUND('',#100,.T.) ;
#148=FACE_BOUND('',#145,.T.) ;
#31=CLOSED_SHELL('Closed Shell',(#71,#104,#121,#149,#171,#183)) ;
#184=ADVANCED_BREP_SHAPE_REPRESENTATION('NONE',(#21),#16) ;
#71=ADVANCED_FACE('K\X2\00F6\X0\rper.2',(#70),#36,.F.) ;
#104=ADVANCED_FACE('K\X2\00F6\X0\rper.2',(#94,#103),#76,.F.) ;
#121=ADVANCED_FACE('K\X2\00F6\X0\rper.2',(#120),#109,.F.) ;
#149=ADVANCED_FACE('K\X2\00F6\X0\rper.2',(#144,#148),#126,.T.) ;
#171=ADVANCED_FACE('K\X2\00F6\X0\rper.2',(#170),#154,.T.) ;
#183=ADVANCED_FACE('K\X2\00F6\X0\rper.2',(#182),#176,.T.) ;
#4=APPLICATION_PROTOCOL_DEFINITION('international standard','automotive_design',2001,#1) ;
#21=MANIFOLD_SOLID_BREP('K\X2\00F6\X0\rper.2',#31) ;
#40=CIRCLE('generated circle',#39,2.1) ;
#56=CIRCLE('generated circle',#55,2.1) ;
#80=CIRCLE('generated circle',#79,3.50000000003) ;
#89=CIRCLE('generated circle',#88,3.50000000003) ;
#98=CIRCLE('generated circle',#97,2.10000000049) ;
#113=CIRCLE('generated circle',#112,2.1) ;
#130=CIRCLE('generated circle',#129,3.50000000003) ;
#139=CIRCLE('generated circle',#138,3.50000000003) ;
#22=COLOUR_RGB('Colour',0.823529411765,0.823529411765,1.) ;
#36=CYLINDRICAL_SURFACE('generated cylinder',#35,2.1) ;
#109=CYLINDRICAL_SURFACE('generated cylinder',#108,2.1) ;
#154=CYLINDRICAL_SURFACE('generated cylinder',#153,3.5) ;
#176=CYLINDRICAL_SURFACE('generated cylinder',#175,3.5) ;
#45=EDGE_CURVE('',#42,#44,#40,.T.) ;
#52=EDGE_CURVE('',#51,#42,#49,.F.) ;
#59=EDGE_CURVE('',#51,#58,#56,.T.) ;
#64=EDGE_CURVE('',#58,#44,#63,.F.) ;
#85=EDGE_CURVE('',#82,#84,#80,.T.) ;
#90=EDGE_CURVE('',#84,#82,#89,.T.) ;
#99=EDGE_CURVE('',#44,#42,#98,.T.) ;
#114=EDGE_CURVE('',#58,#51,#113,.T.) ;
#135=EDGE_CURVE('',#132,#134,#130,.T.) ;
#140=EDGE_CURVE('',#134,#132,#139,.T.) ;
#159=EDGE_CURVE('',#132,#82,#158,.F.) ;
#164=EDGE_CURVE('',#134,#84,#163,.F.) ;
#65=EDGE_LOOP('',(#66,#67,#68,#69)) ;
#91=EDGE_LOOP('',(#92,#93)) ;
#100=EDGE_LOOP('',(#101,#102)) ;
#115=EDGE_LOOP('',(#116,#117,#118,#119)) ;
#141=EDGE_LOOP('',(#142,#143)) ;
#145=EDGE_LOOP('',(#146,#147)) ;
#165=EDGE_LOOP('',(#166,#167,#168,#169)) ;
#177=EDGE_LOOP('',(#178,#179,#180,#181)) ;
#70=FACE_OUTER_BOUND('',#65,.T.) ;
#94=FACE_OUTER_BOUND('',#91,.T.) ;
#120=FACE_OUTER_BOUND('',#115,.T.) ;
#144=FACE_OUTER_BOUND('',#141,.T.) ;
#170=FACE_OUTER_BOUND('',#165,.T.) ;
#182=FACE_OUTER_BOUND('',#177,.T.) ;
#49=LINE('Line',#46,#48) ;
#63=LINE('Line',#60,#62) ;
#158=LINE('Line',#155,#157) ;
#163=LINE('Line',#160,#162) ;
#76=PLANE('',#75) ;
#126=PLANE('',#125) ;
#9=PRODUCT_CATEGORY_RELATIONSHIP(' ',' ',#7,#8) ;
#6=PRODUCT_DEFINITION_FORMATION_WITH_SPECIFIED_SOURCE('',' ',#5,.NOT_KNOWN.) ;
#20=SHAPE_DEFINITION_REPRESENTATION(#11,#19) ;
#42=VERTEX_POINT('',#41) ;
#44=VERTEX_POINT('',#43) ;
#51=VERTEX_POINT('',#50) ;
#58=VERTEX_POINT('',#57) ;
#82=VERTEX_POINT('',#81) ;
#84=VERTEX_POINT('',#83) ;
#132=VERTEX_POINT('',#131) ;
#134=VERTEX_POINT('',#133) ;
#12=(LENGTH_UNIT()NAMED_UNIT(*)SI_UNIT(.MILLI.,.METRE.)) ;
#13=(NAMED_UNIT(*)PLANE_ANGLE_UNIT()SI_UNIT($,.RADIAN.)) ;
#14=(NAMED_UNIT(*)SI_UNIT($,.STERADIAN.)SOLID_ANGLE_UNIT()) ;
#16=(GEOMETRIC_REPRESENTATION_CONTEXT(3)GLOBAL_UNCERTAINTY_ASSIGNED_CONTEXT((#15))GLOBAL_UNIT_ASSIGNED_CONTEXT((#12,#13,#14))REPRESENTATION_CONTEXT(' ',' ')) ;
ENDSEC;
END-ISO-10303-21;
