ISO-10303-21;
HEADER;
FILE_DESCRIPTION(('CATIA V5R24 STEP','CAx-IF Rec.Pracs.--- Model Styling and Organization---1.2---2011-12-15'),'2;1');

FILE_NAME ('D1448562_0', '2016-08-29T08:03:14+00:00', ('Weidmueller Interface'), ('Weidmueller'), 'CATIA Version 5-6 Release 2014 SP4', 'CATIA V5 STEP AP214', 'none');

FILE_SCHEMA(('AUTOMOTIVE_DESIGN { 1 0 10303 214 1 1 1 1 }'));

ENDSEC;
DATA;
#5=PRODUCT('58262_THM_GEW_FLAG_54X8','','LEITERMARKIERER',(#2)) ;
#2=PRODUCT_CONTEXT(' ',#1,'mechanical') ;
#1=APPLICATION_CONTEXT('automotive design') ;
#10=PRODUCT_DEFINITION('',' ',#6,#3) ;
#3=PRODUCT_DEFINITION_CONTEXT('part definition',#1,' ') ;
#11=PRODUCT_DEFINITION_SHAPE(' ',' ',#10) ;
#248=MECHANICAL_DESIGN_GEOMETRIC_PRESENTATION_REPRESENTATION(' ',(#29),#16) ;
#19=SHAPE_REPRESENTATION(' ',(#18),#16) ;
#18=AXIS2_PLACEMENT_3D(' ',#17,$,$) ;
#35=AXIS2_PLACEMENT_3D('Plane Axis2P3D',#32,#33,#34) ;
#75=AXIS2_PLACEMENT_3D('Plane Axis2P3D',#72,#73,#74) ;
#106=AXIS2_PLACEMENT_3D('Plane Axis2P3D',#103,#104,#105) ;
#137=AXIS2_PLACEMENT_3D('Plane Axis2P3D',#134,#135,#136) ;
#168=AXIS2_PLACEMENT_3D('Plane Axis2P3D',#165,#166,#167) ;
#199=AXIS2_PLACEMENT_3D('Plane Axis2P3D',#196,#197,#198) ;
#221=AXIS2_PLACEMENT_3D('Plane Axis2P3D',#218,#219,#220) ;
#235=AXIS2_PLACEMENT_3D('Plane Axis2P3D',#232,#233,#234) ;
#17=CARTESIAN_POINT(' ',(0.,0.,0.)) ;
#32=CARTESIAN_POINT('Axis2P3D Location',(0.15,-1.7763568394E-015,27.)) ;
#37=CARTESIAN_POINT('Line Origine',(0.15,-1.7763568394E-015,27.)) ;
#41=CARTESIAN_POINT('Vertex',(0.3,-1.7763568394E-015,27.)) ;
#43=CARTESIAN_POINT('Vertex',(1.65327317885E-015,-1.7763568394E-015,27.)) ;
#46=CARTESIAN_POINT('Line Origine',(0.3,4.,27.)) ;
#50=CARTESIAN_POINT('Vertex',(0.3,8.,27.)) ;
#53=CARTESIAN_POINT('Line Origine',(0.15,8.,27.)) ;
#57=CARTESIAN_POINT('Vertex',(1.65327317885E-015,8.,27.)) ;
#60=CARTESIAN_POINT('Line Origine',(1.66533453694E-015,4.,27.)) ;
#72=CARTESIAN_POINT('Axis2P3D Location',(0.15,8.,5.5)) ;
#77=CARTESIAN_POINT('Line Origine',(0.3,8.,16.25)) ;
#81=CARTESIAN_POINT('Vertex',(0.3,8.,5.5)) ;
#84=CARTESIAN_POINT('Line Origine',(0.15,8.,5.5)) ;
#88=CARTESIAN_POINT('Vertex',(3.36777869766E-016,8.,5.5)) ;
#91=CARTESIAN_POINT('Line Origine',(9.85322934355E-016,8.,16.25)) ;
#103=CARTESIAN_POINT('Axis2P3D Location',(0.15,6.,-1.45473230946E-015)) ;
#108=CARTESIAN_POINT('Line Origine',(0.3,7.,2.75)) ;
#112=CARTESIAN_POINT('Vertex',(0.3,6.,-1.46391716046E-015)) ;
#115=CARTESIAN_POINT('Line Origine',(0.15,6.,-1.45473230946E-015)) ;
#119=CARTESIAN_POINT('Vertex',(-8.15778644068E-032,6.,-1.44554745847E-015)) ;
#122=CARTESIAN_POINT('Line Origine',(1.66533453694E-016,7.,2.75)) ;
#134=CARTESIAN_POINT('Axis2P3D Location',(0.15,6.,-1.22464679915E-016)) ;
#139=CARTESIAN_POINT('Line Origine',(0.3,4.,-9.18485099361E-018)) ;
#143=CARTESIAN_POINT('Vertex',(0.3,2.,1.13279828921E-016)) ;
#146=CARTESIAN_POINT('Line Origine',(0.15,2.,1.22464679915E-016)) ;
#150=CARTESIAN_POINT('Vertex',(0.,2.,1.31649530908E-016)) ;
#153=CARTESIAN_POINT('Line Origine',(0.,4.,9.18485099361E-018)) ;
#165=CARTESIAN_POINT('Axis2P3D Location',(0.15,2.,1.22464679915E-016)) ;
#170=CARTESIAN_POINT('Line Origine',(0.3,1.,2.75)) ;
#174=CARTESIAN_POINT('Vertex',(0.3,0.,5.5)) ;
#177=CARTESIAN_POINT('Line Origine',(0.15,2.22044604925E-016,5.5)) ;
#181=CARTESIAN_POINT('Vertex',(3.36777869766E-016,0.,5.5)) ;
#184=CARTESIAN_POINT('Line Origine',(1.66533453694E-016,1.,2.75)) ;
#196=CARTESIAN_POINT('Axis2P3D Location',(0.15,1.7763568394E-015,27.)) ;
#201=CARTESIAN_POINT('Line Origine',(0.3,1.11810918486E-015,16.25)) ;
#206=CARTESIAN_POINT('Line Origine',(1.01307850997E-015,1.11810918486E-015,16.25)) ;
#218=CARTESIAN_POINT('Axis2P3D Location',(0.3,4.,-9.18485099361E-018)) ;
#232=CARTESIAN_POINT('Axis2P3D Location',(0.,4.,9.18485099361E-018)) ;
#33=DIRECTION('Axis2P3D Direction',(6.12323399574E-017,6.12323399574E-017,1.)) ;
#34=DIRECTION('Axis2P3D XDirection',(0.,1.,-6.12323399574E-017)) ;
#38=DIRECTION('Vector Direction',(-1.,0.,0.)) ;
#47=DIRECTION('Vector Direction',(0.,1.,0.)) ;
#54=DIRECTION('Vector Direction',(-1.,0.,0.)) ;
#61=DIRECTION('Vector Direction',(0.,1.,0.)) ;
#73=DIRECTION('Axis2P3D Direction',(0.,-1.,6.12323399574E-017)) ;
#74=DIRECTION('Axis2P3D XDirection',(6.12323399574E-017,6.12323399574E-017,1.)) ;
#78=DIRECTION('Vector Direction',(5.93840222474E-017,8.26212483442E-017,1.)) ;
#85=DIRECTION('Vector Direction',(-1.,0.,0.)) ;
#92=DIRECTION('Vector Direction',(6.06749792528E-017,8.26212483442E-017,1.)) ;
#104=DIRECTION('Axis2P3D Direction',(2.0925727417E-017,-0.939793423488,0.341743063087)) ;
#105=DIRECTION('Axis2P3D XDirection',(5.75457503967E-017,0.341743063087,0.939793423488)) ;
#109=DIRECTION('Vector Direction',(5.69116525717E-017,0.341743063087,0.939793423488)) ;
#116=DIRECTION('Vector Direction',(-1.,0.,6.12323399574E-017)) ;
#123=DIRECTION('Vector Direction',(5.69116525717E-017,0.341743063087,0.939793423488)) ;
#135=DIRECTION('Axis2P3D Direction',(-6.12323399574E-017,-6.12323399574E-017,-1.)) ;
#136=DIRECTION('Axis2P3D XDirection',(0.,-1.,6.12323399574E-017)) ;
#140=DIRECTION('Vector Direction',(0.,-1.,6.12323399574E-017)) ;
#147=DIRECTION('Vector Direction',(-1.,0.,6.12323399574E-017)) ;
#154=DIRECTION('Vector Direction',(0.,-1.,6.12323399574E-017)) ;
#166=DIRECTION('Axis2P3D Direction',(-2.0925727417E-017,-0.939793423488,-0.341743063087)) ;
#167=DIRECTION('Axis2P3D XDirection',(5.75457503967E-017,-0.341743063087,0.939793423488)) ;
#171=DIRECTION('Vector Direction',(5.69116525717E-017,-0.341743063087,0.939793423488)) ;
#178=DIRECTION('Vector Direction',(-1.,0.,0.)) ;
#185=DIRECTION('Vector Direction',(5.69116525717E-017,-0.341743063087,0.939793423488)) ;
#197=DIRECTION('Axis2P3D Direction',(0.,1.,-6.12323399574E-017)) ;
#198=DIRECTION('Axis2P3D XDirection',(-6.12323399574E-017,-6.12323399574E-017,-1.)) ;
#202=DIRECTION('Vector Direction',(-5.93840222474E-017,-6.12323399574E-017,-1.)) ;
#207=DIRECTION('Vector Direction',(-6.06749792528E-017,-6.12323399574E-017,-1.)) ;
#219=DIRECTION('Axis2P3D Direction',(-1.,3.74939945665E-033,6.12323399574E-017)) ;
#220=DIRECTION('Axis2P3D XDirection',(-6.12323399574E-017,-6.12323399574E-017,-1.)) ;
#233=DIRECTION('Axis2P3D Direction',(-1.,3.74939945665E-033,6.12323399574E-017)) ;
#234=DIRECTION('Axis2P3D XDirection',(-6.12323399574E-017,-6.12323399574E-017,-1.)) ;
#30=PRESENTATION_LAYER_ASSIGNMENT('1',' ',(#21)) ;
#8=PRODUCT_RELATED_PRODUCT_CATEGORY('part',$,(#5)) ;
#7=PRODUCT_CATEGORY('part','specification') ;
#29=STYLED_ITEM(' ',(#28),#21) ;
#28=PRESENTATION_STYLE_ASSIGNMENT((#27)) ;
#27=SURFACE_STYLE_USAGE(.BOTH.,#26) ;
#26=SURFACE_SIDE_STYLE(' ',(#25)) ;
#25=SURFACE_STYLE_FILL_AREA(#24) ;
#24=FILL_AREA_STYLE(' ',(#23)) ;
#23=FILL_AREA_STYLE_COLOUR(' ',#22) ;
#39=VECTOR('Line Direction',#38,1.) ;
#48=VECTOR('Line Direction',#47,1.) ;
#55=VECTOR('Line Direction',#54,1.) ;
#62=VECTOR('Line Direction',#61,1.) ;
#79=VECTOR('Line Direction',#78,1.) ;
#86=VECTOR('Line Direction',#85,1.) ;
#93=VECTOR('Line Direction',#92,1.) ;
#110=VECTOR('Line Direction',#109,1.) ;
#117=VECTOR('Line Direction',#116,1.) ;
#124=VECTOR('Line Direction',#123,1.) ;
#141=VECTOR('Line Direction',#140,1.) ;
#148=VECTOR('Line Direction',#147,1.) ;
#155=VECTOR('Line Direction',#154,1.) ;
#172=VECTOR('Line Direction',#171,1.) ;
#179=VECTOR('Line Direction',#178,1.) ;
#186=VECTOR('Line Direction',#185,1.) ;
#203=VECTOR('Line Direction',#202,1.) ;
#208=VECTOR('Line Direction',#207,1.) ;
#15=UNCERTAINTY_MEASURE_WITH_UNIT(LENGTH_MEASURE(0.005),#12,'distance_accuracy_value','CONFUSED CURVE UNCERTAINTY') ;
#247=SHAPE_REPRESENTATION_RELATIONSHIP(' ',' ',#19,#246) ;
#66=ORIENTED_EDGE('',*,*,#45,.F.) ;
#67=ORIENTED_EDGE('',*,*,#52,.T.) ;
#68=ORIENTED_EDGE('',*,*,#59,.T.) ;
#69=ORIENTED_EDGE('',*,*,#64,.F.) ;
#97=ORIENTED_EDGE('',*,*,#59,.F.) ;
#98=ORIENTED_EDGE('',*,*,#83,.T.) ;
#99=ORIENTED_EDGE('',*,*,#90,.T.) ;
#100=ORIENTED_EDGE('',*,*,#95,.F.) ;
#128=ORIENTED_EDGE('',*,*,#90,.F.) ;
#129=ORIENTED_EDGE('',*,*,#114,.T.) ;
#130=ORIENTED_EDGE('',*,*,#121,.T.) ;
#131=ORIENTED_EDGE('',*,*,#126,.F.) ;
#159=ORIENTED_EDGE('',*,*,#121,.F.) ;
#160=ORIENTED_EDGE('',*,*,#145,.T.) ;
#161=ORIENTED_EDGE('',*,*,#152,.T.) ;
#162=ORIENTED_EDGE('',*,*,#157,.F.) ;
#190=ORIENTED_EDGE('',*,*,#152,.F.) ;
#191=ORIENTED_EDGE('',*,*,#176,.T.) ;
#192=ORIENTED_EDGE('',*,*,#183,.T.) ;
#193=ORIENTED_EDGE('',*,*,#188,.F.) ;
#212=ORIENTED_EDGE('',*,*,#183,.F.) ;
#213=ORIENTED_EDGE('',*,*,#205,.T.) ;
#214=ORIENTED_EDGE('',*,*,#45,.T.) ;
#215=ORIENTED_EDGE('',*,*,#210,.F.) ;
#224=ORIENTED_EDGE('',*,*,#205,.F.) ;
#225=ORIENTED_EDGE('',*,*,#176,.F.) ;
#226=ORIENTED_EDGE('',*,*,#145,.F.) ;
#227=ORIENTED_EDGE('',*,*,#114,.F.) ;
#228=ORIENTED_EDGE('',*,*,#83,.F.) ;
#229=ORIENTED_EDGE('',*,*,#52,.F.) ;
#238=ORIENTED_EDGE('',*,*,#64,.T.) ;
#239=ORIENTED_EDGE('',*,*,#95,.T.) ;
#240=ORIENTED_EDGE('',*,*,#126,.T.) ;
#241=ORIENTED_EDGE('',*,*,#157,.T.) ;
#242=ORIENTED_EDGE('',*,*,#188,.T.) ;
#243=ORIENTED_EDGE('',*,*,#210,.T.) ;
#31=CLOSED_SHELL('Closed Shell',(#71,#102,#133,#164,#195,#217,#231,#245)) ;
#246=ADVANCED_BREP_SHAPE_REPRESENTATION('NONE',(#21),#16) ;
#71=ADVANCED_FACE('S3D gedreht',(#70),#36,.T.) ;
#102=ADVANCED_FACE('S3D gedreht',(#101),#76,.F.) ;
#133=ADVANCED_FACE('S3D gedreht',(#132),#107,.F.) ;
#164=ADVANCED_FACE('S3D gedreht',(#163),#138,.T.) ;
#195=ADVANCED_FACE('S3D gedreht',(#194),#169,.T.) ;
#217=ADVANCED_FACE('S3D gedreht',(#216),#200,.F.) ;
#231=ADVANCED_FACE('S3D gedreht',(#230),#222,.F.) ;
#245=ADVANCED_FACE('S3D gedreht',(#244),#236,.T.) ;
#4=APPLICATION_PROTOCOL_DEFINITION('international standard','automotive_design',2001,#1) ;
#21=MANIFOLD_SOLID_BREP('S3D gedreht',#31) ;
#22=DRAUGHTING_PRE_DEFINED_COLOUR('white') ;
#45=EDGE_CURVE('',#42,#44,#40,.T.) ;
#52=EDGE_CURVE('',#42,#51,#49,.T.) ;
#59=EDGE_CURVE('',#51,#58,#56,.T.) ;
#64=EDGE_CURVE('',#44,#58,#63,.T.) ;
#83=EDGE_CURVE('',#51,#82,#80,.F.) ;
#90=EDGE_CURVE('',#82,#89,#87,.T.) ;
#95=EDGE_CURVE('',#58,#89,#94,.F.) ;
#114=EDGE_CURVE('',#82,#113,#111,.F.) ;
#121=EDGE_CURVE('',#113,#120,#118,.T.) ;
#126=EDGE_CURVE('',#89,#120,#125,.F.) ;
#145=EDGE_CURVE('',#113,#144,#142,.T.) ;
#152=EDGE_CURVE('',#144,#151,#149,.T.) ;
#157=EDGE_CURVE('',#120,#151,#156,.T.) ;
#176=EDGE_CURVE('',#144,#175,#173,.T.) ;
#183=EDGE_CURVE('',#175,#182,#180,.T.) ;
#188=EDGE_CURVE('',#151,#182,#187,.T.) ;
#205=EDGE_CURVE('',#175,#42,#204,.F.) ;
#210=EDGE_CURVE('',#182,#44,#209,.F.) ;
#65=EDGE_LOOP('',(#66,#67,#68,#69)) ;
#96=EDGE_LOOP('',(#97,#98,#99,#100)) ;
#127=EDGE_LOOP('',(#128,#129,#130,#131)) ;
#158=EDGE_LOOP('',(#159,#160,#161,#162)) ;
#189=EDGE_LOOP('',(#190,#191,#192,#193)) ;
#211=EDGE_LOOP('',(#212,#213,#214,#215)) ;
#223=EDGE_LOOP('',(#224,#225,#226,#227,#228,#229)) ;
#237=EDGE_LOOP('',(#238,#239,#240,#241,#242,#243)) ;
#70=FACE_OUTER_BOUND('',#65,.T.) ;
#101=FACE_OUTER_BOUND('',#96,.T.) ;
#132=FACE_OUTER_BOUND('',#127,.T.) ;
#163=FACE_OUTER_BOUND('',#158,.T.) ;
#194=FACE_OUTER_BOUND('',#189,.T.) ;
#216=FACE_OUTER_BOUND('',#211,.T.) ;
#230=FACE_OUTER_BOUND('',#223,.T.) ;
#244=FACE_OUTER_BOUND('',#237,.T.) ;
#40=LINE('Line',#37,#39) ;
#49=LINE('Line',#46,#48) ;
#56=LINE('Line',#53,#55) ;
#63=LINE('Line',#60,#62) ;
#80=LINE('Line',#77,#79) ;
#87=LINE('Line',#84,#86) ;
#94=LINE('Line',#91,#93) ;
#111=LINE('Line',#108,#110) ;
#118=LINE('Line',#115,#117) ;
#125=LINE('Line',#122,#124) ;
#142=LINE('Line',#139,#141) ;
#149=LINE('Line',#146,#148) ;
#156=LINE('Line',#153,#155) ;
#173=LINE('Line',#170,#172) ;
#180=LINE('Line',#177,#179) ;
#187=LINE('Line',#184,#186) ;
#204=LINE('Line',#201,#203) ;
#209=LINE('Line',#206,#208) ;
#36=PLANE('',#35) ;
#76=PLANE('',#75) ;
#107=PLANE('',#106) ;
#138=PLANE('',#137) ;
#169=PLANE('',#168) ;
#200=PLANE('',#199) ;
#222=PLANE('',#221) ;
#236=PLANE('',#235) ;
#9=PRODUCT_CATEGORY_RELATIONSHIP(' ',' ',#7,#8) ;
#6=PRODUCT_DEFINITION_FORMATION_WITH_SPECIFIED_SOURCE('',' ',#5,.BOUGHT.) ;
#20=SHAPE_DEFINITION_REPRESENTATION(#11,#19) ;
#42=VERTEX_POINT('',#41) ;
#44=VERTEX_POINT('',#43) ;
#51=VERTEX_POINT('',#50) ;
#58=VERTEX_POINT('',#57) ;
#82=VERTEX_POINT('',#81) ;
#89=VERTEX_POINT('',#88) ;
#113=VERTEX_POINT('',#112) ;
#120=VERTEX_POINT('',#119) ;
#144=VERTEX_POINT('',#143) ;
#151=VERTEX_POINT('',#150) ;
#175=VERTEX_POINT('',#174) ;
#182=VERTEX_POINT('',#181) ;
#12=(LENGTH_UNIT()NAMED_UNIT(*)SI_UNIT(.MILLI.,.METRE.)) ;
#13=(NAMED_UNIT(*)PLANE_ANGLE_UNIT()SI_UNIT($,.RADIAN.)) ;
#14=(NAMED_UNIT(*)SI_UNIT($,.STERADIAN.)SOLID_ANGLE_UNIT()) ;
#16=(GEOMETRIC_REPRESENTATION_CONTEXT(3)GLOBAL_UNCERTAINTY_ASSIGNED_CONTEXT((#15))GLOBAL_UNIT_ASSIGNED_CONTEXT((#12,#13,#14))REPRESENTATION_CONTEXT(' ',' ')) ;
ENDSEC;
END-ISO-10303-21;
