ISO-10303-21;
HEADER;
FILE_DESCRIPTION(('CATIA V5R19 STEP'),'2;1');

FILE_NAME ('D1452628_0', '2015-02-24T09:06:59+00:00', ('Weidmueller Interface'), ('Weidmueller'), 'CATIA Version 5 Release 20 SP 5 (IN-10)', 'CATIA V5 STEP AP214', 'none');

FILE_SCHEMA(('AUTOMOTIVE_DESIGN { 1 0 10303 214 1 1 1 1 }'));

ENDSEC;
/* file written by CATIA V5R20 */
DATA;
#5=PRODUCT('ESG 9/26 SHENLE','','<Q-CHECKER_SEAL> Q-Checker Version 2.14.8  \X2\000A\X0\CATIA-Version         : Catia V5 R20 SP5 Build Date 01-14-2011.22.00\X2\000A\X0\Model size (in KByte) : 0\X2\000A\X0\Checking date         : 2014-04-14 10:59:22\X2\000A\X0\Checking profile      : ADMIN / Release_2D-3D [CATPart]\X2\000A\X0\Model assessment      : Fehlerhaft\X2\000A\X0\Total weight sum      : 9\X2\000A\X0\<CROSS_CHECK_SUM>\X2\000A\X0\  <CHKSUM_DATE> 1308860014 </CHKSUM_DATE>\X2\000A\X0\  <CHKSUM_ENTITIES> 1078726873 </CHKSUM_ENTITIES>\X2\000A\X0\  <CHKSUM_PROFILE> 1594213346 </CHKSUM_PROFILE>\X2\000A\X0\  <CHKSUM_DIMENSION> -186917087 </CHKSUM_DIMENSION>\X2\000A\X0\  <CHKSUM_PROJINTERSEC> -896974048 </CHKSUM_PROJINTERSEC>\X2\000A\X0\  <CHKSUM_IDENTCRV> -896974048 </CHKSUM_IDENTCRV>\X2\000A\X0\  <CHKSUM_INFINITY> 138018827 </CHKSUM_INFINITY>\X2\000A\X0\</CROSS_CHECK_SUM>\X2\000A\X0\</Q-CHECKER_SEAL> \X2\000A\X0\ \X2\000A\X0\ \X2\000A\X0\ \X2\000A\X0\ \X2\000A\X0\ \X2\000D\X0\\X2\000A\X0\ \X2\000D\X0\\X2\000A\X0\',(#2)) ;
#2=PRODUCT_CONTEXT(' ',#1,'mechanical') ;
#1=APPLICATION_CONTEXT('automotive design') ;
#10=PRODUCT_DEFINITION('',' ',#6,#3) ;
#3=PRODUCT_DEFINITION_CONTEXT('part definition',#1,' ') ;
#11=PRODUCT_DEFINITION_SHAPE(' ',' ',#10) ;
#437=MECHANICAL_DESIGN_GEOMETRIC_PRESENTATION_REPRESENTATION(' ',(#30),#17) ;
#20=SHAPE_REPRESENTATION(' ',(#19),#17) ;
#19=AXIS2_PLACEMENT_3D(' ',#18,$,$) ;
#36=AXIS2_PLACEMENT_3D('Plane Axis2P3D',#33,#34,#35) ;
#76=AXIS2_PLACEMENT_3D('Plane Axis2P3D',#73,#74,#75) ;
#107=AXIS2_PLACEMENT_3D('Plane Axis2P3D',#104,#105,#106) ;
#131=AXIS2_PLACEMENT_3D('Plane Axis2P3D',#128,#129,#130) ;
#155=AXIS2_PLACEMENT_3D('Plane Axis2P3D',#152,#153,#154) ;
#195=AXIS2_PLACEMENT_3D('Plane Axis2P3D',#192,#193,#194) ;
#226=AXIS2_PLACEMENT_3D('Plane Axis2P3D',#223,#224,#225) ;
#250=AXIS2_PLACEMENT_3D('Plane Axis2P3D',#247,#248,#249) ;
#274=AXIS2_PLACEMENT_3D('Plane Axis2P3D',#271,#272,#273) ;
#367=AXIS2_PLACEMENT_3D('Plane Axis2P3D',#364,#365,#366) ;
#401=AXIS2_PLACEMENT_3D('Plane Axis2P3D',#398,#399,#400) ;
#418=AXIS2_PLACEMENT_3D('Plane Axis2P3D',#415,#416,#417) ;
#18=CARTESIAN_POINT(' ',(0.,0.,0.)) ;
#33=CARTESIAN_POINT('Axis2P3D Location',(12.9,4.5,0.)) ;
#38=CARTESIAN_POINT('Line Origine',(24.75,8.4,-7.25603228495E-016)) ;
#42=CARTESIAN_POINT('Vertex',(25.,9.,-7.40911313484E-016)) ;
#44=CARTESIAN_POINT('Vertex',(24.5,7.8,-7.10295143505E-016)) ;
#47=CARTESIAN_POINT('Line Origine',(22.5,7.8,-5.87830463591E-016)) ;
#51=CARTESIAN_POINT('Vertex',(20.5,7.8,-4.65365783676E-016)) ;
#54=CARTESIAN_POINT('Line Origine',(20.25,8.4,-4.50057698687E-016)) ;
#58=CARTESIAN_POINT('Vertex',(20.,9.,-4.34749613697E-016)) ;
#61=CARTESIAN_POINT('Line Origine',(22.5,9.,-5.87830463591E-016)) ;
#73=CARTESIAN_POINT('Axis2P3D Location',(20.,9.,6.)) ;
#78=CARTESIAN_POINT('Line Origine',(20.25,8.4,6.)) ;
#82=CARTESIAN_POINT('Vertex',(20.,9.,6.)) ;
#84=CARTESIAN_POINT('Vertex',(20.5,7.8,6.)) ;
#87=CARTESIAN_POINT('Line Origine',(20.,9.,3.)) ;
#92=CARTESIAN_POINT('Line Origine',(20.5,7.8,3.)) ;
#104=CARTESIAN_POINT('Axis2P3D Location',(5.3,7.8,6.)) ;
#109=CARTESIAN_POINT('Line Origine',(24.5,7.8,3.)) ;
#113=CARTESIAN_POINT('Vertex',(24.5,7.8,6.)) ;
#116=CARTESIAN_POINT('Line Origine',(22.5,7.8,6.)) ;
#128=CARTESIAN_POINT('Axis2P3D Location',(24.5,7.8,6.)) ;
#133=CARTESIAN_POINT('Line Origine',(24.75,8.4,6.)) ;
#137=CARTESIAN_POINT('Vertex',(25.,9.,6.)) ;
#140=CARTESIAN_POINT('Line Origine',(25.,9.,3.)) ;
#152=CARTESIAN_POINT('Axis2P3D Location',(-1.7763568394E-015,-8.881784197E-016,7.2)) ;
#157=CARTESIAN_POINT('Line Origine',(12.9,-9.82812342501E-017,6.)) ;
#161=CARTESIAN_POINT('Vertex',(-1.7763568394E-015,-7.8989718545E-016,6.)) ;
#163=CARTESIAN_POINT('Vertex',(25.8,7.8989718545E-016,6.)) ;
#166=CARTESIAN_POINT('Line Origine',(25.8,6.916159512E-016,6.6)) ;
#170=CARTESIAN_POINT('Vertex',(25.8,7.8989718545E-016,7.2)) ;
#173=CARTESIAN_POINT('Line Origine',(12.9,-9.82812342501E-017,7.2)) ;
#177=CARTESIAN_POINT('Vertex',(-1.7763568394E-015,-7.8989718545E-016,7.2)) ;
#180=CARTESIAN_POINT('Line Origine',(-1.81309624337E-015,-8.881784197E-016,6.6)) ;
#192=CARTESIAN_POINT('Axis2P3D Location',(0.,-8.881784197E-016,7.2)) ;
#197=CARTESIAN_POINT('Line Origine',(-3.49024337757E-016,4.5,6.)) ;
#201=CARTESIAN_POINT('Vertex',(0.,9.,6.)) ;
#204=CARTESIAN_POINT('Line Origine',(-2.75545529808E-016,4.5,7.2)) ;
#208=CARTESIAN_POINT('Vertex',(0.,9.,7.2)) ;
#211=CARTESIAN_POINT('Line Origine',(-5.87830463591E-016,9.,6.6)) ;
#223=CARTESIAN_POINT('Axis2P3D Location',(12.9,4.5,7.2)) ;
#228=CARTESIAN_POINT('Line Origine',(25.8,4.5,7.2)) ;
#232=CARTESIAN_POINT('Vertex',(25.8,9.,7.2)) ;
#235=CARTESIAN_POINT('Line Origine',(12.9,9.,7.2)) ;
#247=CARTESIAN_POINT('Axis2P3D Location',(25.8,9.,7.2)) ;
#252=CARTESIAN_POINT('Line Origine',(25.8,4.5,6.)) ;
#256=CARTESIAN_POINT('Vertex',(25.8,9.,6.)) ;
#259=CARTESIAN_POINT('Line Origine',(25.8,9.,6.6)) ;
#271=CARTESIAN_POINT('Axis2P3D Location',(12.9,4.5,6.)) ;
#276=CARTESIAN_POINT('Line Origine',(25.4,9.,6.)) ;
#281=CARTESIAN_POINT('Line Origine',(0.4,9.,6.)) ;
#285=CARTESIAN_POINT('Vertex',(0.8,9.,6.)) ;
#288=CARTESIAN_POINT('Line Origine',(1.05,8.4,6.)) ;
#292=CARTESIAN_POINT('Vertex',(1.3,7.8,6.)) ;
#295=CARTESIAN_POINT('Line Origine',(3.3,7.8,6.)) ;
#299=CARTESIAN_POINT('Vertex',(5.3,7.8,6.)) ;
#302=CARTESIAN_POINT('Line Origine',(5.55,8.4,6.)) ;
#306=CARTESIAN_POINT('Vertex',(5.8,9.,6.)) ;
#309=CARTESIAN_POINT('Line Origine',(12.9,9.,6.)) ;
#329=CARTESIAN_POINT('Line Origine',(3.3,9.,5.87830463591E-016)) ;
#333=CARTESIAN_POINT('Vertex',(0.8,9.,7.40911313484E-016)) ;
#335=CARTESIAN_POINT('Vertex',(5.8,9.,4.34749613697E-016)) ;
#338=CARTESIAN_POINT('Line Origine',(5.55,8.4,4.50057698687E-016)) ;
#342=CARTESIAN_POINT('Vertex',(5.3,7.8,4.65365783676E-016)) ;
#345=CARTESIAN_POINT('Line Origine',(3.3,7.8,5.87830463591E-016)) ;
#349=CARTESIAN_POINT('Vertex',(1.3,7.8,7.10295143505E-016)) ;
#352=CARTESIAN_POINT('Line Origine',(1.05,8.4,7.25603228495E-016)) ;
#364=CARTESIAN_POINT('Axis2P3D Location',(1.3,7.8,6.)) ;
#369=CARTESIAN_POINT('Line Origine',(0.8,9.,3.)) ;
#374=CARTESIAN_POINT('Line Origine',(1.3,7.8,3.)) ;
#386=CARTESIAN_POINT('Line Origine',(5.3,7.8,3.)) ;
#398=CARTESIAN_POINT('Axis2P3D Location',(5.8,9.,6.)) ;
#403=CARTESIAN_POINT('Line Origine',(5.8,9.,3.)) ;
#415=CARTESIAN_POINT('Axis2P3D Location',(25.8,9.,7.2)) ;
#34=DIRECTION('Axis2P3D Direction',(6.12323399574E-017,3.74939945665E-033,1.)) ;
#35=DIRECTION('Axis2P3D XDirection',(-6.12323399574E-017,1.,0.)) ;
#39=DIRECTION('Vector Direction',(0.384615384615,0.923076923077,-2.35508999836E-017)) ;
#48=DIRECTION('Vector Direction',(1.,0.,-6.12323399574E-017)) ;
#55=DIRECTION('Vector Direction',(0.384615384615,-0.923076923077,-2.35508999836E-017)) ;
#62=DIRECTION('Vector Direction',(-1.,0.,6.12323399574E-017)) ;
#74=DIRECTION('Axis2P3D Direction',(0.923076923077,0.384615384615,-5.65221599606E-017)) ;
#75=DIRECTION('Axis2P3D XDirection',(0.384615384615,-0.923076923077,-2.35508999836E-017)) ;
#79=DIRECTION('Vector Direction',(0.384615384615,-0.923076923077,0.)) ;
#88=DIRECTION('Vector Direction',(0.,0.,-1.)) ;
#93=DIRECTION('Vector Direction',(0.,0.,-1.)) ;
#105=DIRECTION('Axis2P3D Direction',(6.12323399574E-017,-1.,0.)) ;
#106=DIRECTION('Axis2P3D XDirection',(-1.,-6.12323399574E-017,6.12323399574E-017)) ;
#110=DIRECTION('Vector Direction',(0.,0.,-1.)) ;
#117=DIRECTION('Vector Direction',(-1.,0.,0.)) ;
#129=DIRECTION('Axis2P3D Direction',(-0.923076923077,0.384615384615,5.65221599606E-017)) ;
#130=DIRECTION('Axis2P3D XDirection',(0.384615384615,0.923076923077,-2.35508999836E-017)) ;
#134=DIRECTION('Vector Direction',(-0.384615384615,-0.923076923077,0.)) ;
#141=DIRECTION('Vector Direction',(0.,0.,-1.)) ;
#153=DIRECTION('Axis2P3D Direction',(-6.12323399574E-017,1.,0.)) ;
#154=DIRECTION('Axis2P3D XDirection',(1.,6.12323399574E-017,-6.12323399574E-017)) ;
#158=DIRECTION('Vector Direction',(1.,6.12323399574E-017,-6.88510402868E-017)) ;
#167=DIRECTION('Vector Direction',(0.,0.,-1.)) ;
#174=DIRECTION('Vector Direction',(1.,6.12323399574E-017,-6.88510402868E-017)) ;
#181=DIRECTION('Vector Direction',(-6.12323399574E-017,0.,-1.)) ;
#193=DIRECTION('Axis2P3D Direction',(-1.,-6.12323399574E-017,6.12323399574E-017)) ;
#194=DIRECTION('Axis2P3D XDirection',(-6.12323399574E-017,1.,0.)) ;
#198=DIRECTION('Vector Direction',(-6.12323399574E-017,1.,0.)) ;
#205=DIRECTION('Vector Direction',(-6.12323399574E-017,1.,0.)) ;
#212=DIRECTION('Vector Direction',(-6.12323399574E-017,0.,-1.)) ;
#224=DIRECTION('Axis2P3D Direction',(6.12323399574E-017,3.74939945665E-033,1.)) ;
#225=DIRECTION('Axis2P3D XDirection',(-6.12323399574E-017,1.,0.)) ;
#229=DIRECTION('Vector Direction',(0.,-1.,0.)) ;
#236=DIRECTION('Vector Direction',(-1.,0.,6.88510402868E-017)) ;
#248=DIRECTION('Axis2P3D Direction',(1.,6.12323399574E-017,-6.12323399574E-017)) ;
#249=DIRECTION('Axis2P3D XDirection',(6.12323399574E-017,-1.,0.)) ;
#253=DIRECTION('Vector Direction',(0.,-1.,0.)) ;
#260=DIRECTION('Vector Direction',(0.,0.,-1.)) ;
#272=DIRECTION('Axis2P3D Direction',(6.12323399574E-017,3.74939945665E-033,1.)) ;
#273=DIRECTION('Axis2P3D XDirection',(-6.12323399574E-017,1.,0.)) ;
#277=DIRECTION('Vector Direction',(-1.,0.,0.)) ;
#282=DIRECTION('Vector Direction',(-1.,0.,0.)) ;
#289=DIRECTION('Vector Direction',(0.384615384615,-0.923076923077,0.)) ;
#296=DIRECTION('Vector Direction',(-1.,0.,0.)) ;
#303=DIRECTION('Vector Direction',(-0.384615384615,-0.923076923077,6.83214169E-016)) ;
#310=DIRECTION('Vector Direction',(-1.,0.,0.)) ;
#330=DIRECTION('Vector Direction',(1.,0.,-6.12323399574E-017)) ;
#339=DIRECTION('Vector Direction',(-0.384615384615,-0.923076923077,2.35508999836E-017)) ;
#346=DIRECTION('Vector Direction',(-1.,0.,6.12323399574E-017)) ;
#353=DIRECTION('Vector Direction',(-0.384615384615,0.923076923077,2.35508999836E-017)) ;
#365=DIRECTION('Axis2P3D Direction',(-0.923076923077,-0.384615384615,5.65221599606E-017)) ;
#366=DIRECTION('Axis2P3D XDirection',(-0.384615384615,0.923076923077,2.35508999836E-017)) ;
#370=DIRECTION('Vector Direction',(-5.55111512313E-017,0.,-1.)) ;
#375=DIRECTION('Vector Direction',(-7.40148683083E-017,0.,-1.)) ;
#387=DIRECTION('Vector Direction',(0.,0.,-1.)) ;
#399=DIRECTION('Axis2P3D Direction',(0.923076923077,-0.384615384615,-5.65221599606E-017)) ;
#400=DIRECTION('Axis2P3D XDirection',(-0.384615384615,-0.923076923077,2.35508999836E-017)) ;
#404=DIRECTION('Vector Direction',(0.,0.,-1.)) ;
#416=DIRECTION('Axis2P3D Direction',(6.12323399574E-017,-1.,0.)) ;
#417=DIRECTION('Axis2P3D XDirection',(-1.,-6.12323399574E-017,6.12323399574E-017)) ;
#31=PRESENTATION_LAYER_ASSIGNMENT('1',' ',(#22)) ;
#8=PRODUCT_RELATED_PRODUCT_CATEGORY('part',$,(#5)) ;
#7=PRODUCT_CATEGORY('part','specification') ;
#30=STYLED_ITEM(' ',(#29),#22) ;
#29=PRESENTATION_STYLE_ASSIGNMENT((#28)) ;
#28=SURFACE_STYLE_USAGE(.BOTH.,#27) ;
#27=SURFACE_SIDE_STYLE(' ',(#26)) ;
#26=SURFACE_STYLE_FILL_AREA(#25) ;
#25=FILL_AREA_STYLE(' ',(#24)) ;
#24=FILL_AREA_STYLE_COLOUR(' ',#23) ;
#40=VECTOR('Line Direction',#39,1.) ;
#49=VECTOR('Line Direction',#48,1.) ;
#56=VECTOR('Line Direction',#55,1.) ;
#63=VECTOR('Line Direction',#62,1.) ;
#80=VECTOR('Line Direction',#79,1.) ;
#89=VECTOR('Line Direction',#88,1.) ;
#94=VECTOR('Line Direction',#93,1.) ;
#111=VECTOR('Line Direction',#110,1.) ;
#118=VECTOR('Line Direction',#117,1.) ;
#135=VECTOR('Line Direction',#134,1.) ;
#142=VECTOR('Line Direction',#141,1.) ;
#159=VECTOR('Line Direction',#158,1.) ;
#168=VECTOR('Line Direction',#167,1.) ;
#175=VECTOR('Line Direction',#174,1.) ;
#182=VECTOR('Line Direction',#181,1.) ;
#199=VECTOR('Line Direction',#198,1.) ;
#206=VECTOR('Line Direction',#205,1.) ;
#213=VECTOR('Line Direction',#212,1.) ;
#230=VECTOR('Line Direction',#229,1.) ;
#237=VECTOR('Line Direction',#236,1.) ;
#254=VECTOR('Line Direction',#253,1.) ;
#261=VECTOR('Line Direction',#260,1.) ;
#278=VECTOR('Line Direction',#277,1.) ;
#283=VECTOR('Line Direction',#282,1.) ;
#290=VECTOR('Line Direction',#289,1.) ;
#297=VECTOR('Line Direction',#296,1.) ;
#304=VECTOR('Line Direction',#303,1.) ;
#311=VECTOR('Line Direction',#310,1.) ;
#331=VECTOR('Line Direction',#330,1.) ;
#340=VECTOR('Line Direction',#339,1.) ;
#347=VECTOR('Line Direction',#346,1.) ;
#354=VECTOR('Line Direction',#353,1.) ;
#371=VECTOR('Line Direction',#370,1.) ;
#376=VECTOR('Line Direction',#375,1.) ;
#388=VECTOR('Line Direction',#387,1.) ;
#405=VECTOR('Line Direction',#404,1.) ;
#16=UNCERTAINTY_MEASURE_WITH_UNIT(LENGTH_MEASURE(0.005),#12,'distance_accuracy_value','CONFUSED CURVE UNCERTAINTY') ;
#436=SHAPE_REPRESENTATION_RELATIONSHIP(' ',' ',#20,#435) ;
#67=ORIENTED_EDGE('',*,*,#46,.T.) ;
#68=ORIENTED_EDGE('',*,*,#53,.T.) ;
#69=ORIENTED_EDGE('',*,*,#60,.T.) ;
#70=ORIENTED_EDGE('',*,*,#65,.T.) ;
#98=ORIENTED_EDGE('',*,*,#86,.F.) ;
#99=ORIENTED_EDGE('',*,*,#91,.T.) ;
#100=ORIENTED_EDGE('',*,*,#60,.F.) ;
#101=ORIENTED_EDGE('',*,*,#96,.F.) ;
#122=ORIENTED_EDGE('',*,*,#96,.T.) ;
#123=ORIENTED_EDGE('',*,*,#53,.F.) ;
#124=ORIENTED_EDGE('',*,*,#115,.F.) ;
#125=ORIENTED_EDGE('',*,*,#120,.T.) ;
#146=ORIENTED_EDGE('',*,*,#139,.T.) ;
#147=ORIENTED_EDGE('',*,*,#115,.T.) ;
#148=ORIENTED_EDGE('',*,*,#46,.F.) ;
#149=ORIENTED_EDGE('',*,*,#144,.F.) ;
#186=ORIENTED_EDGE('',*,*,#165,.T.) ;
#187=ORIENTED_EDGE('',*,*,#172,.F.) ;
#188=ORIENTED_EDGE('',*,*,#179,.F.) ;
#189=ORIENTED_EDGE('',*,*,#184,.T.) ;
#217=ORIENTED_EDGE('',*,*,#203,.T.) ;
#218=ORIENTED_EDGE('',*,*,#184,.F.) ;
#219=ORIENTED_EDGE('',*,*,#210,.F.) ;
#220=ORIENTED_EDGE('',*,*,#215,.T.) ;
#241=ORIENTED_EDGE('',*,*,#179,.T.) ;
#242=ORIENTED_EDGE('',*,*,#234,.T.) ;
#243=ORIENTED_EDGE('',*,*,#239,.T.) ;
#244=ORIENTED_EDGE('',*,*,#210,.T.) ;
#265=ORIENTED_EDGE('',*,*,#258,.T.) ;
#266=ORIENTED_EDGE('',*,*,#263,.F.) ;
#267=ORIENTED_EDGE('',*,*,#234,.F.) ;
#268=ORIENTED_EDGE('',*,*,#172,.T.) ;
#315=ORIENTED_EDGE('',*,*,#86,.T.) ;
#316=ORIENTED_EDGE('',*,*,#120,.F.) ;
#317=ORIENTED_EDGE('',*,*,#139,.F.) ;
#318=ORIENTED_EDGE('',*,*,#280,.F.) ;
#319=ORIENTED_EDGE('',*,*,#258,.F.) ;
#320=ORIENTED_EDGE('',*,*,#165,.F.) ;
#321=ORIENTED_EDGE('',*,*,#203,.F.) ;
#322=ORIENTED_EDGE('',*,*,#287,.F.) ;
#323=ORIENTED_EDGE('',*,*,#294,.T.) ;
#324=ORIENTED_EDGE('',*,*,#301,.F.) ;
#325=ORIENTED_EDGE('',*,*,#308,.F.) ;
#326=ORIENTED_EDGE('',*,*,#313,.F.) ;
#358=ORIENTED_EDGE('',*,*,#337,.T.) ;
#359=ORIENTED_EDGE('',*,*,#344,.T.) ;
#360=ORIENTED_EDGE('',*,*,#351,.T.) ;
#361=ORIENTED_EDGE('',*,*,#356,.T.) ;
#380=ORIENTED_EDGE('',*,*,#373,.T.) ;
#381=ORIENTED_EDGE('',*,*,#356,.F.) ;
#382=ORIENTED_EDGE('',*,*,#378,.F.) ;
#383=ORIENTED_EDGE('',*,*,#294,.F.) ;
#392=ORIENTED_EDGE('',*,*,#378,.T.) ;
#393=ORIENTED_EDGE('',*,*,#351,.F.) ;
#394=ORIENTED_EDGE('',*,*,#390,.F.) ;
#395=ORIENTED_EDGE('',*,*,#301,.T.) ;
#409=ORIENTED_EDGE('',*,*,#390,.T.) ;
#410=ORIENTED_EDGE('',*,*,#344,.F.) ;
#411=ORIENTED_EDGE('',*,*,#407,.F.) ;
#412=ORIENTED_EDGE('',*,*,#308,.T.) ;
#421=ORIENTED_EDGE('',*,*,#313,.T.) ;
#422=ORIENTED_EDGE('',*,*,#407,.T.) ;
#423=ORIENTED_EDGE('',*,*,#337,.F.) ;
#424=ORIENTED_EDGE('',*,*,#373,.F.) ;
#425=ORIENTED_EDGE('',*,*,#287,.T.) ;
#426=ORIENTED_EDGE('',*,*,#215,.F.) ;
#427=ORIENTED_EDGE('',*,*,#239,.F.) ;
#428=ORIENTED_EDGE('',*,*,#263,.T.) ;
#429=ORIENTED_EDGE('',*,*,#280,.T.) ;
#430=ORIENTED_EDGE('',*,*,#144,.T.) ;
#431=ORIENTED_EDGE('',*,*,#65,.F.) ;
#432=ORIENTED_EDGE('',*,*,#91,.F.) ;
#32=CLOSED_SHELL('Closed Shell',(#72,#103,#127,#151,#191,#222,#246,#270,#328,#363,#385,#397,#414,#434)) ;
#435=ADVANCED_BREP_SHAPE_REPRESENTATION('NONE',(#22),#17) ;
#72=ADVANCED_FACE('S3D - gedreht',(#71),#37,.F.) ;
#103=ADVANCED_FACE('S3D - gedreht',(#102),#77,.F.) ;
#127=ADVANCED_FACE('S3D - gedreht',(#126),#108,.T.) ;
#151=ADVANCED_FACE('S3D - gedreht',(#150),#132,.F.) ;
#191=ADVANCED_FACE('S3D - gedreht',(#190),#156,.F.) ;
#222=ADVANCED_FACE('S3D - gedreht',(#221),#196,.T.) ;
#246=ADVANCED_FACE('S3D - gedreht',(#245),#227,.T.) ;
#270=ADVANCED_FACE('S3D - gedreht',(#269),#251,.T.) ;
#328=ADVANCED_FACE('S3D - gedreht',(#327),#275,.F.) ;
#363=ADVANCED_FACE('S3D - gedreht',(#362),#37,.F.) ;
#385=ADVANCED_FACE('S3D - gedreht',(#384),#368,.T.) ;
#397=ADVANCED_FACE('S3D - gedreht',(#396),#108,.T.) ;
#414=ADVANCED_FACE('S3D - gedreht',(#413),#402,.T.) ;
#434=ADVANCED_FACE('S3D - gedreht',(#433),#419,.F.) ;
#4=APPLICATION_PROTOCOL_DEFINITION('international standard','automotive_design',2001,#1) ;
#22=MANIFOLD_SOLID_BREP('S3D - gedreht',#32) ;
#23=COLOUR_RGB('Colour',0.647058823529,0.647058823529,0.647058823529) ;
#46=EDGE_CURVE('',#43,#45,#41,.F.) ;
#53=EDGE_CURVE('',#45,#52,#50,.F.) ;
#60=EDGE_CURVE('',#52,#59,#57,.F.) ;
#65=EDGE_CURVE('',#59,#43,#64,.F.) ;
#86=EDGE_CURVE('',#83,#85,#81,.T.) ;
#91=EDGE_CURVE('',#83,#59,#90,.T.) ;
#96=EDGE_CURVE('',#85,#52,#95,.T.) ;
#115=EDGE_CURVE('',#114,#45,#112,.T.) ;
#120=EDGE_CURVE('',#114,#85,#119,.T.) ;
#139=EDGE_CURVE('',#138,#114,#136,.T.) ;
#144=EDGE_CURVE('',#138,#43,#143,.T.) ;
#165=EDGE_CURVE('',#162,#164,#160,.T.) ;
#172=EDGE_CURVE('',#171,#164,#169,.T.) ;
#179=EDGE_CURVE('',#178,#171,#176,.T.) ;
#184=EDGE_CURVE('',#178,#162,#183,.T.) ;
#203=EDGE_CURVE('',#202,#162,#200,.F.) ;
#210=EDGE_CURVE('',#209,#178,#207,.F.) ;
#215=EDGE_CURVE('',#209,#202,#214,.T.) ;
#234=EDGE_CURVE('',#171,#233,#231,.F.) ;
#239=EDGE_CURVE('',#233,#209,#238,.T.) ;
#258=EDGE_CURVE('',#164,#257,#255,.F.) ;
#263=EDGE_CURVE('',#233,#257,#262,.T.) ;
#280=EDGE_CURVE('',#257,#138,#279,.T.) ;
#287=EDGE_CURVE('',#286,#202,#284,.T.) ;
#294=EDGE_CURVE('',#286,#293,#291,.T.) ;
#301=EDGE_CURVE('',#300,#293,#298,.T.) ;
#308=EDGE_CURVE('',#307,#300,#305,.T.) ;
#313=EDGE_CURVE('',#83,#307,#312,.T.) ;
#337=EDGE_CURVE('',#334,#336,#332,.T.) ;
#344=EDGE_CURVE('',#336,#343,#341,.T.) ;
#351=EDGE_CURVE('',#343,#350,#348,.T.) ;
#356=EDGE_CURVE('',#350,#334,#355,.T.) ;
#373=EDGE_CURVE('',#286,#334,#372,.T.) ;
#378=EDGE_CURVE('',#293,#350,#377,.T.) ;
#390=EDGE_CURVE('',#300,#343,#389,.T.) ;
#407=EDGE_CURVE('',#307,#336,#406,.T.) ;
#66=EDGE_LOOP('',(#67,#68,#69,#70)) ;
#97=EDGE_LOOP('',(#98,#99,#100,#101)) ;
#121=EDGE_LOOP('',(#122,#123,#124,#125)) ;
#145=EDGE_LOOP('',(#146,#147,#148,#149)) ;
#185=EDGE_LOOP('',(#186,#187,#188,#189)) ;
#216=EDGE_LOOP('',(#217,#218,#219,#220)) ;
#240=EDGE_LOOP('',(#241,#242,#243,#244)) ;
#264=EDGE_LOOP('',(#265,#266,#267,#268)) ;
#314=EDGE_LOOP('',(#315,#316,#317,#318,#319,#320,#321,#322,#323,#324,#325,#326)) ;
#357=EDGE_LOOP('',(#358,#359,#360,#361)) ;
#379=EDGE_LOOP('',(#380,#381,#382,#383)) ;
#391=EDGE_LOOP('',(#392,#393,#394,#395)) ;
#408=EDGE_LOOP('',(#409,#410,#411,#412)) ;
#420=EDGE_LOOP('',(#421,#422,#423,#424,#425,#426,#427,#428,#429,#430,#431,#432)) ;
#71=FACE_OUTER_BOUND('',#66,.T.) ;
#102=FACE_OUTER_BOUND('',#97,.T.) ;
#126=FACE_OUTER_BOUND('',#121,.T.) ;
#150=FACE_OUTER_BOUND('',#145,.T.) ;
#190=FACE_OUTER_BOUND('',#185,.T.) ;
#221=FACE_OUTER_BOUND('',#216,.T.) ;
#245=FACE_OUTER_BOUND('',#240,.T.) ;
#269=FACE_OUTER_BOUND('',#264,.T.) ;
#327=FACE_OUTER_BOUND('',#314,.T.) ;
#362=FACE_OUTER_BOUND('',#357,.T.) ;
#384=FACE_OUTER_BOUND('',#379,.T.) ;
#396=FACE_OUTER_BOUND('',#391,.T.) ;
#413=FACE_OUTER_BOUND('',#408,.T.) ;
#433=FACE_OUTER_BOUND('',#420,.T.) ;
#41=LINE('Line',#38,#40) ;
#50=LINE('Line',#47,#49) ;
#57=LINE('Line',#54,#56) ;
#64=LINE('Line',#61,#63) ;
#81=LINE('Line',#78,#80) ;
#90=LINE('Line',#87,#89) ;
#95=LINE('Line',#92,#94) ;
#112=LINE('Line',#109,#111) ;
#119=LINE('Line',#116,#118) ;
#136=LINE('Line',#133,#135) ;
#143=LINE('Line',#140,#142) ;
#160=LINE('Line',#157,#159) ;
#169=LINE('Line',#166,#168) ;
#176=LINE('Line',#173,#175) ;
#183=LINE('Line',#180,#182) ;
#200=LINE('Line',#197,#199) ;
#207=LINE('Line',#204,#206) ;
#214=LINE('Line',#211,#213) ;
#231=LINE('Line',#228,#230) ;
#238=LINE('Line',#235,#237) ;
#255=LINE('Line',#252,#254) ;
#262=LINE('Line',#259,#261) ;
#279=LINE('Line',#276,#278) ;
#284=LINE('Line',#281,#283) ;
#291=LINE('Line',#288,#290) ;
#298=LINE('Line',#295,#297) ;
#305=LINE('Line',#302,#304) ;
#312=LINE('Line',#309,#311) ;
#332=LINE('Line',#329,#331) ;
#341=LINE('Line',#338,#340) ;
#348=LINE('Line',#345,#347) ;
#355=LINE('Line',#352,#354) ;
#372=LINE('Line',#369,#371) ;
#377=LINE('Line',#374,#376) ;
#389=LINE('Line',#386,#388) ;
#406=LINE('Line',#403,#405) ;
#37=PLANE('',#36) ;
#77=PLANE('',#76) ;
#108=PLANE('',#107) ;
#132=PLANE('',#131) ;
#156=PLANE('',#155) ;
#196=PLANE('',#195) ;
#227=PLANE('',#226) ;
#251=PLANE('',#250) ;
#275=PLANE('',#274) ;
#368=PLANE('',#367) ;
#402=PLANE('',#401) ;
#419=PLANE('',#418) ;
#14=PLANE_ANGLE_MEASURE_WITH_UNIT(PLANE_ANGLE_MEASURE(0.0174532925199),#13) ;
#9=PRODUCT_CATEGORY_RELATIONSHIP(' ',' ',#7,#8) ;
#6=PRODUCT_DEFINITION_FORMATION_WITH_SPECIFIED_SOURCE('',' ',#5,.NOT_KNOWN.) ;
#21=SHAPE_DEFINITION_REPRESENTATION(#11,#20) ;
#43=VERTEX_POINT('',#42) ;
#45=VERTEX_POINT('',#44) ;
#52=VERTEX_POINT('',#51) ;
#59=VERTEX_POINT('',#58) ;
#83=VERTEX_POINT('',#82) ;
#85=VERTEX_POINT('',#84) ;
#114=VERTEX_POINT('',#113) ;
#138=VERTEX_POINT('',#137) ;
#162=VERTEX_POINT('',#161) ;
#164=VERTEX_POINT('',#163) ;
#171=VERTEX_POINT('',#170) ;
#178=VERTEX_POINT('',#177) ;
#202=VERTEX_POINT('',#201) ;
#209=VERTEX_POINT('',#208) ;
#233=VERTEX_POINT('',#232) ;
#257=VERTEX_POINT('',#256) ;
#286=VERTEX_POINT('',#285) ;
#293=VERTEX_POINT('',#292) ;
#300=VERTEX_POINT('',#299) ;
#307=VERTEX_POINT('',#306) ;
#334=VERTEX_POINT('',#333) ;
#336=VERTEX_POINT('',#335) ;
#343=VERTEX_POINT('',#342) ;
#350=VERTEX_POINT('',#349) ;
#12=(LENGTH_UNIT()NAMED_UNIT(*)SI_UNIT(.MILLI.,.METRE.)) ;
#13=(NAMED_UNIT(*)PLANE_ANGLE_UNIT()SI_UNIT($,.RADIAN.)) ;
#15=(NAMED_UNIT(*)SI_UNIT($,.STERADIAN.)SOLID_ANGLE_UNIT()) ;
#17=(GEOMETRIC_REPRESENTATION_CONTEXT(3)GLOBAL_UNCERTAINTY_ASSIGNED_CONTEXT((#16))GLOBAL_UNIT_ASSIGNED_CONTEXT((#12,#13,#15))REPRESENTATION_CONTEXT(' ',' ')) ;
ENDSEC;
END-ISO-10303-21;
