ISO-10303-21;
HEADER;
FILE_DESCRIPTION(('CATIA V5R24 STEP','CAx-IF Rec.Pracs.--- Model Styling and Organization---1.2---2011-12-15'),'2;1');

FILE_NAME ('D1461338_0', '2016-08-24T11:34:14+00:00', ('Weidmueller Interface'), ('Weidmueller'), 'CATIA Version 5-6 Release 2014 SP4', 'CATIA V5 STEP AP214', 'none');

FILE_SCHEMA(('AUTOMOTIVE_DESIGN { 1 0 10303 214 1 1 1 1 }'));

ENDSEC;
DATA;
#5=PRODUCT('61468_ESG_9X17_MM','','GERAETEMARKIERER\X2\000D\X0\\X2\000A\X0\<Q-CHECKER_SEAL> Q-Checker Version 2.14.8  \X2\000A\X0\CATIA-Version         : Catia V5 R20 SP5 Build Date 01-06-2014.17.15\X2\000A\X0\Model size (in KByte) : 0\X2\000A\X0\Checking date         : 2015-08-31 11:32:42\X2\000A\X0\Checking profile      : ADMIN / Release_2D-3D [CATPart]\X2\000A\X0\Model assessment      : In Ordnung (IO)\X2\000A\X0\Total weight sum      : 0\X2\000A\X0\<CROSS_CHECK_SUM>\X2\000A\X0\  <CHKSUM_DATE> 352076774 </CHKSUM_DATE>\X2\000A\X0\  <CHKSUM_ENTITIES> 1445518048 </CHKSUM_ENTITIES>\X2\000A\X0\  <CHKSUM_PROFILE> 1594213346 </CHKSUM_PROFILE>\X2\000A\X0\  <CHKSUM_DIMENSION> -186917087 </CHKSUM_DIMENSION>\X2\000A\X0\  <CHKSUM_PROJINTERSEC> -896974048 </CHKSUM_PROJINTERSEC>\X2\000A\X0\  <CHKSUM_IDENTCRV> -896974048 </CHKSUM_IDENTCRV>\X2\000A\X0\  <CHKSUM_INFINITY> 138018827 </CHKSUM_INFINITY>\X2\000A\X0\</CROSS_CHECK_SUM>\X2\000A\X0\</Q-CHECKER_SEAL> \X2\000A\X0\ \X2\000D\X0\\X2\000A\X0\ \X2\000D\X0\\X2\000A\X0\ \X2\000D\X0\\X2\000A\X0\ \X2\000D\X0\\X2\000A\X0\ \X2\000D\X0\\X2\000A\X0\',(#2)) ;
#2=PRODUCT_CONTEXT(' ',#1,'mechanical') ;
#1=APPLICATION_CONTEXT('automotive design') ;
#10=PRODUCT_DEFINITION('',' ',#6,#3) ;
#3=PRODUCT_DEFINITION_CONTEXT('part definition',#1,' ') ;
#11=PRODUCT_DEFINITION_SHAPE(' ',' ',#10) ;
#195=MECHANICAL_DESIGN_GEOMETRIC_PRESENTATION_REPRESENTATION(' ',(#79,#111,#143,#166,#179,#192,#29),#16) ;
#19=SHAPE_REPRESENTATION(' ',(#18),#16) ;
#18=AXIS2_PLACEMENT_3D(' ',#17,$,$) ;
#35=AXIS2_PLACEMENT_3D('Plane Axis2P3D',#32,#33,#34) ;
#83=AXIS2_PLACEMENT_3D('Plane Axis2P3D',#80,#81,#82) ;
#115=AXIS2_PLACEMENT_3D('Plane Axis2P3D',#112,#113,#114) ;
#147=AXIS2_PLACEMENT_3D('Plane Axis2P3D',#144,#145,#146) ;
#170=AXIS2_PLACEMENT_3D('Plane Axis2P3D',#167,#168,#169) ;
#183=AXIS2_PLACEMENT_3D('Plane Axis2P3D',#180,#181,#182) ;
#17=CARTESIAN_POINT(' ',(0.,0.,0.)) ;
#32=CARTESIAN_POINT('Axis2P3D Location',(17.,-8.881784197E-016,2.75545529808E-016)) ;
#37=CARTESIAN_POINT('Line Origine',(17.,-8.85116802702E-016,0.05)) ;
#41=CARTESIAN_POINT('Vertex',(17.,-8.881784197E-016,2.75545529808E-016)) ;
#43=CARTESIAN_POINT('Vertex',(17.,-8.881784197E-016,0.1)) ;
#46=CARTESIAN_POINT('Line Origine',(17.,4.5,0.)) ;
#50=CARTESIAN_POINT('Vertex',(17.,9.,-2.75545529808E-016)) ;
#53=CARTESIAN_POINT('Line Origine',(17.,9.,0.05)) ;
#57=CARTESIAN_POINT('Vertex',(17.,9.,0.1)) ;
#60=CARTESIAN_POINT('Line Origine',(17.,4.5,0.1)) ;
#80=CARTESIAN_POINT('Axis2P3D Location',(0.,9.,-2.75545529808E-016)) ;
#85=CARTESIAN_POINT('Line Origine',(8.5,9.,-2.75545529808E-016)) ;
#89=CARTESIAN_POINT('Vertex',(0.,9.,-2.75545529808E-016)) ;
#92=CARTESIAN_POINT('Line Origine',(0.,9.,0.05)) ;
#96=CARTESIAN_POINT('Vertex',(0.,9.,0.1)) ;
#99=CARTESIAN_POINT('Line Origine',(8.5,9.,0.1)) ;
#112=CARTESIAN_POINT('Axis2P3D Location',(0.,9.,-2.75545529808E-016)) ;
#117=CARTESIAN_POINT('Line Origine',(0.,4.5,0.)) ;
#121=CARTESIAN_POINT('Vertex',(0.,-8.881784197E-016,2.75545529808E-016)) ;
#124=CARTESIAN_POINT('Line Origine',(0.,-1.7732952224E-015,0.05)) ;
#128=CARTESIAN_POINT('Vertex',(0.,-8.881784197E-016,0.1)) ;
#131=CARTESIAN_POINT('Line Origine',(0.,4.5,0.1)) ;
#144=CARTESIAN_POINT('Axis2P3D Location',(17.,0.,2.75545529808E-016)) ;
#149=CARTESIAN_POINT('Line Origine',(8.5,0.,2.75545529808E-016)) ;
#154=CARTESIAN_POINT('Line Origine',(8.5,6.12323399574E-018,0.1)) ;
#167=CARTESIAN_POINT('Axis2P3D Location',(8.5,4.5,0.)) ;
#180=CARTESIAN_POINT('Axis2P3D Location',(8.5,4.5,0.1)) ;
#33=DIRECTION('Axis2P3D Direction',(1.,-0.,0.)) ;
#34=DIRECTION('Axis2P3D XDirection',(0.,1.,-6.12323399574E-017)) ;
#38=DIRECTION('Vector Direction',(0.,6.12323399574E-017,1.)) ;
#47=DIRECTION('Vector Direction',(0.,1.,-6.12323399574E-017)) ;
#54=DIRECTION('Vector Direction',(0.,0.,1.)) ;
#61=DIRECTION('Vector Direction',(0.,1.,-6.16790569236E-017)) ;
#81=DIRECTION('Axis2P3D Direction',(0.,-1.,6.12323399574E-017)) ;
#82=DIRECTION('Axis2P3D XDirection',(1.,0.,0.)) ;
#86=DIRECTION('Vector Direction',(1.,0.,0.)) ;
#93=DIRECTION('Vector Direction',(0.,0.,1.)) ;
#100=DIRECTION('Vector Direction',(1.,0.,0.)) ;
#113=DIRECTION('Axis2P3D Direction',(-1.,0.,0.)) ;
#114=DIRECTION('Axis2P3D XDirection',(0.,-1.,6.12323399574E-017)) ;
#118=DIRECTION('Vector Direction',(0.,-1.,6.12323399574E-017)) ;
#125=DIRECTION('Vector Direction',(0.,6.12323399574E-017,1.)) ;
#132=DIRECTION('Vector Direction',(0.,-1.,6.16790569236E-017)) ;
#145=DIRECTION('Axis2P3D Direction',(0.,1.,-6.12323399574E-017)) ;
#146=DIRECTION('Axis2P3D XDirection',(-1.,0.,0.)) ;
#150=DIRECTION('Vector Direction',(-1.,0.,0.)) ;
#155=DIRECTION('Vector Direction',(-1.,0.,0.)) ;
#168=DIRECTION('Axis2P3D Direction',(0.,6.12323399574E-017,1.)) ;
#169=DIRECTION('Axis2P3D XDirection',(-1.,0.,0.)) ;
#181=DIRECTION('Axis2P3D Direction',(0.,6.12323399574E-017,1.)) ;
#182=DIRECTION('Axis2P3D XDirection',(-1.,0.,0.)) ;
#30=PRESENTATION_LAYER_ASSIGNMENT('1',' ',(#21)) ;
#8=PRODUCT_RELATED_PRODUCT_CATEGORY('part',$,(#5)) ;
#7=PRODUCT_CATEGORY('part','specification') ;
#29=STYLED_ITEM(' ',(#28),#21) ;
#28=PRESENTATION_STYLE_ASSIGNMENT((#27)) ;
#78=PRESENTATION_STYLE_ASSIGNMENT((#77)) ;
#27=SURFACE_STYLE_USAGE(.BOTH.,#26) ;
#77=SURFACE_STYLE_USAGE(.BOTH.,#76) ;
#26=SURFACE_SIDE_STYLE(' ',(#25)) ;
#76=SURFACE_SIDE_STYLE(' ',(#75)) ;
#25=SURFACE_STYLE_FILL_AREA(#24) ;
#75=SURFACE_STYLE_FILL_AREA(#74) ;
#24=FILL_AREA_STYLE(' ',(#23)) ;
#74=FILL_AREA_STYLE(' ',(#73)) ;
#23=FILL_AREA_STYLE_COLOUR(' ',#22) ;
#73=FILL_AREA_STYLE_COLOUR(' ',#72) ;
#39=VECTOR('Line Direction',#38,1.) ;
#48=VECTOR('Line Direction',#47,1.) ;
#55=VECTOR('Line Direction',#54,1.) ;
#62=VECTOR('Line Direction',#61,1.) ;
#87=VECTOR('Line Direction',#86,1.) ;
#94=VECTOR('Line Direction',#93,1.) ;
#101=VECTOR('Line Direction',#100,1.) ;
#119=VECTOR('Line Direction',#118,1.) ;
#126=VECTOR('Line Direction',#125,1.) ;
#133=VECTOR('Line Direction',#132,1.) ;
#151=VECTOR('Line Direction',#150,1.) ;
#156=VECTOR('Line Direction',#155,1.) ;
#15=UNCERTAINTY_MEASURE_WITH_UNIT(LENGTH_MEASURE(0.005),#12,'distance_accuracy_value','CONFUSED CURVE UNCERTAINTY') ;
#194=SHAPE_REPRESENTATION_RELATIONSHIP(' ',' ',#19,#193) ;
#66=ORIENTED_EDGE('',*,*,#45,.F.) ;
#67=ORIENTED_EDGE('',*,*,#52,.T.) ;
#68=ORIENTED_EDGE('',*,*,#59,.T.) ;
#69=ORIENTED_EDGE('',*,*,#64,.F.) ;
#105=ORIENTED_EDGE('',*,*,#59,.F.) ;
#106=ORIENTED_EDGE('',*,*,#91,.T.) ;
#107=ORIENTED_EDGE('',*,*,#98,.T.) ;
#108=ORIENTED_EDGE('',*,*,#103,.F.) ;
#137=ORIENTED_EDGE('',*,*,#98,.F.) ;
#138=ORIENTED_EDGE('',*,*,#123,.T.) ;
#139=ORIENTED_EDGE('',*,*,#130,.T.) ;
#140=ORIENTED_EDGE('',*,*,#135,.F.) ;
#160=ORIENTED_EDGE('',*,*,#130,.F.) ;
#161=ORIENTED_EDGE('',*,*,#153,.T.) ;
#162=ORIENTED_EDGE('',*,*,#45,.T.) ;
#163=ORIENTED_EDGE('',*,*,#158,.F.) ;
#173=ORIENTED_EDGE('',*,*,#153,.F.) ;
#174=ORIENTED_EDGE('',*,*,#123,.F.) ;
#175=ORIENTED_EDGE('',*,*,#91,.F.) ;
#176=ORIENTED_EDGE('',*,*,#52,.F.) ;
#186=ORIENTED_EDGE('',*,*,#64,.T.) ;
#187=ORIENTED_EDGE('',*,*,#103,.T.) ;
#188=ORIENTED_EDGE('',*,*,#135,.T.) ;
#189=ORIENTED_EDGE('',*,*,#158,.T.) ;
#31=CLOSED_SHELL('Closed Shell',(#71,#110,#142,#165,#178,#191)) ;
#193=ADVANCED_BREP_SHAPE_REPRESENTATION('NONE',(#21),#16) ;
#71=ADVANCED_FACE('S3D gedreht',(#70),#36,.T.) ;
#110=ADVANCED_FACE('S3D gedreht',(#109),#84,.F.) ;
#142=ADVANCED_FACE('S3D gedreht',(#141),#116,.T.) ;
#165=ADVANCED_FACE('S3D gedreht',(#164),#148,.F.) ;
#178=ADVANCED_FACE('S3D gedreht',(#177),#171,.F.) ;
#191=ADVANCED_FACE('S3D gedreht',(#190),#184,.T.) ;
#4=APPLICATION_PROTOCOL_DEFINITION('international standard','automotive_design',2001,#1) ;
#21=MANIFOLD_SOLID_BREP('S3D gedreht',#31) ;
#22=COLOUR_RGB('Colour',0.823529411765,0.823529411765,1.) ;
#79=OVER_RIDING_STYLED_ITEM(' ',(#78),#71,#29) ;
#111=OVER_RIDING_STYLED_ITEM(' ',(#78),#110,#29) ;
#143=OVER_RIDING_STYLED_ITEM(' ',(#78),#142,#29) ;
#166=OVER_RIDING_STYLED_ITEM(' ',(#78),#165,#29) ;
#179=OVER_RIDING_STYLED_ITEM(' ',(#78),#178,#29) ;
#192=OVER_RIDING_STYLED_ITEM(' ',(#78),#191,#29) ;
#72=DRAUGHTING_PRE_DEFINED_COLOUR('white') ;
#45=EDGE_CURVE('',#42,#44,#40,.T.) ;
#52=EDGE_CURVE('',#42,#51,#49,.T.) ;
#59=EDGE_CURVE('',#51,#58,#56,.T.) ;
#64=EDGE_CURVE('',#44,#58,#63,.T.) ;
#91=EDGE_CURVE('',#51,#90,#88,.F.) ;
#98=EDGE_CURVE('',#90,#97,#95,.T.) ;
#103=EDGE_CURVE('',#58,#97,#102,.F.) ;
#123=EDGE_CURVE('',#90,#122,#120,.T.) ;
#130=EDGE_CURVE('',#122,#129,#127,.T.) ;
#135=EDGE_CURVE('',#97,#129,#134,.T.) ;
#153=EDGE_CURVE('',#122,#42,#152,.F.) ;
#158=EDGE_CURVE('',#129,#44,#157,.F.) ;
#65=EDGE_LOOP('',(#66,#67,#68,#69)) ;
#104=EDGE_LOOP('',(#105,#106,#107,#108)) ;
#136=EDGE_LOOP('',(#137,#138,#139,#140)) ;
#159=EDGE_LOOP('',(#160,#161,#162,#163)) ;
#172=EDGE_LOOP('',(#173,#174,#175,#176)) ;
#185=EDGE_LOOP('',(#186,#187,#188,#189)) ;
#70=FACE_OUTER_BOUND('',#65,.T.) ;
#109=FACE_OUTER_BOUND('',#104,.T.) ;
#141=FACE_OUTER_BOUND('',#136,.T.) ;
#164=FACE_OUTER_BOUND('',#159,.T.) ;
#177=FACE_OUTER_BOUND('',#172,.T.) ;
#190=FACE_OUTER_BOUND('',#185,.T.) ;
#40=LINE('Line',#37,#39) ;
#49=LINE('Line',#46,#48) ;
#56=LINE('Line',#53,#55) ;
#63=LINE('Line',#60,#62) ;
#88=LINE('Line',#85,#87) ;
#95=LINE('Line',#92,#94) ;
#102=LINE('Line',#99,#101) ;
#120=LINE('Line',#117,#119) ;
#127=LINE('Line',#124,#126) ;
#134=LINE('Line',#131,#133) ;
#152=LINE('Line',#149,#151) ;
#157=LINE('Line',#154,#156) ;
#36=PLANE('',#35) ;
#84=PLANE('',#83) ;
#116=PLANE('',#115) ;
#148=PLANE('',#147) ;
#171=PLANE('',#170) ;
#184=PLANE('',#183) ;
#9=PRODUCT_CATEGORY_RELATIONSHIP(' ',' ',#7,#8) ;
#6=PRODUCT_DEFINITION_FORMATION_WITH_SPECIFIED_SOURCE('',' ',#5,.BOUGHT.) ;
#20=SHAPE_DEFINITION_REPRESENTATION(#11,#19) ;
#42=VERTEX_POINT('',#41) ;
#44=VERTEX_POINT('',#43) ;
#51=VERTEX_POINT('',#50) ;
#58=VERTEX_POINT('',#57) ;
#90=VERTEX_POINT('',#89) ;
#97=VERTEX_POINT('',#96) ;
#122=VERTEX_POINT('',#121) ;
#129=VERTEX_POINT('',#128) ;
#12=(LENGTH_UNIT()NAMED_UNIT(*)SI_UNIT(.MILLI.,.METRE.)) ;
#13=(NAMED_UNIT(*)PLANE_ANGLE_UNIT()SI_UNIT($,.RADIAN.)) ;
#14=(NAMED_UNIT(*)SI_UNIT($,.STERADIAN.)SOLID_ANGLE_UNIT()) ;
#16=(GEOMETRIC_REPRESENTATION_CONTEXT(3)GLOBAL_UNCERTAINTY_ASSIGNED_CONTEXT((#15))GLOBAL_UNIT_ASSIGNED_CONTEXT((#12,#13,#14))REPRESENTATION_CONTEXT(' ',' ')) ;
ENDSEC;
END-ISO-10303-21;
