ISO-10303-21;
HEADER;
FILE_DESCRIPTION(('CATIA V5 STEP Exchange','CAx-IF Rec.Pracs.--- Model Styling and Organization---1.4--- 2014-01-23'),'2;1');

FILE_NAME ('379851-2_1_2526810000_2526810000.stp','2019-06-26T05:26:46+00:00',('none'),('Weidmueller'),'CATIA Version 5-6 Release 2016 SP3 HF44','CATIA V5 STEP AP214','none');

FILE_SCHEMA(('AUTOMOTIVE_DESIGN { 1 0 10303 214 1 1 1 1 }'));

ENDSEC;
DATA;
#5=PRODUCT('2526810000','','',(#2)) ;
#2=PRODUCT_CONTEXT(' ',#1,'mechanical') ;
#1=APPLICATION_CONTEXT('automotive design') ;
#10=PRODUCT_DEFINITION('',' ',#6,#3) ;
#3=PRODUCT_DEFINITION_CONTEXT('part definition',#1,' ') ;
#11=PRODUCT_DEFINITION_SHAPE(' ',' ',#10) ;
#455=MECHANICAL_DESIGN_GEOMETRIC_PRESENTATION_REPRESENTATION(' ',(#29),#16) ;
#456=MECHANICAL_DESIGN_GEOMETRIC_PRESENTATION_REPRESENTATION(' ',(#452),#16) ;
#19=SHAPE_REPRESENTATION(' ',(#18),#16) ;
#18=AXIS2_PLACEMENT_3D(' ',#17,$,$) ;
#35=AXIS2_PLACEMENT_3D('Plane Axis2P3D',#32,#33,#34) ;
#75=AXIS2_PLACEMENT_3D('Cylinder Axis2P3D',#72,#73,#74) ;
#79=AXIS2_PLACEMENT_3D('Circle Axis2P3D',#77,#78,$) ;
#93=AXIS2_PLACEMENT_3D('Circle Axis2P3D',#91,#92,$) ;
#106=AXIS2_PLACEMENT_3D('Cylinder Axis2P3D',#103,#104,#105) ;
#110=AXIS2_PLACEMENT_3D('Circle Axis2P3D',#108,#109,$) ;
#124=AXIS2_PLACEMENT_3D('Circle Axis2P3D',#122,#123,$) ;
#137=AXIS2_PLACEMENT_3D('Cylinder Axis2P3D',#134,#135,#136) ;
#141=AXIS2_PLACEMENT_3D('Circle Axis2P3D',#139,#140,$) ;
#155=AXIS2_PLACEMENT_3D('Circle Axis2P3D',#153,#154,$) ;
#168=AXIS2_PLACEMENT_3D('Plane Axis2P3D',#165,#166,#167) ;
#199=AXIS2_PLACEMENT_3D('Cylinder Axis2P3D',#196,#197,#198) ;
#203=AXIS2_PLACEMENT_3D('Circle Axis2P3D',#201,#202,$) ;
#217=AXIS2_PLACEMENT_3D('Circle Axis2P3D',#215,#216,$) ;
#230=AXIS2_PLACEMENT_3D('Cylinder Axis2P3D',#227,#228,#229) ;
#234=AXIS2_PLACEMENT_3D('Circle Axis2P3D',#232,#233,$) ;
#248=AXIS2_PLACEMENT_3D('Circle Axis2P3D',#246,#247,$) ;
#261=AXIS2_PLACEMENT_3D('Cylinder Axis2P3D',#258,#259,#260) ;
#265=AXIS2_PLACEMENT_3D('Circle Axis2P3D',#263,#264,$) ;
#270=AXIS2_PLACEMENT_3D('Circle Axis2P3D',#268,#269,$) ;
#283=AXIS2_PLACEMENT_3D('Cylinder Axis2P3D',#280,#281,#282) ;
#287=AXIS2_PLACEMENT_3D('Circle Axis2P3D',#285,#286,$) ;
#303=AXIS2_PLACEMENT_3D('Circle Axis2P3D',#301,#302,$) ;
#322=AXIS2_PLACEMENT_3D('Circle Axis2P3D',#320,#321,$) ;
#327=AXIS2_PLACEMENT_3D('Circle Axis2P3D',#325,#326,$) ;
#340=AXIS2_PLACEMENT_3D('Cylinder Axis2P3D',#337,#338,#339) ;
#344=AXIS2_PLACEMENT_3D('Circle Axis2P3D',#342,#343,$) ;
#360=AXIS2_PLACEMENT_3D('Circle Axis2P3D',#358,#359,$) ;
#379=AXIS2_PLACEMENT_3D('Circle Axis2P3D',#377,#378,$) ;
#384=AXIS2_PLACEMENT_3D('Circle Axis2P3D',#382,#383,$) ;
#397=AXIS2_PLACEMENT_3D('Plane Axis2P3D',#394,#395,#396) ;
#421=AXIS2_PLACEMENT_3D('Plane Axis2P3D',#418,#419,#420) ;
#447=AXIS2_PLACEMENT_3D('Referenzachsensystem',#444,#445,#446) ;
#17=CARTESIAN_POINT(' ',(0.,0.,0.)) ;
#32=CARTESIAN_POINT('Axis2P3D Location',(38.,2.68247287969,0.)) ;
#37=CARTESIAN_POINT('Line Origine',(38.,2.68247287969,0.75)) ;
#41=CARTESIAN_POINT('Vertex',(38.,2.68247287969,0.)) ;
#43=CARTESIAN_POINT('Vertex',(38.,2.68247287969,1.5)) ;
#46=CARTESIAN_POINT('Line Origine',(38.,119.,0.)) ;
#50=CARTESIAN_POINT('Vertex',(38.,235.31752712,0.)) ;
#53=CARTESIAN_POINT('Line Origine',(38.,235.31752712,0.75)) ;
#57=CARTESIAN_POINT('Vertex',(38.,235.31752712,1.5)) ;
#60=CARTESIAN_POINT('Line Origine',(38.,119.,1.5)) ;
#72=CARTESIAN_POINT('Axis2P3D Location',(37.5,235.31752712,0.75)) ;
#77=CARTESIAN_POINT('Axis2P3D Location',(37.5,235.31752712,0.)) ;
#81=CARTESIAN_POINT('Vertex',(37.6163522013,235.803800876,0.)) ;
#84=CARTESIAN_POINT('Line Origine',(37.6163522013,235.803800876,0.75)) ;
#88=CARTESIAN_POINT('Vertex',(37.6163522013,235.803800876,1.5)) ;
#91=CARTESIAN_POINT('Axis2P3D Location',(37.5,235.31752712,1.5)) ;
#103=CARTESIAN_POINT('Axis2P3D Location',(19.,158.,0.75)) ;
#108=CARTESIAN_POINT('Axis2P3D Location',(19.,158.,0.)) ;
#112=CARTESIAN_POINT('Vertex',(0.383647798742,235.803800876,0.)) ;
#115=CARTESIAN_POINT('Line Origine',(0.383647798742,235.803800876,0.75)) ;
#119=CARTESIAN_POINT('Vertex',(0.383647798742,235.803800876,1.5)) ;
#122=CARTESIAN_POINT('Axis2P3D Location',(19.,158.,1.5)) ;
#134=CARTESIAN_POINT('Axis2P3D Location',(0.5,235.31752712,0.75)) ;
#139=CARTESIAN_POINT('Axis2P3D Location',(0.5,235.31752712,0.)) ;
#143=CARTESIAN_POINT('Vertex',(0.,235.31752712,0.)) ;
#146=CARTESIAN_POINT('Line Origine',(0.,235.31752712,0.75)) ;
#150=CARTESIAN_POINT('Vertex',(0.,235.31752712,1.5)) ;
#153=CARTESIAN_POINT('Axis2P3D Location',(0.5,235.31752712,1.5)) ;
#165=CARTESIAN_POINT('Axis2P3D Location',(0.,235.31752712,0.)) ;
#170=CARTESIAN_POINT('Line Origine',(0.,119.,0.)) ;
#174=CARTESIAN_POINT('Vertex',(0.,2.68247287969,0.)) ;
#177=CARTESIAN_POINT('Line Origine',(0.,2.68247287969,0.75)) ;
#181=CARTESIAN_POINT('Vertex',(0.,2.68247287969,1.5)) ;
#184=CARTESIAN_POINT('Line Origine',(0.,119.,1.5)) ;
#196=CARTESIAN_POINT('Axis2P3D Location',(0.5,2.68247287969,0.75)) ;
#201=CARTESIAN_POINT('Axis2P3D Location',(0.5,2.68247287969,0.)) ;
#205=CARTESIAN_POINT('Vertex',(0.383647798742,2.19619912422,0.)) ;
#208=CARTESIAN_POINT('Line Origine',(0.383647798742,2.19619912422,0.75)) ;
#212=CARTESIAN_POINT('Vertex',(0.383647798742,2.19619912422,1.5)) ;
#215=CARTESIAN_POINT('Axis2P3D Location',(0.5,2.68247287969,1.5)) ;
#227=CARTESIAN_POINT('Axis2P3D Location',(19.,80.,0.75)) ;
#232=CARTESIAN_POINT('Axis2P3D Location',(19.,80.,0.)) ;
#236=CARTESIAN_POINT('Vertex',(37.6163522013,2.19619912422,0.)) ;
#239=CARTESIAN_POINT('Line Origine',(37.6163522013,2.19619912422,0.75)) ;
#243=CARTESIAN_POINT('Vertex',(37.6163522013,2.19619912422,1.5)) ;
#246=CARTESIAN_POINT('Axis2P3D Location',(19.,80.,1.5)) ;
#258=CARTESIAN_POINT('Axis2P3D Location',(37.5,2.68247287969,0.75)) ;
#263=CARTESIAN_POINT('Axis2P3D Location',(37.5,2.68247287969,0.)) ;
#268=CARTESIAN_POINT('Axis2P3D Location',(37.5,2.68247287969,1.5)) ;
#280=CARTESIAN_POINT('Axis2P3D Location',(19.,6.5,0.75)) ;
#285=CARTESIAN_POINT('Axis2P3D Location',(19.,6.5,1.5)) ;
#289=CARTESIAN_POINT('Vertex',(15.25,6.5,1.5)) ;
#291=CARTESIAN_POINT('Vertex',(22.75,6.5,1.5)) ;
#294=CARTESIAN_POINT('Line Origine',(22.75,6.5,0.75)) ;
#298=CARTESIAN_POINT('Vertex',(22.75,6.5,0.)) ;
#301=CARTESIAN_POINT('Axis2P3D Location',(19.,6.5,0.)) ;
#305=CARTESIAN_POINT('Vertex',(15.25,6.5,0.)) ;
#308=CARTESIAN_POINT('Line Origine',(15.25,6.5,0.75)) ;
#320=CARTESIAN_POINT('Axis2P3D Location',(19.,6.5,1.5)) ;
#325=CARTESIAN_POINT('Axis2P3D Location',(19.,6.5,0.)) ;
#337=CARTESIAN_POINT('Axis2P3D Location',(19.,231.5,0.75)) ;
#342=CARTESIAN_POINT('Axis2P3D Location',(19.,231.5,1.5)) ;
#346=CARTESIAN_POINT('Vertex',(15.25,231.5,1.5)) ;
#348=CARTESIAN_POINT('Vertex',(22.75,231.5,1.5)) ;
#351=CARTESIAN_POINT('Line Origine',(22.75,231.5,0.75)) ;
#355=CARTESIAN_POINT('Vertex',(22.75,231.5,0.)) ;
#358=CARTESIAN_POINT('Axis2P3D Location',(19.,231.5,0.)) ;
#362=CARTESIAN_POINT('Vertex',(15.25,231.5,0.)) ;
#365=CARTESIAN_POINT('Line Origine',(15.25,231.5,0.75)) ;
#377=CARTESIAN_POINT('Axis2P3D Location',(19.,231.5,1.5)) ;
#382=CARTESIAN_POINT('Axis2P3D Location',(19.,231.5,0.)) ;
#394=CARTESIAN_POINT('Axis2P3D Location',(0.,0.,0.)) ;
#418=CARTESIAN_POINT('Axis2P3D Location',(0.,0.,1.5)) ;
#444=CARTESIAN_POINT('Axis2P3D Location',(0.,0.,0.)) ;
#33=DIRECTION('Axis2P3D Direction',(1.,0.,0.)) ;
#34=DIRECTION('Axis2P3D XDirection',(0.,1.,0.)) ;
#38=DIRECTION('Vector Direction',(0.,0.,1.)) ;
#47=DIRECTION('Vector Direction',(0.,1.,0.)) ;
#54=DIRECTION('Vector Direction',(0.,0.,1.)) ;
#61=DIRECTION('Vector Direction',(0.,1.,0.)) ;
#73=DIRECTION('Axis2P3D Direction',(0.,0.,1.)) ;
#74=DIRECTION('Axis2P3D XDirection',(1.,0.,0.)) ;
#78=DIRECTION('Axis2P3D Direction',(0.,0.,1.)) ;
#85=DIRECTION('Vector Direction',(0.,0.,1.)) ;
#92=DIRECTION('Axis2P3D Direction',(0.,0.,1.)) ;
#104=DIRECTION('Axis2P3D Direction',(0.,0.,1.)) ;
#105=DIRECTION('Axis2P3D XDirection',(0.232704402516,0.972547510947,0.)) ;
#109=DIRECTION('Axis2P3D Direction',(0.,0.,1.)) ;
#116=DIRECTION('Vector Direction',(0.,0.,1.)) ;
#123=DIRECTION('Axis2P3D Direction',(0.,0.,1.)) ;
#135=DIRECTION('Axis2P3D Direction',(0.,0.,1.)) ;
#136=DIRECTION('Axis2P3D XDirection',(-0.232704402516,0.972547510947,0.)) ;
#140=DIRECTION('Axis2P3D Direction',(0.,0.,1.)) ;
#147=DIRECTION('Vector Direction',(0.,0.,1.)) ;
#154=DIRECTION('Axis2P3D Direction',(0.,0.,1.)) ;
#166=DIRECTION('Axis2P3D Direction',(-1.,0.,0.)) ;
#167=DIRECTION('Axis2P3D XDirection',(0.,-1.,0.)) ;
#171=DIRECTION('Vector Direction',(0.,-1.,0.)) ;
#178=DIRECTION('Vector Direction',(0.,0.,1.)) ;
#185=DIRECTION('Vector Direction',(0.,-1.,0.)) ;
#197=DIRECTION('Axis2P3D Direction',(0.,0.,1.)) ;
#198=DIRECTION('Axis2P3D XDirection',(-1.,1.22464679915E-016,0.)) ;
#202=DIRECTION('Axis2P3D Direction',(0.,0.,1.)) ;
#209=DIRECTION('Vector Direction',(0.,0.,1.)) ;
#216=DIRECTION('Axis2P3D Direction',(0.,0.,1.)) ;
#228=DIRECTION('Axis2P3D Direction',(0.,0.,1.)) ;
#229=DIRECTION('Axis2P3D XDirection',(-0.232704402516,-0.972547510947,-0.)) ;
#233=DIRECTION('Axis2P3D Direction',(0.,0.,1.)) ;
#240=DIRECTION('Vector Direction',(0.,0.,1.)) ;
#247=DIRECTION('Axis2P3D Direction',(0.,0.,1.)) ;
#259=DIRECTION('Axis2P3D Direction',(0.,0.,1.)) ;
#260=DIRECTION('Axis2P3D XDirection',(0.232704402516,-0.972547510947,0.)) ;
#264=DIRECTION('Axis2P3D Direction',(0.,0.,1.)) ;
#269=DIRECTION('Axis2P3D Direction',(0.,0.,1.)) ;
#281=DIRECTION('Axis2P3D Direction',(0.,0.,1.)) ;
#282=DIRECTION('Axis2P3D XDirection',(1.,0.,0.)) ;
#286=DIRECTION('Axis2P3D Direction',(0.,0.,1.)) ;
#295=DIRECTION('Vector Direction',(0.,0.,1.)) ;
#302=DIRECTION('Axis2P3D Direction',(0.,0.,1.)) ;
#309=DIRECTION('Vector Direction',(0.,0.,1.)) ;
#321=DIRECTION('Axis2P3D Direction',(0.,0.,1.)) ;
#326=DIRECTION('Axis2P3D Direction',(0.,0.,1.)) ;
#338=DIRECTION('Axis2P3D Direction',(0.,0.,1.)) ;
#339=DIRECTION('Axis2P3D XDirection',(1.,0.,0.)) ;
#343=DIRECTION('Axis2P3D Direction',(0.,0.,1.)) ;
#352=DIRECTION('Vector Direction',(0.,0.,1.)) ;
#359=DIRECTION('Axis2P3D Direction',(0.,0.,1.)) ;
#366=DIRECTION('Vector Direction',(0.,0.,1.)) ;
#378=DIRECTION('Axis2P3D Direction',(0.,0.,1.)) ;
#383=DIRECTION('Axis2P3D Direction',(0.,0.,1.)) ;
#395=DIRECTION('Axis2P3D Direction',(0.,0.,1.)) ;
#396=DIRECTION('Axis2P3D XDirection',(1.,0.,0.)) ;
#419=DIRECTION('Axis2P3D Direction',(0.,0.,1.)) ;
#420=DIRECTION('Axis2P3D XDirection',(1.,0.,0.)) ;
#445=DIRECTION('Axis2P3D Direction',(0.,0.,1.)) ;
#446=DIRECTION('Axis2P3D XDirection',(1.,0.,0.)) ;
#30=PRESENTATION_LAYER_ASSIGNMENT('1',' ',(#21)) ;
#8=PRODUCT_RELATED_PRODUCT_CATEGORY('part',$,(#5)) ;
#7=PRODUCT_CATEGORY('part','specification') ;
#29=STYLED_ITEM(' ',(#28),#21) ;
#452=STYLED_ITEM(' ',(#451),#447) ;
#28=PRESENTATION_STYLE_ASSIGNMENT((#27)) ;
#451=PRESENTATION_STYLE_ASSIGNMENT((#450)) ;
#450=CURVE_STYLE(' ',#448,POSITIVE_LENGTH_MEASURE(0.129999995232),#449) ;
#27=SURFACE_STYLE_USAGE(.BOTH.,#26) ;
#26=SURFACE_SIDE_STYLE(' ',(#25)) ;
#25=SURFACE_STYLE_FILL_AREA(#24) ;
#24=FILL_AREA_STYLE(' ',(#23)) ;
#23=FILL_AREA_STYLE_COLOUR(' ',#22) ;
#39=VECTOR('Line Direction',#38,1.) ;
#48=VECTOR('Line Direction',#47,1.) ;
#55=VECTOR('Line Direction',#54,1.) ;
#62=VECTOR('Line Direction',#61,1.) ;
#86=VECTOR('Line Direction',#85,1.) ;
#117=VECTOR('Line Direction',#116,1.) ;
#148=VECTOR('Line Direction',#147,1.) ;
#172=VECTOR('Line Direction',#171,1.) ;
#179=VECTOR('Line Direction',#178,1.) ;
#186=VECTOR('Line Direction',#185,1.) ;
#210=VECTOR('Line Direction',#209,1.) ;
#241=VECTOR('Line Direction',#240,1.) ;
#296=VECTOR('Line Direction',#295,1.) ;
#310=VECTOR('Line Direction',#309,1.) ;
#353=VECTOR('Line Direction',#352,1.) ;
#367=VECTOR('Line Direction',#366,1.) ;
#15=UNCERTAINTY_MEASURE_WITH_UNIT(LENGTH_MEASURE(0.005),#12,'distance_accuracy_value','CONFUSED CURVE UNCERTAINTY') ;
#443=SHAPE_REPRESENTATION_RELATIONSHIP(' ',' ',#19,#442) ;
#66=ORIENTED_EDGE('',*,*,#45,.F.) ;
#67=ORIENTED_EDGE('',*,*,#52,.T.) ;
#68=ORIENTED_EDGE('',*,*,#59,.T.) ;
#69=ORIENTED_EDGE('',*,*,#64,.F.) ;
#97=ORIENTED_EDGE('',*,*,#59,.F.) ;
#98=ORIENTED_EDGE('',*,*,#83,.T.) ;
#99=ORIENTED_EDGE('',*,*,#90,.T.) ;
#100=ORIENTED_EDGE('',*,*,#95,.F.) ;
#128=ORIENTED_EDGE('',*,*,#90,.F.) ;
#129=ORIENTED_EDGE('',*,*,#114,.T.) ;
#130=ORIENTED_EDGE('',*,*,#121,.T.) ;
#131=ORIENTED_EDGE('',*,*,#126,.F.) ;
#159=ORIENTED_EDGE('',*,*,#121,.F.) ;
#160=ORIENTED_EDGE('',*,*,#145,.T.) ;
#161=ORIENTED_EDGE('',*,*,#152,.T.) ;
#162=ORIENTED_EDGE('',*,*,#157,.F.) ;
#190=ORIENTED_EDGE('',*,*,#152,.F.) ;
#191=ORIENTED_EDGE('',*,*,#176,.T.) ;
#192=ORIENTED_EDGE('',*,*,#183,.T.) ;
#193=ORIENTED_EDGE('',*,*,#188,.F.) ;
#221=ORIENTED_EDGE('',*,*,#183,.F.) ;
#222=ORIENTED_EDGE('',*,*,#207,.T.) ;
#223=ORIENTED_EDGE('',*,*,#214,.T.) ;
#224=ORIENTED_EDGE('',*,*,#219,.F.) ;
#252=ORIENTED_EDGE('',*,*,#214,.F.) ;
#253=ORIENTED_EDGE('',*,*,#238,.T.) ;
#254=ORIENTED_EDGE('',*,*,#245,.T.) ;
#255=ORIENTED_EDGE('',*,*,#250,.F.) ;
#274=ORIENTED_EDGE('',*,*,#245,.F.) ;
#275=ORIENTED_EDGE('',*,*,#267,.T.) ;
#276=ORIENTED_EDGE('',*,*,#45,.T.) ;
#277=ORIENTED_EDGE('',*,*,#272,.F.) ;
#314=ORIENTED_EDGE('',*,*,#293,.T.) ;
#315=ORIENTED_EDGE('',*,*,#300,.F.) ;
#316=ORIENTED_EDGE('',*,*,#307,.F.) ;
#317=ORIENTED_EDGE('',*,*,#312,.T.) ;
#331=ORIENTED_EDGE('',*,*,#324,.T.) ;
#332=ORIENTED_EDGE('',*,*,#312,.F.) ;
#333=ORIENTED_EDGE('',*,*,#329,.F.) ;
#334=ORIENTED_EDGE('',*,*,#300,.T.) ;
#371=ORIENTED_EDGE('',*,*,#350,.T.) ;
#372=ORIENTED_EDGE('',*,*,#357,.F.) ;
#373=ORIENTED_EDGE('',*,*,#364,.F.) ;
#374=ORIENTED_EDGE('',*,*,#369,.T.) ;
#388=ORIENTED_EDGE('',*,*,#381,.T.) ;
#389=ORIENTED_EDGE('',*,*,#369,.F.) ;
#390=ORIENTED_EDGE('',*,*,#386,.F.) ;
#391=ORIENTED_EDGE('',*,*,#357,.T.) ;
#400=ORIENTED_EDGE('',*,*,#267,.F.) ;
#401=ORIENTED_EDGE('',*,*,#238,.F.) ;
#402=ORIENTED_EDGE('',*,*,#207,.F.) ;
#403=ORIENTED_EDGE('',*,*,#176,.F.) ;
#404=ORIENTED_EDGE('',*,*,#145,.F.) ;
#405=ORIENTED_EDGE('',*,*,#114,.F.) ;
#406=ORIENTED_EDGE('',*,*,#83,.F.) ;
#407=ORIENTED_EDGE('',*,*,#52,.F.) ;
#410=ORIENTED_EDGE('',*,*,#329,.T.) ;
#411=ORIENTED_EDGE('',*,*,#307,.T.) ;
#414=ORIENTED_EDGE('',*,*,#386,.T.) ;
#415=ORIENTED_EDGE('',*,*,#364,.T.) ;
#424=ORIENTED_EDGE('',*,*,#64,.T.) ;
#425=ORIENTED_EDGE('',*,*,#95,.T.) ;
#426=ORIENTED_EDGE('',*,*,#126,.T.) ;
#427=ORIENTED_EDGE('',*,*,#157,.T.) ;
#428=ORIENTED_EDGE('',*,*,#188,.T.) ;
#429=ORIENTED_EDGE('',*,*,#219,.T.) ;
#430=ORIENTED_EDGE('',*,*,#250,.T.) ;
#431=ORIENTED_EDGE('',*,*,#272,.T.) ;
#434=ORIENTED_EDGE('',*,*,#293,.F.) ;
#435=ORIENTED_EDGE('',*,*,#324,.F.) ;
#438=ORIENTED_EDGE('',*,*,#350,.F.) ;
#439=ORIENTED_EDGE('',*,*,#381,.F.) ;
#412=FACE_BOUND('',#409,.T.) ;
#416=FACE_BOUND('',#413,.T.) ;
#436=FACE_BOUND('',#433,.T.) ;
#440=FACE_BOUND('',#437,.T.) ;
#31=CLOSED_SHELL('Closed Shell',(#71,#102,#133,#164,#195,#226,#257,#279,#319,#336,#376,#393,#417,#441)) ;
#442=ADVANCED_BREP_SHAPE_REPRESENTATION('NONE',(#21),#16) ;
#71=ADVANCED_FACE('Koerper.2',(#70),#36,.T.) ;
#102=ADVANCED_FACE('Koerper.2',(#101),#76,.T.) ;
#133=ADVANCED_FACE('Koerper.2',(#132),#107,.T.) ;
#164=ADVANCED_FACE('Koerper.2',(#163),#138,.T.) ;
#195=ADVANCED_FACE('Koerper.2',(#194),#169,.T.) ;
#226=ADVANCED_FACE('Koerper.2',(#225),#200,.T.) ;
#257=ADVANCED_FACE('Koerper.2',(#256),#231,.T.) ;
#279=ADVANCED_FACE('Koerper.2',(#278),#262,.T.) ;
#319=ADVANCED_FACE('Koerper.2',(#318),#284,.F.) ;
#336=ADVANCED_FACE('Koerper.2',(#335),#284,.F.) ;
#376=ADVANCED_FACE('Koerper.2',(#375),#341,.F.) ;
#393=ADVANCED_FACE('Koerper.2',(#392),#341,.F.) ;
#417=ADVANCED_FACE('Koerper.2',(#408,#412,#416),#398,.F.) ;
#441=ADVANCED_FACE('Koerper.2',(#432,#436,#440),#422,.T.) ;
#4=APPLICATION_PROTOCOL_DEFINITION('international standard','automotive_design',2001,#1) ;
#21=MANIFOLD_SOLID_BREP('Koerper.2',#31) ;
#80=CIRCLE('generated circle',#79,0.5) ;
#94=CIRCLE('generated circle',#93,0.5) ;
#111=CIRCLE('generated circle',#110,80.) ;
#125=CIRCLE('generated circle',#124,80.) ;
#142=CIRCLE('generated circle',#141,0.5) ;
#156=CIRCLE('generated circle',#155,0.5) ;
#204=CIRCLE('generated circle',#203,0.5) ;
#218=CIRCLE('generated circle',#217,0.5) ;
#235=CIRCLE('generated circle',#234,80.) ;
#249=CIRCLE('generated circle',#248,80.) ;
#266=CIRCLE('generated circle',#265,0.5) ;
#271=CIRCLE('generated circle',#270,0.5) ;
#288=CIRCLE('generated circle',#287,3.75) ;
#304=CIRCLE('generated circle',#303,3.75) ;
#323=CIRCLE('generated circle',#322,3.75) ;
#328=CIRCLE('generated circle',#327,3.75) ;
#345=CIRCLE('generated circle',#344,3.75) ;
#361=CIRCLE('generated circle',#360,3.75) ;
#380=CIRCLE('generated circle',#379,3.75) ;
#385=CIRCLE('generated circle',#384,3.75) ;
#22=COLOUR_RGB('Colour',0.823529411765,0.823529411765,1.) ;
#453=CONSTRUCTIVE_GEOMETRY_REPRESENTATION('supplemental geometry',(#447),#16) ;
#454=CONSTRUCTIVE_GEOMETRY_REPRESENTATION_RELATIONSHIP('supplemental geometry','',#19,#453) ;
#76=CYLINDRICAL_SURFACE('generated cylinder',#75,0.5) ;
#107=CYLINDRICAL_SURFACE('generated cylinder',#106,80.) ;
#138=CYLINDRICAL_SURFACE('generated cylinder',#137,0.5) ;
#200=CYLINDRICAL_SURFACE('generated cylinder',#199,0.5) ;
#231=CYLINDRICAL_SURFACE('generated cylinder',#230,80.) ;
#262=CYLINDRICAL_SURFACE('generated cylinder',#261,0.5) ;
#284=CYLINDRICAL_SURFACE('generated cylinder',#283,3.75) ;
#341=CYLINDRICAL_SURFACE('generated cylinder',#340,3.75) ;
#449=DRAUGHTING_PRE_DEFINED_COLOUR('white') ;
#448=DRAUGHTING_PRE_DEFINED_CURVE_FONT('continuous') ;
#45=EDGE_CURVE('',#42,#44,#40,.T.) ;
#52=EDGE_CURVE('',#42,#51,#49,.T.) ;
#59=EDGE_CURVE('',#51,#58,#56,.T.) ;
#64=EDGE_CURVE('',#44,#58,#63,.T.) ;
#83=EDGE_CURVE('',#51,#82,#80,.T.) ;
#90=EDGE_CURVE('',#82,#89,#87,.T.) ;
#95=EDGE_CURVE('',#58,#89,#94,.T.) ;
#114=EDGE_CURVE('',#82,#113,#111,.T.) ;
#121=EDGE_CURVE('',#113,#120,#118,.T.) ;
#126=EDGE_CURVE('',#89,#120,#125,.T.) ;
#145=EDGE_CURVE('',#113,#144,#142,.T.) ;
#152=EDGE_CURVE('',#144,#151,#149,.T.) ;
#157=EDGE_CURVE('',#120,#151,#156,.T.) ;
#176=EDGE_CURVE('',#144,#175,#173,.T.) ;
#183=EDGE_CURVE('',#175,#182,#180,.T.) ;
#188=EDGE_CURVE('',#151,#182,#187,.T.) ;
#207=EDGE_CURVE('',#175,#206,#204,.T.) ;
#214=EDGE_CURVE('',#206,#213,#211,.T.) ;
#219=EDGE_CURVE('',#182,#213,#218,.T.) ;
#238=EDGE_CURVE('',#206,#237,#235,.T.) ;
#245=EDGE_CURVE('',#237,#244,#242,.T.) ;
#250=EDGE_CURVE('',#213,#244,#249,.T.) ;
#267=EDGE_CURVE('',#237,#42,#266,.T.) ;
#272=EDGE_CURVE('',#244,#44,#271,.T.) ;
#293=EDGE_CURVE('',#290,#292,#288,.T.) ;
#300=EDGE_CURVE('',#299,#292,#297,.T.) ;
#307=EDGE_CURVE('',#306,#299,#304,.T.) ;
#312=EDGE_CURVE('',#306,#290,#311,.T.) ;
#324=EDGE_CURVE('',#292,#290,#323,.T.) ;
#329=EDGE_CURVE('',#299,#306,#328,.T.) ;
#350=EDGE_CURVE('',#347,#349,#345,.T.) ;
#357=EDGE_CURVE('',#356,#349,#354,.T.) ;
#364=EDGE_CURVE('',#363,#356,#361,.T.) ;
#369=EDGE_CURVE('',#363,#347,#368,.T.) ;
#381=EDGE_CURVE('',#349,#347,#380,.T.) ;
#386=EDGE_CURVE('',#356,#363,#385,.T.) ;
#65=EDGE_LOOP('',(#66,#67,#68,#69)) ;
#96=EDGE_LOOP('',(#97,#98,#99,#100)) ;
#127=EDGE_LOOP('',(#128,#129,#130,#131)) ;
#158=EDGE_LOOP('',(#159,#160,#161,#162)) ;
#189=EDGE_LOOP('',(#190,#191,#192,#193)) ;
#220=EDGE_LOOP('',(#221,#222,#223,#224)) ;
#251=EDGE_LOOP('',(#252,#253,#254,#255)) ;
#273=EDGE_LOOP('',(#274,#275,#276,#277)) ;
#313=EDGE_LOOP('',(#314,#315,#316,#317)) ;
#330=EDGE_LOOP('',(#331,#332,#333,#334)) ;
#370=EDGE_LOOP('',(#371,#372,#373,#374)) ;
#387=EDGE_LOOP('',(#388,#389,#390,#391)) ;
#399=EDGE_LOOP('',(#400,#401,#402,#403,#404,#405,#406,#407)) ;
#409=EDGE_LOOP('',(#410,#411)) ;
#413=EDGE_LOOP('',(#414,#415)) ;
#423=EDGE_LOOP('',(#424,#425,#426,#427,#428,#429,#430,#431)) ;
#433=EDGE_LOOP('',(#434,#435)) ;
#437=EDGE_LOOP('',(#438,#439)) ;
#70=FACE_OUTER_BOUND('',#65,.T.) ;
#101=FACE_OUTER_BOUND('',#96,.T.) ;
#132=FACE_OUTER_BOUND('',#127,.T.) ;
#163=FACE_OUTER_BOUND('',#158,.T.) ;
#194=FACE_OUTER_BOUND('',#189,.T.) ;
#225=FACE_OUTER_BOUND('',#220,.T.) ;
#256=FACE_OUTER_BOUND('',#251,.T.) ;
#278=FACE_OUTER_BOUND('',#273,.T.) ;
#318=FACE_OUTER_BOUND('',#313,.T.) ;
#335=FACE_OUTER_BOUND('',#330,.T.) ;
#375=FACE_OUTER_BOUND('',#370,.T.) ;
#392=FACE_OUTER_BOUND('',#387,.T.) ;
#408=FACE_OUTER_BOUND('',#399,.T.) ;
#432=FACE_OUTER_BOUND('',#423,.T.) ;
#40=LINE('Line',#37,#39) ;
#49=LINE('Line',#46,#48) ;
#56=LINE('Line',#53,#55) ;
#63=LINE('Line',#60,#62) ;
#87=LINE('Line',#84,#86) ;
#118=LINE('Line',#115,#117) ;
#149=LINE('Line',#146,#148) ;
#173=LINE('Line',#170,#172) ;
#180=LINE('Line',#177,#179) ;
#187=LINE('Line',#184,#186) ;
#211=LINE('Line',#208,#210) ;
#242=LINE('Line',#239,#241) ;
#297=LINE('Line',#294,#296) ;
#311=LINE('Line',#308,#310) ;
#354=LINE('Line',#351,#353) ;
#368=LINE('Line',#365,#367) ;
#36=PLANE('',#35) ;
#169=PLANE('',#168) ;
#398=PLANE('',#397) ;
#422=PLANE('',#421) ;
#9=PRODUCT_CATEGORY_RELATIONSHIP(' ',' ',#7,#8) ;
#6=PRODUCT_DEFINITION_FORMATION_WITH_SPECIFIED_SOURCE('',' ',#5,.NOT_KNOWN.) ;
#20=SHAPE_DEFINITION_REPRESENTATION(#11,#19) ;
#42=VERTEX_POINT('',#41) ;
#44=VERTEX_POINT('',#43) ;
#51=VERTEX_POINT('',#50) ;
#58=VERTEX_POINT('',#57) ;
#82=VERTEX_POINT('',#81) ;
#89=VERTEX_POINT('',#88) ;
#113=VERTEX_POINT('',#112) ;
#120=VERTEX_POINT('',#119) ;
#144=VERTEX_POINT('',#143) ;
#151=VERTEX_POINT('',#150) ;
#175=VERTEX_POINT('',#174) ;
#182=VERTEX_POINT('',#181) ;
#206=VERTEX_POINT('',#205) ;
#213=VERTEX_POINT('',#212) ;
#237=VERTEX_POINT('',#236) ;
#244=VERTEX_POINT('',#243) ;
#290=VERTEX_POINT('',#289) ;
#292=VERTEX_POINT('',#291) ;
#299=VERTEX_POINT('',#298) ;
#306=VERTEX_POINT('',#305) ;
#347=VERTEX_POINT('',#346) ;
#349=VERTEX_POINT('',#348) ;
#356=VERTEX_POINT('',#355) ;
#363=VERTEX_POINT('',#362) ;
#12=(LENGTH_UNIT()NAMED_UNIT(*)SI_UNIT(.MILLI.,.METRE.)) ;
#13=(NAMED_UNIT(*)PLANE_ANGLE_UNIT()SI_UNIT($,.RADIAN.)) ;
#14=(NAMED_UNIT(*)SI_UNIT($,.STERADIAN.)SOLID_ANGLE_UNIT()) ;
#16=(GEOMETRIC_REPRESENTATION_CONTEXT(3)GLOBAL_UNCERTAINTY_ASSIGNED_CONTEXT((#15))GLOBAL_UNIT_ASSIGNED_CONTEXT((#12,#13,#14))REPRESENTATION_CONTEXT(' ',' ')) ;
ENDSEC;
END-ISO-10303-21;
