ISO-10303-21;
HEADER;
FILE_DESCRIPTION(('CATIA V5R24 STEP','CAx-IF Rec.Pracs.--- Model Styling and Organization---1.2---2011-12-15'),'2;1');

FILE_NAME ('D1445924_0', '2017-01-06T09:21:25+00:00', ('Weidmueller Interface'), ('Weidmueller'), 'CATIA Version 5-6 Release 2014 SP4 HF52', 'CATIA V5 STEP AP214', 'none');

FILE_SCHEMA(('AUTOMOTIVE_DESIGN { 1 0 10303 214 1 1 1 1 }'));

ENDSEC;
DATA;
#5=PRODUCT('v5-standard_part','','',(#2)) ;
#2=PRODUCT_CONTEXT(' ',#1,'mechanical') ;
#1=APPLICATION_CONTEXT('automotive design') ;
#10=PRODUCT_DEFINITION('',' ',#6,#3) ;
#3=PRODUCT_DEFINITION_CONTEXT('part definition',#1,' ') ;
#11=PRODUCT_DEFINITION_SHAPE(' ',' ',#10) ;
#606=MECHANICAL_DESIGN_GEOMETRIC_PRESENTATION_REPRESENTATION(' ',(#46),#16) ;
#19=SHAPE_REPRESENTATION(' ',(#18),#16) ;
#18=AXIS2_PLACEMENT_3D(' ',#17,$,$) ;
#24=AXIS2_PLACEMENT_3D('Plane Axis2P3D',#21,#22,#23) ;
#31=AXIS2_PLACEMENT_3D('Plane Axis2P3D',#28,#29,#30) ;
#36=AXIS2_PLACEMENT_3D('Plane Axis2P3D',#33,#34,#35) ;
#52=AXIS2_PLACEMENT_3D('Plane Axis2P3D',#49,#50,#51) ;
#92=AXIS2_PLACEMENT_3D('Plane Axis2P3D',#89,#90,#91) ;
#132=AXIS2_PLACEMENT_3D('Plane Axis2P3D',#129,#130,#131) ;
#192=AXIS2_PLACEMENT_3D('Plane Axis2P3D',#189,#190,#191) ;
#252=AXIS2_PLACEMENT_3D('Plane Axis2P3D',#249,#250,#251) ;
#292=AXIS2_PLACEMENT_3D('Cylinder Axis2P3D',#289,#290,#291) ;
#296=AXIS2_PLACEMENT_3D('Circle Axis2P3D',#294,#295,$) ;
#301=AXIS2_PLACEMENT_3D('Circle Axis2P3D',#299,#300,$) ;
#314=AXIS2_PLACEMENT_3D('Cylinder Axis2P3D',#311,#312,#313) ;
#318=AXIS2_PLACEMENT_3D('Circle Axis2P3D',#316,#317,$) ;
#323=AXIS2_PLACEMENT_3D('Circle Axis2P3D',#321,#322,$) ;
#336=AXIS2_PLACEMENT_3D('Plane Axis2P3D',#333,#334,#335) ;
#348=AXIS2_PLACEMENT_3D('Plane Axis2P3D',#345,#346,#347) ;
#387=AXIS2_PLACEMENT_3D('Circle Axis2P3D',#385,#386,$) ;
#392=AXIS2_PLACEMENT_3D('Circle Axis2P3D',#390,#391,$) ;
#405=AXIS2_PLACEMENT_3D('Cylinder Axis2P3D',#402,#403,#404) ;
#409=AXIS2_PLACEMENT_3D('Circle Axis2P3D',#407,#408,$) ;
#422=AXIS2_PLACEMENT_3D('Cylinder Axis2P3D',#419,#420,#421) ;
#426=AXIS2_PLACEMENT_3D('Circle Axis2P3D',#424,#425,$) ;
#439=AXIS2_PLACEMENT_3D('Plane Axis2P3D',#436,#437,#438) ;
#493=AXIS2_PLACEMENT_3D('Plane Axis2P3D',#490,#491,#492) ;
#539=AXIS2_PLACEMENT_3D('Plane Axis2P3D',#536,#537,#538) ;
#561=AXIS2_PLACEMENT_3D('Plane Axis2P3D',#558,#559,#560) ;
#578=AXIS2_PLACEMENT_3D('Plane Axis2P3D',#575,#576,#577) ;
#595=AXIS2_PLACEMENT_3D('Plane Axis2P3D',#592,#593,#594) ;
#17=CARTESIAN_POINT(' ',(0.,0.,0.)) ;
#21=CARTESIAN_POINT('Axis2P3D Location',(0.,0.,0.)) ;
#28=CARTESIAN_POINT('Axis2P3D Location',(0.,0.,0.)) ;
#33=CARTESIAN_POINT('Axis2P3D Location',(0.,0.,0.)) ;
#49=CARTESIAN_POINT('Axis2P3D Location',(3.45,0.,0.)) ;
#54=CARTESIAN_POINT('Line Origine',(3.525,5.3625,9.)) ;
#58=CARTESIAN_POINT('Vertex',(3.6,5.45,18.)) ;
#60=CARTESIAN_POINT('Vertex',(3.45,5.275,0.)) ;
#63=CARTESIAN_POINT('Line Origine',(3.6,2.725,18.)) ;
#67=CARTESIAN_POINT('Vertex',(3.6,0.,18.)) ;
#70=CARTESIAN_POINT('Line Origine',(3.525,0.0875,9.)) ;
#74=CARTESIAN_POINT('Vertex',(3.45,0.175,0.)) ;
#77=CARTESIAN_POINT('Line Origine',(3.45,2.725,0.)) ;
#89=CARTESIAN_POINT('Axis2P3D Location',(0.15,0.,0.)) ;
#94=CARTESIAN_POINT('Line Origine',(0.075,0.0875,9.)) ;
#98=CARTESIAN_POINT('Vertex',(2.22044604925E-016,0.,18.)) ;
#100=CARTESIAN_POINT('Vertex',(0.15,0.175,0.)) ;
#103=CARTESIAN_POINT('Line Origine',(-5.55111512313E-017,2.725,18.)) ;
#107=CARTESIAN_POINT('Vertex',(2.22044604925E-016,5.45,18.)) ;
#110=CARTESIAN_POINT('Line Origine',(0.075,5.3625,9.)) ;
#114=CARTESIAN_POINT('Vertex',(0.15,5.275,0.)) ;
#117=CARTESIAN_POINT('Line Origine',(0.15,2.725,0.)) ;
#129=CARTESIAN_POINT('Axis2P3D Location',(0.,0.175,0.)) ;
#135=CARTESIAN_POINT('Control Point',(0.96133029644,0.175,4.44068223325E-016)) ;
#136=CARTESIAN_POINT('Control Point',(0.952910647633,0.160416740484,1.49999240738)) ;
#137=CARTESIAN_POINT('Control Point',(0.945309545112,0.145833436302,2.99998940892)) ;
#138=CARTESIAN_POINT('Control Point',(0.93844778087,0.131250090845,4.49999065597)) ;
#139=CARTESIAN_POINT('Control Point',(0.932274772742,0.116666723723,5.99999413133)) ;
#140=CARTESIAN_POINT('Control Point',(0.926751838175,0.102083333333,7.5)) ;
#141=CARTESIAN_POINT('Vertex',(0.96133029644,0.175,2.22044604925E-016)) ;
#143=CARTESIAN_POINT('Vertex',(0.926751838176,0.102083333333,7.5)) ;
#146=CARTESIAN_POINT('Line Origine',(1.8,0.102083333333,7.5)) ;
#150=CARTESIAN_POINT('Vertex',(2.67324816182,0.102083333333,7.5)) ;
#154=CARTESIAN_POINT('Control Point',(2.63866970356,0.175,0.)) ;
#155=CARTESIAN_POINT('Control Point',(2.64708935237,0.160416740484,1.49999240738)) ;
#156=CARTESIAN_POINT('Control Point',(2.65469045489,0.145833436302,2.99998940892)) ;
#157=CARTESIAN_POINT('Control Point',(2.66155221913,0.131250090845,4.49999065596)) ;
#158=CARTESIAN_POINT('Control Point',(2.66772522726,0.116666723723,5.99999413133)) ;
#159=CARTESIAN_POINT('Control Point',(2.67324816182,0.102083333333,7.5)) ;
#160=CARTESIAN_POINT('Vertex',(2.63866970356,0.175,2.22044604925E-016)) ;
#163=CARTESIAN_POINT('Line Origine',(3.04433485178,0.175,0.)) ;
#168=CARTESIAN_POINT('Line Origine',(1.8,1.52655665886E-015,18.)) ;
#173=CARTESIAN_POINT('Line Origine',(0.55566514822,0.175,0.)) ;
#189=CARTESIAN_POINT('Axis2P3D Location',(0.,5.275,0.)) ;
#194=CARTESIAN_POINT('Line Origine',(0.55566514822,5.275,0.)) ;
#198=CARTESIAN_POINT('Vertex',(0.96133029644,5.275,2.22044604925E-016)) ;
#201=CARTESIAN_POINT('Line Origine',(1.8,5.45,18.)) ;
#206=CARTESIAN_POINT('Line Origine',(3.04433485178,5.275,0.)) ;
#210=CARTESIAN_POINT('Vertex',(2.63866970356,5.275,2.22044604925E-016)) ;
#214=CARTESIAN_POINT('Control Point',(2.63866970356,5.275,4.44068223325E-016)) ;
#215=CARTESIAN_POINT('Control Point',(2.64708935237,5.28958325952,1.49999240738)) ;
#216=CARTESIAN_POINT('Control Point',(2.65469045489,5.3041665637,2.99998940892)) ;
#217=CARTESIAN_POINT('Control Point',(2.66155221913,5.31874990916,4.49999065597)) ;
#218=CARTESIAN_POINT('Control Point',(2.66772522726,5.33333327628,5.99999413133)) ;
#219=CARTESIAN_POINT('Control Point',(2.67324816182,5.34791666667,7.5)) ;
#220=CARTESIAN_POINT('Vertex',(2.67324816182,5.34791666667,7.5)) ;
#223=CARTESIAN_POINT('Line Origine',(1.8,5.34791666667,7.5)) ;
#227=CARTESIAN_POINT('Vertex',(0.926751838176,5.34791666667,7.5)) ;
#231=CARTESIAN_POINT('Control Point',(0.96133029644,5.275,0.)) ;
#232=CARTESIAN_POINT('Control Point',(0.952910647633,5.28958325952,1.49999240738)) ;
#233=CARTESIAN_POINT('Control Point',(0.945309545112,5.3041665637,2.99998940892)) ;
#234=CARTESIAN_POINT('Control Point',(0.93844778087,5.31874990916,4.49999065596)) ;
#235=CARTESIAN_POINT('Control Point',(0.932274772742,5.33333327628,5.99999413133)) ;
#236=CARTESIAN_POINT('Control Point',(0.926751838175,5.34791666667,7.5)) ;
#249=CARTESIAN_POINT('Axis2P3D Location',(2.20565700167,5.025,2.22044604925E-016)) ;
#254=CARTESIAN_POINT('Line Origine',(2.20565700167,5.025,3.75)) ;
#258=CARTESIAN_POINT('Vertex',(2.20565700167,5.025,2.22044604925E-016)) ;
#260=CARTESIAN_POINT('Vertex',(2.20565700167,5.025,7.5)) ;
#263=CARTESIAN_POINT('Line Origine',(1.8,5.025,2.22044604925E-016)) ;
#267=CARTESIAN_POINT('Vertex',(1.39434299833,5.025,0.)) ;
#270=CARTESIAN_POINT('Line Origine',(1.39434299833,5.025,3.75)) ;
#274=CARTESIAN_POINT('Vertex',(1.39434299833,5.025,7.5)) ;
#277=CARTESIAN_POINT('Line Origine',(1.8,5.025,7.5)) ;
#289=CARTESIAN_POINT('Axis2P3D Location',(2.20565700167,5.525,3.75)) ;
#294=CARTESIAN_POINT('Axis2P3D Location',(2.20565700167,5.525,0.)) ;
#299=CARTESIAN_POINT('Axis2P3D Location',(2.20565700167,5.525,7.5)) ;
#311=CARTESIAN_POINT('Axis2P3D Location',(1.39434299833,5.525,3.75)) ;
#316=CARTESIAN_POINT('Axis2P3D Location',(1.39434299833,5.525,7.5)) ;
#321=CARTESIAN_POINT('Axis2P3D Location',(1.39434299833,5.525,0.)) ;
#333=CARTESIAN_POINT('Axis2P3D Location',(0.,0.,7.5)) ;
#345=CARTESIAN_POINT('Axis2P3D Location',(2.20565700167,0.425,2.22044604925E-016)) ;
#350=CARTESIAN_POINT('Line Origine',(1.39434299833,0.425,3.75)) ;
#354=CARTESIAN_POINT('Vertex',(1.39434299833,0.425,2.22044604925E-016)) ;
#356=CARTESIAN_POINT('Vertex',(1.39434299833,0.425,7.5)) ;
#359=CARTESIAN_POINT('Line Origine',(1.8,0.425,2.22044604925E-016)) ;
#363=CARTESIAN_POINT('Vertex',(2.20565700167,0.425,0.)) ;
#366=CARTESIAN_POINT('Line Origine',(2.20565700167,0.425,3.75)) ;
#370=CARTESIAN_POINT('Vertex',(2.20565700167,0.425,7.5)) ;
#373=CARTESIAN_POINT('Line Origine',(1.8,0.425,7.5)) ;
#385=CARTESIAN_POINT('Axis2P3D Location',(1.39434299833,-0.075,7.5)) ;
#390=CARTESIAN_POINT('Axis2P3D Location',(2.20565700167,-0.075,7.5)) ;
#402=CARTESIAN_POINT('Axis2P3D Location',(2.20565700167,-0.075,3.75)) ;
#407=CARTESIAN_POINT('Axis2P3D Location',(2.20565700167,-0.075,0.)) ;
#419=CARTESIAN_POINT('Axis2P3D Location',(1.39434299833,-0.075,3.75)) ;
#424=CARTESIAN_POINT('Axis2P3D Location',(1.39434299833,-0.075,0.)) ;
#436=CARTESIAN_POINT('Axis2P3D Location',(0.,0.175,2.22044604925E-016)) ;
#455=CARTESIAN_POINT('Line Origine',(3.05,2.725,2.22044604925E-016)) ;
#459=CARTESIAN_POINT('Vertex',(3.05,0.775,0.)) ;
#461=CARTESIAN_POINT('Vertex',(3.05,4.675,0.)) ;
#464=CARTESIAN_POINT('Line Origine',(1.8,4.675,2.22044604925E-016)) ;
#468=CARTESIAN_POINT('Vertex',(0.55,4.675,2.22044604925E-016)) ;
#471=CARTESIAN_POINT('Line Origine',(0.55,2.725,2.22044604925E-016)) ;
#475=CARTESIAN_POINT('Vertex',(0.55,0.775,0.)) ;
#478=CARTESIAN_POINT('Line Origine',(1.8,0.775,2.22044604925E-016)) ;
#490=CARTESIAN_POINT('Axis2P3D Location',(0.,-1.59371774275E-014,18.)) ;
#501=CARTESIAN_POINT('Line Origine',(3.05,2.725,18.)) ;
#505=CARTESIAN_POINT('Vertex',(3.05,4.675,18.)) ;
#507=CARTESIAN_POINT('Vertex',(3.05,0.775,18.)) ;
#510=CARTESIAN_POINT('Line Origine',(1.8,0.775,18.)) ;
#514=CARTESIAN_POINT('Vertex',(0.55,0.775,18.)) ;
#517=CARTESIAN_POINT('Line Origine',(0.55,2.725,18.)) ;
#521=CARTESIAN_POINT('Vertex',(0.55,4.675,18.)) ;
#524=CARTESIAN_POINT('Line Origine',(1.8,4.675,18.)) ;
#536=CARTESIAN_POINT('Axis2P3D Location',(1.8,0.775,18.)) ;
#541=CARTESIAN_POINT('Line Origine',(3.05,0.775,9.)) ;
#546=CARTESIAN_POINT('Line Origine',(0.55,0.775,9.)) ;
#558=CARTESIAN_POINT('Axis2P3D Location',(3.05,0.,0.)) ;
#563=CARTESIAN_POINT('Line Origine',(3.05,4.675,9.)) ;
#575=CARTESIAN_POINT('Axis2P3D Location',(0.55,0.,0.)) ;
#580=CARTESIAN_POINT('Line Origine',(0.55,4.675,9.)) ;
#592=CARTESIAN_POINT('Axis2P3D Location',(1.8,4.675,0.)) ;
#22=DIRECTION('Axis2P3D Direction',(0.,0.,1.)) ;
#23=DIRECTION('Axis2P3D XDirection',(1.,0.,0.)) ;
#29=DIRECTION('Axis2P3D Direction',(1.,0.,0.)) ;
#30=DIRECTION('Axis2P3D XDirection',(0.,1.,0.)) ;
#34=DIRECTION('Axis2P3D Direction',(0.,1.,0.)) ;
#35=DIRECTION('Axis2P3D XDirection',(0.,0.,1.)) ;
#50=DIRECTION('Axis2P3D Direction',(-0.999965279586,0.,0.00833304399655)) ;
#51=DIRECTION('Axis2P3D XDirection',(0.00833304399655,-0.,0.999965279586)) ;
#55=DIRECTION('Vector Direction',(-0.00833265022546,-0.00972142526304,-0.999918027056)) ;
#64=DIRECTION('Vector Direction',(0.,1.,0.)) ;
#71=DIRECTION('Vector Direction',(-0.00833265022546,0.00972142526304,-0.999918027056)) ;
#78=DIRECTION('Vector Direction',(0.,1.,0.)) ;
#90=DIRECTION('Axis2P3D Direction',(-0.999965279586,0.,-0.00833304399655)) ;
#91=DIRECTION('Axis2P3D XDirection',(-0.00833304399655,0.,0.999965279586)) ;
#95=DIRECTION('Vector Direction',(0.00833265022546,0.00972142526304,-0.999918027056)) ;
#104=DIRECTION('Vector Direction',(0.,1.,0.)) ;
#111=DIRECTION('Vector Direction',(0.00833265022546,-0.00972142526304,-0.999918027056)) ;
#118=DIRECTION('Vector Direction',(0.,1.,0.)) ;
#130=DIRECTION('Axis2P3D Direction',(-0.,0.999952742548,0.00972176277477)) ;
#131=DIRECTION('Axis2P3D XDirection',(0.,-0.00972176277477,0.999952742548)) ;
#147=DIRECTION('Vector Direction',(1.,0.,0.)) ;
#164=DIRECTION('Vector Direction',(1.,0.,0.)) ;
#169=DIRECTION('Vector Direction',(1.,0.,0.)) ;
#174=DIRECTION('Vector Direction',(1.,0.,0.)) ;
#190=DIRECTION('Axis2P3D Direction',(0.,0.999952742548,-0.00972176277477)) ;
#191=DIRECTION('Axis2P3D XDirection',(0.,0.00972176277477,0.999952742548)) ;
#195=DIRECTION('Vector Direction',(1.,0.,0.)) ;
#202=DIRECTION('Vector Direction',(1.,0.,0.)) ;
#207=DIRECTION('Vector Direction',(1.,0.,0.)) ;
#224=DIRECTION('Vector Direction',(1.,0.,0.)) ;
#250=DIRECTION('Axis2P3D Direction',(-0.,1.,0.)) ;
#251=DIRECTION('Axis2P3D XDirection',(-1.,-0.,0.)) ;
#255=DIRECTION('Vector Direction',(0.,0.,1.)) ;
#264=DIRECTION('Vector Direction',(-1.,0.,0.)) ;
#271=DIRECTION('Vector Direction',(0.,0.,1.)) ;
#278=DIRECTION('Vector Direction',(-1.,0.,0.)) ;
#290=DIRECTION('Axis2P3D Direction',(0.,0.,-1.)) ;
#291=DIRECTION('Axis2P3D XDirection',(0.988685996664,-0.15,0.)) ;
#295=DIRECTION('Axis2P3D Direction',(0.,0.,-1.)) ;
#300=DIRECTION('Axis2P3D Direction',(0.,0.,-1.)) ;
#312=DIRECTION('Axis2P3D Direction',(0.,0.,-1.)) ;
#313=DIRECTION('Axis2P3D XDirection',(6.12323399574E-017,-1.,0.)) ;
#317=DIRECTION('Axis2P3D Direction',(0.,0.,-1.)) ;
#322=DIRECTION('Axis2P3D Direction',(0.,0.,-1.)) ;
#334=DIRECTION('Axis2P3D Direction',(0.,0.,-1.)) ;
#335=DIRECTION('Axis2P3D XDirection',(1.,0.,0.)) ;
#346=DIRECTION('Axis2P3D Direction',(-0.,1.,0.)) ;
#347=DIRECTION('Axis2P3D XDirection',(-1.,-0.,0.)) ;
#351=DIRECTION('Vector Direction',(0.,0.,1.)) ;
#360=DIRECTION('Vector Direction',(-1.,0.,0.)) ;
#367=DIRECTION('Vector Direction',(0.,0.,1.)) ;
#374=DIRECTION('Vector Direction',(-1.,0.,0.)) ;
#386=DIRECTION('Axis2P3D Direction',(0.,0.,-1.)) ;
#391=DIRECTION('Axis2P3D Direction',(0.,0.,-1.)) ;
#403=DIRECTION('Axis2P3D Direction',(0.,0.,-1.)) ;
#404=DIRECTION('Axis2P3D XDirection',(-1.83697019872E-016,1.,-0.)) ;
#408=DIRECTION('Axis2P3D Direction',(0.,0.,-1.)) ;
#420=DIRECTION('Axis2P3D Direction',(0.,0.,-1.)) ;
#421=DIRECTION('Axis2P3D XDirection',(-0.988685996664,0.15,-0.)) ;
#425=DIRECTION('Axis2P3D Direction',(0.,0.,-1.)) ;
#437=DIRECTION('Axis2P3D Direction',(0.,0.,-1.)) ;
#438=DIRECTION('Axis2P3D XDirection',(0.,1.,0.)) ;
#456=DIRECTION('Vector Direction',(0.,-1.,0.)) ;
#465=DIRECTION('Vector Direction',(-1.,0.,0.)) ;
#472=DIRECTION('Vector Direction',(0.,-1.,0.)) ;
#479=DIRECTION('Vector Direction',(-1.,0.,0.)) ;
#491=DIRECTION('Axis2P3D Direction',(0.,0.,-1.)) ;
#492=DIRECTION('Axis2P3D XDirection',(0.,1.,0.)) ;
#502=DIRECTION('Vector Direction',(0.,1.,0.)) ;
#511=DIRECTION('Vector Direction',(-1.,0.,0.)) ;
#518=DIRECTION('Vector Direction',(0.,1.,0.)) ;
#525=DIRECTION('Vector Direction',(-1.,0.,0.)) ;
#537=DIRECTION('Axis2P3D Direction',(0.,1.,0.)) ;
#538=DIRECTION('Axis2P3D XDirection',(0.,0.,-1.)) ;
#542=DIRECTION('Vector Direction',(0.,0.,-1.)) ;
#547=DIRECTION('Vector Direction',(0.,0.,-1.)) ;
#559=DIRECTION('Axis2P3D Direction',(1.,0.,0.)) ;
#560=DIRECTION('Axis2P3D XDirection',(0.,1.,0.)) ;
#564=DIRECTION('Vector Direction',(0.,0.,1.)) ;
#576=DIRECTION('Axis2P3D Direction',(1.,0.,0.)) ;
#577=DIRECTION('Axis2P3D XDirection',(0.,1.,0.)) ;
#581=DIRECTION('Vector Direction',(0.,0.,1.)) ;
#593=DIRECTION('Axis2P3D Direction',(0.,-1.,0.)) ;
#594=DIRECTION('Axis2P3D XDirection',(0.,0.,1.)) ;
#47=PRESENTATION_LAYER_ASSIGNMENT('1',' ',(#38)) ;
#8=PRODUCT_RELATED_PRODUCT_CATEGORY('part',$,(#5)) ;
#7=PRODUCT_CATEGORY('part','specification') ;
#46=STYLED_ITEM(' ',(#45),#38) ;
#45=PRESENTATION_STYLE_ASSIGNMENT((#44)) ;
#44=SURFACE_STYLE_USAGE(.BOTH.,#43) ;
#43=SURFACE_SIDE_STYLE(' ',(#42)) ;
#42=SURFACE_STYLE_FILL_AREA(#41) ;
#41=FILL_AREA_STYLE(' ',(#40)) ;
#40=FILL_AREA_STYLE_COLOUR(' ',#39) ;
#56=VECTOR('Line Direction',#55,1.) ;
#65=VECTOR('Line Direction',#64,1.) ;
#72=VECTOR('Line Direction',#71,1.) ;
#79=VECTOR('Line Direction',#78,1.) ;
#96=VECTOR('Line Direction',#95,1.) ;
#105=VECTOR('Line Direction',#104,1.) ;
#112=VECTOR('Line Direction',#111,1.) ;
#119=VECTOR('Line Direction',#118,1.) ;
#148=VECTOR('Line Direction',#147,1.) ;
#165=VECTOR('Line Direction',#164,1.) ;
#170=VECTOR('Line Direction',#169,1.) ;
#175=VECTOR('Line Direction',#174,1.) ;
#196=VECTOR('Line Direction',#195,1.) ;
#203=VECTOR('Line Direction',#202,1.) ;
#208=VECTOR('Line Direction',#207,1.) ;
#225=VECTOR('Line Direction',#224,1.) ;
#256=VECTOR('Line Direction',#255,1.) ;
#265=VECTOR('Line Direction',#264,1.) ;
#272=VECTOR('Line Direction',#271,1.) ;
#279=VECTOR('Line Direction',#278,1.) ;
#352=VECTOR('Line Direction',#351,1.) ;
#361=VECTOR('Line Direction',#360,1.) ;
#368=VECTOR('Line Direction',#367,1.) ;
#375=VECTOR('Line Direction',#374,1.) ;
#457=VECTOR('Line Direction',#456,1.) ;
#466=VECTOR('Line Direction',#465,1.) ;
#473=VECTOR('Line Direction',#472,1.) ;
#480=VECTOR('Line Direction',#479,1.) ;
#503=VECTOR('Line Direction',#502,1.) ;
#512=VECTOR('Line Direction',#511,1.) ;
#519=VECTOR('Line Direction',#518,1.) ;
#526=VECTOR('Line Direction',#525,1.) ;
#543=VECTOR('Line Direction',#542,1.) ;
#548=VECTOR('Line Direction',#547,1.) ;
#565=VECTOR('Line Direction',#564,1.) ;
#582=VECTOR('Line Direction',#581,1.) ;
#15=UNCERTAINTY_MEASURE_WITH_UNIT(LENGTH_MEASURE(0.005),#12,'distance_accuracy_value','CONFUSED CURVE UNCERTAINTY') ;
#605=SHAPE_REPRESENTATION_RELATIONSHIP(' ',' ',#19,#604) ;
#83=ORIENTED_EDGE('',*,*,#62,.F.) ;
#84=ORIENTED_EDGE('',*,*,#69,.T.) ;
#85=ORIENTED_EDGE('',*,*,#76,.T.) ;
#86=ORIENTED_EDGE('',*,*,#81,.T.) ;
#123=ORIENTED_EDGE('',*,*,#102,.F.) ;
#124=ORIENTED_EDGE('',*,*,#109,.F.) ;
#125=ORIENTED_EDGE('',*,*,#116,.T.) ;
#126=ORIENTED_EDGE('',*,*,#121,.F.) ;
#179=ORIENTED_EDGE('',*,*,#145,.T.) ;
#180=ORIENTED_EDGE('',*,*,#152,.T.) ;
#181=ORIENTED_EDGE('',*,*,#162,.F.) ;
#182=ORIENTED_EDGE('',*,*,#167,.T.) ;
#183=ORIENTED_EDGE('',*,*,#76,.F.) ;
#184=ORIENTED_EDGE('',*,*,#172,.F.) ;
#185=ORIENTED_EDGE('',*,*,#102,.T.) ;
#186=ORIENTED_EDGE('',*,*,#177,.T.) ;
#239=ORIENTED_EDGE('',*,*,#200,.F.) ;
#240=ORIENTED_EDGE('',*,*,#116,.F.) ;
#241=ORIENTED_EDGE('',*,*,#205,.T.) ;
#242=ORIENTED_EDGE('',*,*,#62,.T.) ;
#243=ORIENTED_EDGE('',*,*,#212,.F.) ;
#244=ORIENTED_EDGE('',*,*,#222,.T.) ;
#245=ORIENTED_EDGE('',*,*,#229,.F.) ;
#246=ORIENTED_EDGE('',*,*,#237,.F.) ;
#283=ORIENTED_EDGE('',*,*,#262,.F.) ;
#284=ORIENTED_EDGE('',*,*,#269,.T.) ;
#285=ORIENTED_EDGE('',*,*,#276,.T.) ;
#286=ORIENTED_EDGE('',*,*,#281,.F.) ;
#305=ORIENTED_EDGE('',*,*,#222,.F.) ;
#306=ORIENTED_EDGE('',*,*,#298,.T.) ;
#307=ORIENTED_EDGE('',*,*,#262,.T.) ;
#308=ORIENTED_EDGE('',*,*,#303,.F.) ;
#327=ORIENTED_EDGE('',*,*,#237,.T.) ;
#328=ORIENTED_EDGE('',*,*,#320,.F.) ;
#329=ORIENTED_EDGE('',*,*,#276,.F.) ;
#330=ORIENTED_EDGE('',*,*,#325,.T.) ;
#339=ORIENTED_EDGE('',*,*,#303,.T.) ;
#340=ORIENTED_EDGE('',*,*,#281,.T.) ;
#341=ORIENTED_EDGE('',*,*,#320,.T.) ;
#342=ORIENTED_EDGE('',*,*,#229,.T.) ;
#379=ORIENTED_EDGE('',*,*,#358,.F.) ;
#380=ORIENTED_EDGE('',*,*,#365,.T.) ;
#381=ORIENTED_EDGE('',*,*,#372,.T.) ;
#382=ORIENTED_EDGE('',*,*,#377,.F.) ;
#396=ORIENTED_EDGE('',*,*,#389,.T.) ;
#397=ORIENTED_EDGE('',*,*,#377,.T.) ;
#398=ORIENTED_EDGE('',*,*,#394,.T.) ;
#399=ORIENTED_EDGE('',*,*,#152,.F.) ;
#413=ORIENTED_EDGE('',*,*,#162,.T.) ;
#414=ORIENTED_EDGE('',*,*,#394,.F.) ;
#415=ORIENTED_EDGE('',*,*,#372,.F.) ;
#416=ORIENTED_EDGE('',*,*,#411,.T.) ;
#430=ORIENTED_EDGE('',*,*,#145,.F.) ;
#431=ORIENTED_EDGE('',*,*,#428,.T.) ;
#432=ORIENTED_EDGE('',*,*,#358,.T.) ;
#433=ORIENTED_EDGE('',*,*,#389,.F.) ;
#442=ORIENTED_EDGE('',*,*,#177,.F.) ;
#443=ORIENTED_EDGE('',*,*,#121,.T.) ;
#444=ORIENTED_EDGE('',*,*,#200,.T.) ;
#445=ORIENTED_EDGE('',*,*,#325,.F.) ;
#446=ORIENTED_EDGE('',*,*,#269,.F.) ;
#447=ORIENTED_EDGE('',*,*,#298,.F.) ;
#448=ORIENTED_EDGE('',*,*,#212,.T.) ;
#449=ORIENTED_EDGE('',*,*,#81,.F.) ;
#450=ORIENTED_EDGE('',*,*,#167,.F.) ;
#451=ORIENTED_EDGE('',*,*,#411,.F.) ;
#452=ORIENTED_EDGE('',*,*,#365,.F.) ;
#453=ORIENTED_EDGE('',*,*,#428,.F.) ;
#484=ORIENTED_EDGE('',*,*,#463,.T.) ;
#485=ORIENTED_EDGE('',*,*,#470,.T.) ;
#486=ORIENTED_EDGE('',*,*,#477,.F.) ;
#487=ORIENTED_EDGE('',*,*,#482,.F.) ;
#496=ORIENTED_EDGE('',*,*,#109,.T.) ;
#497=ORIENTED_EDGE('',*,*,#172,.T.) ;
#498=ORIENTED_EDGE('',*,*,#69,.F.) ;
#499=ORIENTED_EDGE('',*,*,#205,.F.) ;
#530=ORIENTED_EDGE('',*,*,#509,.T.) ;
#531=ORIENTED_EDGE('',*,*,#516,.T.) ;
#532=ORIENTED_EDGE('',*,*,#523,.F.) ;
#533=ORIENTED_EDGE('',*,*,#528,.F.) ;
#552=ORIENTED_EDGE('',*,*,#516,.F.) ;
#553=ORIENTED_EDGE('',*,*,#545,.T.) ;
#554=ORIENTED_EDGE('',*,*,#482,.T.) ;
#555=ORIENTED_EDGE('',*,*,#550,.F.) ;
#569=ORIENTED_EDGE('',*,*,#509,.F.) ;
#570=ORIENTED_EDGE('',*,*,#567,.F.) ;
#571=ORIENTED_EDGE('',*,*,#463,.F.) ;
#572=ORIENTED_EDGE('',*,*,#545,.F.) ;
#586=ORIENTED_EDGE('',*,*,#550,.T.) ;
#587=ORIENTED_EDGE('',*,*,#477,.T.) ;
#588=ORIENTED_EDGE('',*,*,#584,.T.) ;
#589=ORIENTED_EDGE('',*,*,#523,.T.) ;
#598=ORIENTED_EDGE('',*,*,#470,.F.) ;
#599=ORIENTED_EDGE('',*,*,#567,.T.) ;
#600=ORIENTED_EDGE('',*,*,#528,.T.) ;
#601=ORIENTED_EDGE('',*,*,#584,.F.) ;
#488=FACE_BOUND('',#483,.T.) ;
#534=FACE_BOUND('',#529,.T.) ;
#48=CLOSED_SHELL('Closed Shell',(#88,#128,#188,#248,#288,#310,#332,#344,#384,#401,#418,#435,#489,#535,#557,#574,#591,#603)) ;
#604=ADVANCED_BREP_SHAPE_REPRESENTATION('NONE',(#38),#16) ;
#88=ADVANCED_FACE('V1',(#87),#53,.F.) ;
#128=ADVANCED_FACE('V1',(#127),#93,.T.) ;
#188=ADVANCED_FACE('V1',(#187),#133,.F.) ;
#248=ADVANCED_FACE('V1',(#247),#193,.T.) ;
#288=ADVANCED_FACE('V1',(#287),#253,.T.) ;
#310=ADVANCED_FACE('V1',(#309),#293,.F.) ;
#332=ADVANCED_FACE('V1',(#331),#315,.F.) ;
#344=ADVANCED_FACE('V1',(#343),#337,.T.) ;
#384=ADVANCED_FACE('V1',(#383),#349,.F.) ;
#401=ADVANCED_FACE('V1',(#400),#337,.T.) ;
#418=ADVANCED_FACE('V1',(#417),#406,.F.) ;
#435=ADVANCED_FACE('V1',(#434),#423,.F.) ;
#489=ADVANCED_FACE('V1',(#454,#488),#440,.T.) ;
#535=ADVANCED_FACE('V1',(#500,#534),#494,.F.) ;
#557=ADVANCED_FACE('V1',(#556),#540,.T.) ;
#574=ADVANCED_FACE('V1',(#573),#562,.F.) ;
#591=ADVANCED_FACE('V1',(#590),#579,.T.) ;
#603=ADVANCED_FACE('V1',(#602),#596,.T.) ;
#4=APPLICATION_PROTOCOL_DEFINITION('international standard','automotive_design',2001,#1) ;
#134=B_SPLINE_CURVE_WITH_KNOTS('',5,(#135,#136,#137,#138,#139,#140),.UNSPECIFIED.,.F.,.U.,(6,6),(0.,10.6072163741),.UNSPECIFIED.) ;
#153=B_SPLINE_CURVE_WITH_KNOTS('',5,(#154,#155,#156,#157,#158,#159),.UNSPECIFIED.,.F.,.U.,(6,6),(0.,10.6072163741),.UNSPECIFIED.) ;
#213=B_SPLINE_CURVE_WITH_KNOTS('',5,(#214,#215,#216,#217,#218,#219),.UNSPECIFIED.,.F.,.U.,(6,6),(0.,10.6072163741),.UNSPECIFIED.) ;
#230=B_SPLINE_CURVE_WITH_KNOTS('',5,(#231,#232,#233,#234,#235,#236),.UNSPECIFIED.,.F.,.U.,(6,6),(0.,10.6072163741),.UNSPECIFIED.) ;
#38=MANIFOLD_SOLID_BREP('V1',#48) ;
#297=CIRCLE('generated circle',#296,0.5) ;
#302=CIRCLE('generated circle',#301,0.5) ;
#319=CIRCLE('generated circle',#318,0.5) ;
#324=CIRCLE('generated circle',#323,0.5) ;
#388=CIRCLE('generated circle',#387,0.5) ;
#393=CIRCLE('generated circle',#392,0.5) ;
#410=CIRCLE('generated circle',#409,0.5) ;
#427=CIRCLE('generated circle',#426,0.5) ;
#39=COLOUR_RGB('Colour',0.686274509804,0.549019607843,0.533333333333) ;
#26=CONSTRUCTIVE_GEOMETRY_REPRESENTATION('supplemental geometry',(#25,#32,#37),#16) ;
#27=CONSTRUCTIVE_GEOMETRY_REPRESENTATION_RELATIONSHIP('supplemental geometry','',#19,#26) ;
#293=CYLINDRICAL_SURFACE('generated cylinder',#292,0.5) ;
#315=CYLINDRICAL_SURFACE('generated cylinder',#314,0.5) ;
#406=CYLINDRICAL_SURFACE('generated cylinder',#405,0.5) ;
#423=CYLINDRICAL_SURFACE('generated cylinder',#422,0.5) ;
#62=EDGE_CURVE('',#59,#61,#57,.T.) ;
#69=EDGE_CURVE('',#59,#68,#66,.F.) ;
#76=EDGE_CURVE('',#68,#75,#73,.T.) ;
#81=EDGE_CURVE('',#75,#61,#80,.T.) ;
#102=EDGE_CURVE('',#99,#101,#97,.T.) ;
#109=EDGE_CURVE('',#108,#99,#106,.F.) ;
#116=EDGE_CURVE('',#108,#115,#113,.T.) ;
#121=EDGE_CURVE('',#101,#115,#120,.T.) ;
#145=EDGE_CURVE('',#142,#144,#134,.T.) ;
#152=EDGE_CURVE('',#144,#151,#149,.T.) ;
#162=EDGE_CURVE('',#161,#151,#153,.T.) ;
#167=EDGE_CURVE('',#161,#75,#166,.T.) ;
#172=EDGE_CURVE('',#99,#68,#171,.T.) ;
#177=EDGE_CURVE('',#101,#142,#176,.T.) ;
#200=EDGE_CURVE('',#115,#199,#197,.T.) ;
#205=EDGE_CURVE('',#108,#59,#204,.T.) ;
#212=EDGE_CURVE('',#211,#61,#209,.T.) ;
#222=EDGE_CURVE('',#211,#221,#213,.T.) ;
#229=EDGE_CURVE('',#228,#221,#226,.T.) ;
#237=EDGE_CURVE('',#199,#228,#230,.T.) ;
#262=EDGE_CURVE('',#259,#261,#257,.T.) ;
#269=EDGE_CURVE('',#259,#268,#266,.T.) ;
#276=EDGE_CURVE('',#268,#275,#273,.T.) ;
#281=EDGE_CURVE('',#261,#275,#280,.T.) ;
#298=EDGE_CURVE('',#211,#259,#297,.T.) ;
#303=EDGE_CURVE('',#221,#261,#302,.T.) ;
#320=EDGE_CURVE('',#275,#228,#319,.T.) ;
#325=EDGE_CURVE('',#268,#199,#324,.T.) ;
#358=EDGE_CURVE('',#355,#357,#353,.T.) ;
#365=EDGE_CURVE('',#355,#364,#362,.F.) ;
#372=EDGE_CURVE('',#364,#371,#369,.T.) ;
#377=EDGE_CURVE('',#357,#371,#376,.F.) ;
#389=EDGE_CURVE('',#144,#357,#388,.T.) ;
#394=EDGE_CURVE('',#371,#151,#393,.T.) ;
#411=EDGE_CURVE('',#364,#161,#410,.T.) ;
#428=EDGE_CURVE('',#142,#355,#427,.T.) ;
#463=EDGE_CURVE('',#460,#462,#458,.F.) ;
#470=EDGE_CURVE('',#462,#469,#467,.T.) ;
#477=EDGE_CURVE('',#476,#469,#474,.F.) ;
#482=EDGE_CURVE('',#460,#476,#481,.T.) ;
#509=EDGE_CURVE('',#506,#508,#504,.F.) ;
#516=EDGE_CURVE('',#508,#515,#513,.T.) ;
#523=EDGE_CURVE('',#522,#515,#520,.F.) ;
#528=EDGE_CURVE('',#506,#522,#527,.T.) ;
#545=EDGE_CURVE('',#508,#460,#544,.T.) ;
#550=EDGE_CURVE('',#515,#476,#549,.T.) ;
#567=EDGE_CURVE('',#462,#506,#566,.T.) ;
#584=EDGE_CURVE('',#469,#522,#583,.T.) ;
#82=EDGE_LOOP('',(#83,#84,#85,#86)) ;
#122=EDGE_LOOP('',(#123,#124,#125,#126)) ;
#178=EDGE_LOOP('',(#179,#180,#181,#182,#183,#184,#185,#186)) ;
#238=EDGE_LOOP('',(#239,#240,#241,#242,#243,#244,#245,#246)) ;
#282=EDGE_LOOP('',(#283,#284,#285,#286)) ;
#304=EDGE_LOOP('',(#305,#306,#307,#308)) ;
#326=EDGE_LOOP('',(#327,#328,#329,#330)) ;
#338=EDGE_LOOP('',(#339,#340,#341,#342)) ;
#378=EDGE_LOOP('',(#379,#380,#381,#382)) ;
#395=EDGE_LOOP('',(#396,#397,#398,#399)) ;
#412=EDGE_LOOP('',(#413,#414,#415,#416)) ;
#429=EDGE_LOOP('',(#430,#431,#432,#433)) ;
#441=EDGE_LOOP('',(#442,#443,#444,#445,#446,#447,#448,#449,#450,#451,#452,#453)) ;
#483=EDGE_LOOP('',(#484,#485,#486,#487)) ;
#495=EDGE_LOOP('',(#496,#497,#498,#499)) ;
#529=EDGE_LOOP('',(#530,#531,#532,#533)) ;
#551=EDGE_LOOP('',(#552,#553,#554,#555)) ;
#568=EDGE_LOOP('',(#569,#570,#571,#572)) ;
#585=EDGE_LOOP('',(#586,#587,#588,#589)) ;
#597=EDGE_LOOP('',(#598,#599,#600,#601)) ;
#87=FACE_OUTER_BOUND('',#82,.T.) ;
#127=FACE_OUTER_BOUND('',#122,.T.) ;
#187=FACE_OUTER_BOUND('',#178,.T.) ;
#247=FACE_OUTER_BOUND('',#238,.T.) ;
#287=FACE_OUTER_BOUND('',#282,.T.) ;
#309=FACE_OUTER_BOUND('',#304,.T.) ;
#331=FACE_OUTER_BOUND('',#326,.T.) ;
#343=FACE_OUTER_BOUND('',#338,.T.) ;
#383=FACE_OUTER_BOUND('',#378,.T.) ;
#400=FACE_OUTER_BOUND('',#395,.T.) ;
#417=FACE_OUTER_BOUND('',#412,.T.) ;
#434=FACE_OUTER_BOUND('',#429,.T.) ;
#454=FACE_OUTER_BOUND('',#441,.T.) ;
#500=FACE_OUTER_BOUND('',#495,.T.) ;
#556=FACE_OUTER_BOUND('',#551,.T.) ;
#573=FACE_OUTER_BOUND('',#568,.T.) ;
#590=FACE_OUTER_BOUND('',#585,.T.) ;
#602=FACE_OUTER_BOUND('',#597,.T.) ;
#57=LINE('Line',#54,#56) ;
#66=LINE('Line',#63,#65) ;
#73=LINE('Line',#70,#72) ;
#80=LINE('Line',#77,#79) ;
#97=LINE('Line',#94,#96) ;
#106=LINE('Line',#103,#105) ;
#113=LINE('Line',#110,#112) ;
#120=LINE('Line',#117,#119) ;
#149=LINE('Line',#146,#148) ;
#166=LINE('Line',#163,#165) ;
#171=LINE('Line',#168,#170) ;
#176=LINE('Line',#173,#175) ;
#197=LINE('Line',#194,#196) ;
#204=LINE('Line',#201,#203) ;
#209=LINE('Line',#206,#208) ;
#226=LINE('Line',#223,#225) ;
#257=LINE('Line',#254,#256) ;
#266=LINE('Line',#263,#265) ;
#273=LINE('Line',#270,#272) ;
#280=LINE('Line',#277,#279) ;
#353=LINE('Line',#350,#352) ;
#362=LINE('Line',#359,#361) ;
#369=LINE('Line',#366,#368) ;
#376=LINE('Line',#373,#375) ;
#458=LINE('Line',#455,#457) ;
#467=LINE('Line',#464,#466) ;
#474=LINE('Line',#471,#473) ;
#481=LINE('Line',#478,#480) ;
#504=LINE('Line',#501,#503) ;
#513=LINE('Line',#510,#512) ;
#520=LINE('Line',#517,#519) ;
#527=LINE('Line',#524,#526) ;
#544=LINE('Line',#541,#543) ;
#549=LINE('Line',#546,#548) ;
#566=LINE('Line',#563,#565) ;
#583=LINE('Line',#580,#582) ;
#25=PLANE('Referenz_xy',#24) ;
#32=PLANE('Referenz_yz',#31) ;
#37=PLANE('Referenz_xz',#36) ;
#53=PLANE('',#52) ;
#93=PLANE('',#92) ;
#133=PLANE('',#132) ;
#193=PLANE('',#192) ;
#253=PLANE('',#252) ;
#337=PLANE('',#336) ;
#349=PLANE('',#348) ;
#440=PLANE('',#439) ;
#494=PLANE('',#493) ;
#540=PLANE('',#539) ;
#562=PLANE('',#561) ;
#579=PLANE('',#578) ;
#596=PLANE('',#595) ;
#9=PRODUCT_CATEGORY_RELATIONSHIP(' ',' ',#7,#8) ;
#6=PRODUCT_DEFINITION_FORMATION_WITH_SPECIFIED_SOURCE('',' ',#5,.NOT_KNOWN.) ;
#20=SHAPE_DEFINITION_REPRESENTATION(#11,#19) ;
#59=VERTEX_POINT('',#58) ;
#61=VERTEX_POINT('',#60) ;
#68=VERTEX_POINT('',#67) ;
#75=VERTEX_POINT('',#74) ;
#99=VERTEX_POINT('',#98) ;
#101=VERTEX_POINT('',#100) ;
#108=VERTEX_POINT('',#107) ;
#115=VERTEX_POINT('',#114) ;
#142=VERTEX_POINT('',#141) ;
#144=VERTEX_POINT('',#143) ;
#151=VERTEX_POINT('',#150) ;
#161=VERTEX_POINT('',#160) ;
#199=VERTEX_POINT('',#198) ;
#211=VERTEX_POINT('',#210) ;
#221=VERTEX_POINT('',#220) ;
#228=VERTEX_POINT('',#227) ;
#259=VERTEX_POINT('',#258) ;
#261=VERTEX_POINT('',#260) ;
#268=VERTEX_POINT('',#267) ;
#275=VERTEX_POINT('',#274) ;
#355=VERTEX_POINT('',#354) ;
#357=VERTEX_POINT('',#356) ;
#364=VERTEX_POINT('',#363) ;
#371=VERTEX_POINT('',#370) ;
#460=VERTEX_POINT('',#459) ;
#462=VERTEX_POINT('',#461) ;
#469=VERTEX_POINT('',#468) ;
#476=VERTEX_POINT('',#475) ;
#506=VERTEX_POINT('',#505) ;
#508=VERTEX_POINT('',#507) ;
#515=VERTEX_POINT('',#514) ;
#522=VERTEX_POINT('',#521) ;
#12=(LENGTH_UNIT()NAMED_UNIT(*)SI_UNIT(.MILLI.,.METRE.)) ;
#13=(NAMED_UNIT(*)PLANE_ANGLE_UNIT()SI_UNIT($,.RADIAN.)) ;
#14=(NAMED_UNIT(*)SI_UNIT($,.STERADIAN.)SOLID_ANGLE_UNIT()) ;
#16=(GEOMETRIC_REPRESENTATION_CONTEXT(3)GLOBAL_UNCERTAINTY_ASSIGNED_CONTEXT((#15))GLOBAL_UNIT_ASSIGNED_CONTEXT((#12,#13,#14))REPRESENTATION_CONTEXT(' ',' ')) ;
ENDSEC;
END-ISO-10303-21;
