ISO-10303-21;
HEADER;
FILE_DESCRIPTION(('CATIA V5R20 STEP214','CAx-IF Rec.Pracs.--- Model Styling and Organization---1.2---2011-12-15'),'2;1');

FILE_NAME ('D1464560_0_9019140000_9019140000.stp','2018-05-08T14:08:07+00:00',('none'),('Weidmueller'),'CATIA Version 5-6 Release 2014 SP4 HF52','CATIA V5 STEP AP214','none');

FILE_SCHEMA(('AUTOMOTIVE_DESIGN { 1 0 10303 214 1 1 1 1 }'));

ENDSEC;
DATA;
#5=PRODUCT('9019140000_H1,5-18D SW','','Aderendh\X2\00FC\X0\lse mit Kunststoffkragen',(#2)) ;
#2=PRODUCT_CONTEXT(' ',#1,'mechanical') ;
#1=APPLICATION_CONTEXT('automotive design') ;
#10=PRODUCT_DEFINITION('',' ',#6,#3) ;
#3=PRODUCT_DEFINITION_CONTEXT('part definition',#1,' ') ;
#11=PRODUCT_DEFINITION_SHAPE(' ',' ',#10) ;
#470=MECHANICAL_DESIGN_GEOMETRIC_PRESENTATION_REPRESENTATION(' ',(#79,#97,#138,#156,#171,#186,#29,#197),#16) ;
#19=SHAPE_REPRESENTATION(' ',(#18),#16) ;
#18=AXIS2_PLACEMENT_3D(' ',#17,$,$) ;
#35=AXIS2_PLACEMENT_3D('Cylinder Axis2P3D',#32,#33,#34) ;
#39=AXIS2_PLACEMENT_3D('Circle Axis2P3D',#37,#38,$) ;
#55=AXIS2_PLACEMENT_3D('Circle Axis2P3D',#53,#54,$) ;
#82=AXIS2_PLACEMENT_3D('Circle Axis2P3D',#80,#81,$) ;
#87=AXIS2_PLACEMENT_3D('Circle Axis2P3D',#85,#86,$) ;
#101=AXIS2_PLACEMENT_3D('Cylinder Axis2P3D',#98,#99,#100) ;
#105=AXIS2_PLACEMENT_3D('Circle Axis2P3D',#103,#104,$) ;
#121=AXIS2_PLACEMENT_3D('Circle Axis2P3D',#119,#120,$) ;
#141=AXIS2_PLACEMENT_3D('Circle Axis2P3D',#139,#140,$) ;
#146=AXIS2_PLACEMENT_3D('Circle Axis2P3D',#144,#145,$) ;
#160=AXIS2_PLACEMENT_3D('Plane Axis2P3D',#157,#158,#159) ;
#175=AXIS2_PLACEMENT_3D('Plane Axis2P3D',#172,#173,#174) ;
#202=AXIS2_PLACEMENT_3D('Cone Axis2P3D',#199,#200,#201) ;
#206=AXIS2_PLACEMENT_3D('Circle Axis2P3D',#204,#205,$) ;
#222=AXIS2_PLACEMENT_3D('Circle Axis2P3D',#220,#221,$) ;
#241=AXIS2_PLACEMENT_3D('Circle Axis2P3D',#239,#240,$) ;
#246=AXIS2_PLACEMENT_3D('Circle Axis2P3D',#244,#245,$) ;
#259=AXIS2_PLACEMENT_3D('Cylinder Axis2P3D',#256,#257,#258) ;
#270=AXIS2_PLACEMENT_3D('Circle Axis2P3D',#268,#269,$) ;
#289=AXIS2_PLACEMENT_3D('Circle Axis2P3D',#287,#288,$) ;
#302=AXIS2_PLACEMENT_3D('Cylinder Axis2P3D',#299,#300,#301) ;
#306=AXIS2_PLACEMENT_3D('Circle Axis2P3D',#304,#305,$) ;
#322=AXIS2_PLACEMENT_3D('Circle Axis2P3D',#320,#321,$) ;
#341=AXIS2_PLACEMENT_3D('Circle Axis2P3D',#339,#340,$) ;
#346=AXIS2_PLACEMENT_3D('Circle Axis2P3D',#344,#345,$) ;
#359=AXIS2_PLACEMENT_3D('Cone Axis2P3D',#356,#357,#358) ;
#370=AXIS2_PLACEMENT_3D('Circle Axis2P3D',#368,#369,$) ;
#389=AXIS2_PLACEMENT_3D('Circle Axis2P3D',#387,#388,$) ;
#402=AXIS2_PLACEMENT_3D('Cylinder Axis2P3D',#399,#400,#401) ;
#413=AXIS2_PLACEMENT_3D('Circle Axis2P3D',#411,#412,$) ;
#432=AXIS2_PLACEMENT_3D('Circle Axis2P3D',#430,#431,$) ;
#445=AXIS2_PLACEMENT_3D('Plane Axis2P3D',#442,#443,#444) ;
#459=AXIS2_PLACEMENT_3D('Plane Axis2P3D',#456,#457,#458) ;
#17=CARTESIAN_POINT(' ',(0.,0.,0.)) ;
#32=CARTESIAN_POINT('Axis2P3D Location',(2.,2.,12.)) ;
#37=CARTESIAN_POINT('Axis2P3D Location',(2.,2.,18.)) ;
#41=CARTESIAN_POINT('Vertex',(2.4794255386,1.12241743811,18.)) ;
#43=CARTESIAN_POINT('Vertex',(1.5205744614,2.87758256189,18.)) ;
#46=CARTESIAN_POINT('Line Origine',(2.4794255386,1.12241743811,12.)) ;
#50=CARTESIAN_POINT('Vertex',(2.4794255386,1.12241743811,6.)) ;
#53=CARTESIAN_POINT('Axis2P3D Location',(2.,2.,6.)) ;
#57=CARTESIAN_POINT('Vertex',(1.5205744614,2.87758256189,6.)) ;
#60=CARTESIAN_POINT('Line Origine',(1.5205744614,2.87758256189,12.)) ;
#80=CARTESIAN_POINT('Axis2P3D Location',(2.,2.,18.)) ;
#85=CARTESIAN_POINT('Axis2P3D Location',(2.,2.,6.)) ;
#98=CARTESIAN_POINT('Axis2P3D Location',(2.,2.,12.)) ;
#103=CARTESIAN_POINT('Axis2P3D Location',(2.,2.,6.)) ;
#107=CARTESIAN_POINT('Vertex',(2.40751170781,1.25405482239,6.)) ;
#109=CARTESIAN_POINT('Vertex',(1.59248829219,2.74594517761,6.)) ;
#112=CARTESIAN_POINT('Line Origine',(2.40751170781,1.25405482239,12.)) ;
#116=CARTESIAN_POINT('Vertex',(2.40751170781,1.25405482239,18.)) ;
#119=CARTESIAN_POINT('Axis2P3D Location',(2.,2.,18.)) ;
#123=CARTESIAN_POINT('Vertex',(1.59248829219,2.74594517761,18.)) ;
#126=CARTESIAN_POINT('Line Origine',(1.59248829219,2.74594517761,12.)) ;
#139=CARTESIAN_POINT('Axis2P3D Location',(2.,2.,6.)) ;
#144=CARTESIAN_POINT('Axis2P3D Location',(2.,2.,18.)) ;
#157=CARTESIAN_POINT('Axis2P3D Location',(2.,1.15,6.)) ;
#172=CARTESIAN_POINT('Axis2P3D Location',(2.,1.,18.)) ;
#199=CARTESIAN_POINT('Axis2P3D Location',(2.,2.,6.)) ;
#204=CARTESIAN_POINT('Axis2P3D Location',(2.,2.,6.)) ;
#208=CARTESIAN_POINT('Vertex',(2.4794255386,1.12241743811,6.)) ;
#210=CARTESIAN_POINT('Vertex',(1.5205744614,2.87758256189,6.)) ;
#213=CARTESIAN_POINT('Line Origine',(2.71913830791,0.683626157164,5.13397459622)) ;
#217=CARTESIAN_POINT('Vertex',(2.95885107721,0.244834876219,4.26794919243)) ;
#220=CARTESIAN_POINT('Axis2P3D Location',(2.,2.,4.26794919243)) ;
#224=CARTESIAN_POINT('Vertex',(1.04114892279,3.75516512378,4.26794919243)) ;
#227=CARTESIAN_POINT('Line Origine',(1.28086169209,3.31637384284,5.13397459622)) ;
#239=CARTESIAN_POINT('Axis2P3D Location',(2.,2.,6.)) ;
#244=CARTESIAN_POINT('Axis2P3D Location',(2.,2.,4.26794919243)) ;
#256=CARTESIAN_POINT('Axis2P3D Location',(2.,2.,3.)) ;
#261=CARTESIAN_POINT('Line Origine',(2.95885107721,0.244834876219,2.13397459622)) ;
#265=CARTESIAN_POINT('Vertex',(2.95885107721,0.244834876219,-8.881784197E-016)) ;
#268=CARTESIAN_POINT('Axis2P3D Location',(2.,2.,-8.881784197E-016)) ;
#272=CARTESIAN_POINT('Vertex',(1.04114892279,3.75516512378,-8.881784197E-016)) ;
#275=CARTESIAN_POINT('Line Origine',(1.04114892279,3.75516512378,2.13397459622)) ;
#287=CARTESIAN_POINT('Axis2P3D Location',(2.,2.,-8.881784197E-016)) ;
#299=CARTESIAN_POINT('Axis2P3D Location',(2.,2.,3.)) ;
#304=CARTESIAN_POINT('Axis2P3D Location',(2.,2.,-1.7763568394E-015)) ;
#308=CARTESIAN_POINT('Vertex',(2.83899469256,0.464230516692,-1.33226762955E-015)) ;
#310=CARTESIAN_POINT('Vertex',(1.16100530744,3.53576948331,-1.33226762955E-015)) ;
#313=CARTESIAN_POINT('Line Origine',(2.83899469256,0.464230516692,2.10048094716)) ;
#317=CARTESIAN_POINT('Vertex',(2.83899469256,0.464230516692,4.20096189432)) ;
#320=CARTESIAN_POINT('Axis2P3D Location',(2.,2.,4.20096189432)) ;
#324=CARTESIAN_POINT('Vertex',(1.16100530744,3.53576948331,4.20096189432)) ;
#327=CARTESIAN_POINT('Line Origine',(1.16100530744,3.53576948331,2.10048094716)) ;
#339=CARTESIAN_POINT('Axis2P3D Location',(2.,2.,-1.7763568394E-015)) ;
#344=CARTESIAN_POINT('Axis2P3D Location',(2.,2.,4.20096189432)) ;
#356=CARTESIAN_POINT('Axis2P3D Location',(2.,2.,5.75980762114)) ;
#361=CARTESIAN_POINT('Line Origine',(2.62325320019,0.859142669543,4.98038475773)) ;
#365=CARTESIAN_POINT('Vertex',(2.40751170781,1.25405482239,5.75980762114)) ;
#368=CARTESIAN_POINT('Axis2P3D Location',(2.,2.,5.75980762114)) ;
#372=CARTESIAN_POINT('Vertex',(1.59248829219,2.74594517761,5.75980762114)) ;
#375=CARTESIAN_POINT('Line Origine',(1.37674679981,3.14085733046,4.98038475773)) ;
#387=CARTESIAN_POINT('Axis2P3D Location',(2.,2.,5.75980762114)) ;
#399=CARTESIAN_POINT('Axis2P3D Location',(2.,2.,3.)) ;
#404=CARTESIAN_POINT('Line Origine',(2.40751170781,1.25405482239,5.87990381057)) ;
#408=CARTESIAN_POINT('Vertex',(2.40751170781,1.25405482239,6.)) ;
#411=CARTESIAN_POINT('Axis2P3D Location',(2.,2.,6.)) ;
#415=CARTESIAN_POINT('Vertex',(1.59248829219,2.74594517761,6.)) ;
#418=CARTESIAN_POINT('Line Origine',(1.59248829219,2.74594517761,5.87990381057)) ;
#430=CARTESIAN_POINT('Axis2P3D Location',(2.,2.,6.)) ;
#442=CARTESIAN_POINT('Axis2P3D Location',(2.,1.15,6.)) ;
#456=CARTESIAN_POINT('Axis2P3D Location',(2.,0.,-1.7763568394E-015)) ;
#33=DIRECTION('Axis2P3D Direction',(0.,0.,1.)) ;
#34=DIRECTION('Axis2P3D XDirection',(0.479425538604,-0.87758256189,0.)) ;
#38=DIRECTION('Axis2P3D Direction',(0.,0.,1.)) ;
#47=DIRECTION('Vector Direction',(0.,0.,1.)) ;
#54=DIRECTION('Axis2P3D Direction',(0.,0.,1.)) ;
#61=DIRECTION('Vector Direction',(0.,0.,1.)) ;
#81=DIRECTION('Axis2P3D Direction',(0.,0.,1.)) ;
#86=DIRECTION('Axis2P3D Direction',(0.,0.,1.)) ;
#99=DIRECTION('Axis2P3D Direction',(0.,0.,1.)) ;
#100=DIRECTION('Axis2P3D XDirection',(0.479425538604,-0.87758256189,0.)) ;
#104=DIRECTION('Axis2P3D Direction',(0.,0.,1.)) ;
#113=DIRECTION('Vector Direction',(0.,0.,1.)) ;
#120=DIRECTION('Axis2P3D Direction',(0.,0.,1.)) ;
#127=DIRECTION('Vector Direction',(0.,0.,1.)) ;
#140=DIRECTION('Axis2P3D Direction',(0.,0.,1.)) ;
#145=DIRECTION('Axis2P3D Direction',(0.,0.,1.)) ;
#158=DIRECTION('Axis2P3D Direction',(0.,0.,1.)) ;
#159=DIRECTION('Axis2P3D XDirection',(1.,0.,0.)) ;
#173=DIRECTION('Axis2P3D Direction',(0.,0.,1.)) ;
#174=DIRECTION('Axis2P3D XDirection',(1.,0.,0.)) ;
#200=DIRECTION('Axis2P3D Direction',(-0.,-0.,-1.)) ;
#201=DIRECTION('Axis2P3D XDirection',(0.479425538604,-0.87758256189,0.)) ;
#205=DIRECTION('Axis2P3D Direction',(0.,0.,-1.)) ;
#214=DIRECTION('Vector Direction',(0.239712769302,-0.438791280945,-0.866025403784)) ;
#221=DIRECTION('Axis2P3D Direction',(0.,0.,-1.)) ;
#228=DIRECTION('Vector Direction',(-0.239712769302,0.438791280945,-0.866025403784)) ;
#240=DIRECTION('Axis2P3D Direction',(0.,0.,-1.)) ;
#245=DIRECTION('Axis2P3D Direction',(0.,0.,-1.)) ;
#257=DIRECTION('Axis2P3D Direction',(0.,0.,1.)) ;
#258=DIRECTION('Axis2P3D XDirection',(0.479425538604,-0.87758256189,0.)) ;
#262=DIRECTION('Vector Direction',(0.,0.,1.)) ;
#269=DIRECTION('Axis2P3D Direction',(0.,0.,1.)) ;
#276=DIRECTION('Vector Direction',(0.,0.,1.)) ;
#288=DIRECTION('Axis2P3D Direction',(0.,0.,1.)) ;
#300=DIRECTION('Axis2P3D Direction',(0.,0.,1.)) ;
#301=DIRECTION('Axis2P3D XDirection',(0.479425538604,-0.87758256189,0.)) ;
#305=DIRECTION('Axis2P3D Direction',(0.,0.,1.)) ;
#314=DIRECTION('Vector Direction',(0.,0.,1.)) ;
#321=DIRECTION('Axis2P3D Direction',(0.,0.,1.)) ;
#328=DIRECTION('Vector Direction',(0.,0.,1.)) ;
#340=DIRECTION('Axis2P3D Direction',(0.,0.,1.)) ;
#345=DIRECTION('Axis2P3D Direction',(0.,0.,1.)) ;
#357=DIRECTION('Axis2P3D Direction',(-0.,-0.,-1.)) ;
#358=DIRECTION('Axis2P3D XDirection',(0.479425538604,-0.87758256189,0.)) ;
#362=DIRECTION('Vector Direction',(0.239712769302,-0.438791280945,-0.866025403784)) ;
#369=DIRECTION('Axis2P3D Direction',(0.,0.,-1.)) ;
#376=DIRECTION('Vector Direction',(-0.239712769302,0.438791280945,-0.866025403784)) ;
#388=DIRECTION('Axis2P3D Direction',(0.,0.,-1.)) ;
#400=DIRECTION('Axis2P3D Direction',(0.,0.,1.)) ;
#401=DIRECTION('Axis2P3D XDirection',(0.479425538604,-0.87758256189,0.)) ;
#405=DIRECTION('Vector Direction',(0.,0.,1.)) ;
#412=DIRECTION('Axis2P3D Direction',(0.,0.,1.)) ;
#419=DIRECTION('Vector Direction',(0.,0.,1.)) ;
#431=DIRECTION('Axis2P3D Direction',(0.,0.,1.)) ;
#443=DIRECTION('Axis2P3D Direction',(0.,0.,1.)) ;
#444=DIRECTION('Axis2P3D XDirection',(1.,0.,0.)) ;
#457=DIRECTION('Axis2P3D Direction',(0.,0.,1.)) ;
#458=DIRECTION('Axis2P3D XDirection',(1.,0.,0.)) ;
#30=PRESENTATION_LAYER_ASSIGNMENT('41',' ',(#21)) ;
#8=PRODUCT_RELATED_PRODUCT_CATEGORY('part',$,(#5)) ;
#7=PRODUCT_CATEGORY('part','specification') ;
#29=STYLED_ITEM(' ',(#28),#21) ;
#197=STYLED_ITEM(' ',(#196),#189) ;
#28=PRESENTATION_STYLE_ASSIGNMENT((#27)) ;
#78=PRESENTATION_STYLE_ASSIGNMENT((#77)) ;
#196=PRESENTATION_STYLE_ASSIGNMENT((#195)) ;
#27=SURFACE_STYLE_USAGE(.BOTH.,#26) ;
#77=SURFACE_STYLE_USAGE(.BOTH.,#76) ;
#195=SURFACE_STYLE_USAGE(.BOTH.,#194) ;
#26=SURFACE_SIDE_STYLE(' ',(#25)) ;
#76=SURFACE_SIDE_STYLE(' ',(#75)) ;
#194=SURFACE_SIDE_STYLE(' ',(#193)) ;
#25=SURFACE_STYLE_FILL_AREA(#24) ;
#75=SURFACE_STYLE_FILL_AREA(#74) ;
#193=SURFACE_STYLE_FILL_AREA(#192) ;
#24=FILL_AREA_STYLE(' ',(#23)) ;
#74=FILL_AREA_STYLE(' ',(#73)) ;
#192=FILL_AREA_STYLE(' ',(#191)) ;
#23=FILL_AREA_STYLE_COLOUR(' ',#22) ;
#73=FILL_AREA_STYLE_COLOUR(' ',#72) ;
#191=FILL_AREA_STYLE_COLOUR(' ',#190) ;
#48=VECTOR('Line Direction',#47,1.) ;
#62=VECTOR('Line Direction',#61,1.) ;
#114=VECTOR('Line Direction',#113,1.) ;
#128=VECTOR('Line Direction',#127,1.) ;
#215=VECTOR('Line Direction',#214,1.) ;
#229=VECTOR('Line Direction',#228,1.) ;
#263=VECTOR('Line Direction',#262,1.) ;
#277=VECTOR('Line Direction',#276,1.) ;
#315=VECTOR('Line Direction',#314,1.) ;
#329=VECTOR('Line Direction',#328,1.) ;
#363=VECTOR('Line Direction',#362,1.) ;
#377=VECTOR('Line Direction',#376,1.) ;
#406=VECTOR('Line Direction',#405,1.) ;
#420=VECTOR('Line Direction',#419,1.) ;
#15=UNCERTAINTY_MEASURE_WITH_UNIT(LENGTH_MEASURE(0.005),#12,'distance_accuracy_value','CONFUSED CURVE UNCERTAINTY') ;
#188=SHAPE_REPRESENTATION_RELATIONSHIP(' ',' ',#19,#187) ;
#66=ORIENTED_EDGE('',*,*,#45,.F.) ;
#67=ORIENTED_EDGE('',*,*,#52,.T.) ;
#68=ORIENTED_EDGE('',*,*,#59,.T.) ;
#69=ORIENTED_EDGE('',*,*,#64,.F.) ;
#91=ORIENTED_EDGE('',*,*,#84,.F.) ;
#92=ORIENTED_EDGE('',*,*,#64,.T.) ;
#93=ORIENTED_EDGE('',*,*,#89,.T.) ;
#94=ORIENTED_EDGE('',*,*,#52,.F.) ;
#132=ORIENTED_EDGE('',*,*,#111,.F.) ;
#133=ORIENTED_EDGE('',*,*,#118,.T.) ;
#134=ORIENTED_EDGE('',*,*,#125,.T.) ;
#135=ORIENTED_EDGE('',*,*,#130,.F.) ;
#150=ORIENTED_EDGE('',*,*,#143,.F.) ;
#151=ORIENTED_EDGE('',*,*,#130,.T.) ;
#152=ORIENTED_EDGE('',*,*,#148,.T.) ;
#153=ORIENTED_EDGE('',*,*,#118,.F.) ;
#163=ORIENTED_EDGE('',*,*,#59,.F.) ;
#164=ORIENTED_EDGE('',*,*,#89,.F.) ;
#167=ORIENTED_EDGE('',*,*,#143,.T.) ;
#168=ORIENTED_EDGE('',*,*,#111,.T.) ;
#178=ORIENTED_EDGE('',*,*,#84,.T.) ;
#179=ORIENTED_EDGE('',*,*,#45,.T.) ;
#182=ORIENTED_EDGE('',*,*,#125,.F.) ;
#183=ORIENTED_EDGE('',*,*,#148,.F.) ;
#233=ORIENTED_EDGE('',*,*,#212,.F.) ;
#234=ORIENTED_EDGE('',*,*,#219,.T.) ;
#235=ORIENTED_EDGE('',*,*,#226,.T.) ;
#236=ORIENTED_EDGE('',*,*,#231,.F.) ;
#250=ORIENTED_EDGE('',*,*,#243,.F.) ;
#251=ORIENTED_EDGE('',*,*,#231,.T.) ;
#252=ORIENTED_EDGE('',*,*,#248,.T.) ;
#253=ORIENTED_EDGE('',*,*,#219,.F.) ;
#281=ORIENTED_EDGE('',*,*,#226,.F.) ;
#282=ORIENTED_EDGE('',*,*,#267,.T.) ;
#283=ORIENTED_EDGE('',*,*,#274,.T.) ;
#284=ORIENTED_EDGE('',*,*,#279,.F.) ;
#293=ORIENTED_EDGE('',*,*,#248,.F.) ;
#294=ORIENTED_EDGE('',*,*,#279,.T.) ;
#295=ORIENTED_EDGE('',*,*,#291,.T.) ;
#296=ORIENTED_EDGE('',*,*,#267,.F.) ;
#333=ORIENTED_EDGE('',*,*,#312,.F.) ;
#334=ORIENTED_EDGE('',*,*,#319,.T.) ;
#335=ORIENTED_EDGE('',*,*,#326,.T.) ;
#336=ORIENTED_EDGE('',*,*,#331,.F.) ;
#350=ORIENTED_EDGE('',*,*,#343,.F.) ;
#351=ORIENTED_EDGE('',*,*,#331,.T.) ;
#352=ORIENTED_EDGE('',*,*,#348,.T.) ;
#353=ORIENTED_EDGE('',*,*,#319,.F.) ;
#381=ORIENTED_EDGE('',*,*,#326,.F.) ;
#382=ORIENTED_EDGE('',*,*,#367,.T.) ;
#383=ORIENTED_EDGE('',*,*,#374,.T.) ;
#384=ORIENTED_EDGE('',*,*,#379,.F.) ;
#393=ORIENTED_EDGE('',*,*,#348,.F.) ;
#394=ORIENTED_EDGE('',*,*,#379,.T.) ;
#395=ORIENTED_EDGE('',*,*,#391,.T.) ;
#396=ORIENTED_EDGE('',*,*,#367,.F.) ;
#424=ORIENTED_EDGE('',*,*,#374,.F.) ;
#425=ORIENTED_EDGE('',*,*,#410,.T.) ;
#426=ORIENTED_EDGE('',*,*,#417,.T.) ;
#427=ORIENTED_EDGE('',*,*,#422,.F.) ;
#436=ORIENTED_EDGE('',*,*,#391,.F.) ;
#437=ORIENTED_EDGE('',*,*,#422,.T.) ;
#438=ORIENTED_EDGE('',*,*,#434,.T.) ;
#439=ORIENTED_EDGE('',*,*,#410,.F.) ;
#448=ORIENTED_EDGE('',*,*,#243,.T.) ;
#449=ORIENTED_EDGE('',*,*,#212,.T.) ;
#452=ORIENTED_EDGE('',*,*,#417,.F.) ;
#453=ORIENTED_EDGE('',*,*,#434,.F.) ;
#462=ORIENTED_EDGE('',*,*,#274,.F.) ;
#463=ORIENTED_EDGE('',*,*,#291,.F.) ;
#466=ORIENTED_EDGE('',*,*,#343,.T.) ;
#467=ORIENTED_EDGE('',*,*,#312,.T.) ;
#169=FACE_BOUND('',#166,.T.) ;
#184=FACE_BOUND('',#181,.T.) ;
#454=FACE_BOUND('',#451,.T.) ;
#468=FACE_BOUND('',#465,.T.) ;
#31=CLOSED_SHELL('Closed Shell',(#71,#96,#137,#155,#170,#185)) ;
#198=CLOSED_SHELL('Closed Shell',(#238,#255,#286,#298,#338,#355,#386,#398,#429,#441,#455,#469)) ;
#187=ADVANCED_BREP_SHAPE_REPRESENTATION('NONE',(#21,#189),#16) ;
#71=ADVANCED_FACE('S3D',(#70),#36,.T.) ;
#96=ADVANCED_FACE('S3D',(#95),#36,.T.) ;
#137=ADVANCED_FACE('S3D',(#136),#102,.F.) ;
#155=ADVANCED_FACE('S3D',(#154),#102,.F.) ;
#170=ADVANCED_FACE('S3D',(#165,#169),#161,.F.) ;
#185=ADVANCED_FACE('S3D',(#180,#184),#176,.T.) ;
#238=ADVANCED_FACE('S3D-Kragen',(#237),#203,.T.) ;
#255=ADVANCED_FACE('S3D-Kragen',(#254),#203,.T.) ;
#286=ADVANCED_FACE('S3D-Kragen',(#285),#260,.T.) ;
#298=ADVANCED_FACE('S3D-Kragen',(#297),#260,.T.) ;
#338=ADVANCED_FACE('S3D-Kragen',(#337),#303,.F.) ;
#355=ADVANCED_FACE('S3D-Kragen',(#354),#303,.F.) ;
#386=ADVANCED_FACE('S3D-Kragen',(#385),#360,.F.) ;
#398=ADVANCED_FACE('S3D-Kragen',(#397),#360,.F.) ;
#429=ADVANCED_FACE('S3D-Kragen',(#428),#403,.F.) ;
#441=ADVANCED_FACE('S3D-Kragen',(#440),#403,.F.) ;
#455=ADVANCED_FACE('S3D-Kragen',(#450,#454),#446,.T.) ;
#469=ADVANCED_FACE('S3D-Kragen',(#464,#468),#460,.F.) ;
#4=APPLICATION_PROTOCOL_DEFINITION('international standard','automotive_design',2001,#1) ;
#21=MANIFOLD_SOLID_BREP('S3D',#31) ;
#189=MANIFOLD_SOLID_BREP('S3D-Kragen',#198) ;
#40=CIRCLE('generated circle',#39,1.) ;
#56=CIRCLE('generated circle',#55,1.) ;
#83=CIRCLE('generated circle',#82,1.) ;
#88=CIRCLE('generated circle',#87,1.) ;
#106=CIRCLE('generated circle',#105,0.85) ;
#122=CIRCLE('generated circle',#121,0.85) ;
#142=CIRCLE('generated circle',#141,0.85) ;
#147=CIRCLE('generated circle',#146,0.85) ;
#207=CIRCLE('generated circle',#206,1.) ;
#223=CIRCLE('generated circle',#222,2.) ;
#242=CIRCLE('generated circle',#241,1.) ;
#247=CIRCLE('generated circle',#246,2.) ;
#271=CIRCLE('generated circle',#270,2.) ;
#290=CIRCLE('generated circle',#289,2.) ;
#307=CIRCLE('generated circle',#306,1.75) ;
#323=CIRCLE('generated circle',#322,1.75) ;
#342=CIRCLE('generated circle',#341,1.75) ;
#347=CIRCLE('generated circle',#346,1.75) ;
#371=CIRCLE('generated circle',#370,0.85) ;
#390=CIRCLE('generated circle',#389,0.85) ;
#414=CIRCLE('generated circle',#413,0.85) ;
#433=CIRCLE('generated circle',#432,0.85) ;
#22=COLOUR_RGB('Colour',0.823529411765,0.823529411765,1.) ;
#72=COLOUR_RGB('Colour',0.756862745098,0.76862745098,0.752941176471) ;
#190=COLOUR_RGB('Colour',0.270588235294,0.239215686275,0.270588235294) ;
#203=CONICAL_SURFACE('Cone',#202,1.,0.523598775598) ;
#360=CONICAL_SURFACE('Cone',#359,0.85,0.523598775598) ;
#79=OVER_RIDING_STYLED_ITEM(' ',(#78),#71,#29) ;
#97=OVER_RIDING_STYLED_ITEM(' ',(#78),#96,#29) ;
#138=OVER_RIDING_STYLED_ITEM(' ',(#78),#137,#29) ;
#156=OVER_RIDING_STYLED_ITEM(' ',(#78),#155,#29) ;
#171=OVER_RIDING_STYLED_ITEM(' ',(#78),#170,#29) ;
#186=OVER_RIDING_STYLED_ITEM(' ',(#78),#185,#29) ;
#36=CYLINDRICAL_SURFACE('generated cylinder',#35,1.) ;
#102=CYLINDRICAL_SURFACE('generated cylinder',#101,0.85) ;
#260=CYLINDRICAL_SURFACE('generated cylinder',#259,2.) ;
#303=CYLINDRICAL_SURFACE('generated cylinder',#302,1.75) ;
#403=CYLINDRICAL_SURFACE('generated cylinder',#402,0.85) ;
#45=EDGE_CURVE('',#42,#44,#40,.T.) ;
#52=EDGE_CURVE('',#42,#51,#49,.F.) ;
#59=EDGE_CURVE('',#51,#58,#56,.T.) ;
#64=EDGE_CURVE('',#44,#58,#63,.F.) ;
#84=EDGE_CURVE('',#44,#42,#83,.T.) ;
#89=EDGE_CURVE('',#58,#51,#88,.T.) ;
#111=EDGE_CURVE('',#108,#110,#106,.T.) ;
#118=EDGE_CURVE('',#108,#117,#115,.T.) ;
#125=EDGE_CURVE('',#117,#124,#122,.T.) ;
#130=EDGE_CURVE('',#110,#124,#129,.T.) ;
#143=EDGE_CURVE('',#110,#108,#142,.T.) ;
#148=EDGE_CURVE('',#124,#117,#147,.T.) ;
#212=EDGE_CURVE('',#209,#211,#207,.F.) ;
#219=EDGE_CURVE('',#209,#218,#216,.T.) ;
#226=EDGE_CURVE('',#218,#225,#223,.F.) ;
#231=EDGE_CURVE('',#211,#225,#230,.T.) ;
#243=EDGE_CURVE('',#211,#209,#242,.F.) ;
#248=EDGE_CURVE('',#225,#218,#247,.F.) ;
#267=EDGE_CURVE('',#218,#266,#264,.F.) ;
#274=EDGE_CURVE('',#266,#273,#271,.T.) ;
#279=EDGE_CURVE('',#225,#273,#278,.F.) ;
#291=EDGE_CURVE('',#273,#266,#290,.T.) ;
#312=EDGE_CURVE('',#309,#311,#307,.T.) ;
#319=EDGE_CURVE('',#309,#318,#316,.T.) ;
#326=EDGE_CURVE('',#318,#325,#323,.T.) ;
#331=EDGE_CURVE('',#311,#325,#330,.T.) ;
#343=EDGE_CURVE('',#311,#309,#342,.T.) ;
#348=EDGE_CURVE('',#325,#318,#347,.T.) ;
#367=EDGE_CURVE('',#318,#366,#364,.F.) ;
#374=EDGE_CURVE('',#366,#373,#371,.F.) ;
#379=EDGE_CURVE('',#325,#373,#378,.F.) ;
#391=EDGE_CURVE('',#373,#366,#390,.F.) ;
#410=EDGE_CURVE('',#366,#409,#407,.T.) ;
#417=EDGE_CURVE('',#409,#416,#414,.T.) ;
#422=EDGE_CURVE('',#373,#416,#421,.T.) ;
#434=EDGE_CURVE('',#416,#409,#433,.T.) ;
#65=EDGE_LOOP('',(#66,#67,#68,#69)) ;
#90=EDGE_LOOP('',(#91,#92,#93,#94)) ;
#131=EDGE_LOOP('',(#132,#133,#134,#135)) ;
#149=EDGE_LOOP('',(#150,#151,#152,#153)) ;
#162=EDGE_LOOP('',(#163,#164)) ;
#166=EDGE_LOOP('',(#167,#168)) ;
#177=EDGE_LOOP('',(#178,#179)) ;
#181=EDGE_LOOP('',(#182,#183)) ;
#232=EDGE_LOOP('',(#233,#234,#235,#236)) ;
#249=EDGE_LOOP('',(#250,#251,#252,#253)) ;
#280=EDGE_LOOP('',(#281,#282,#283,#284)) ;
#292=EDGE_LOOP('',(#293,#294,#295,#296)) ;
#332=EDGE_LOOP('',(#333,#334,#335,#336)) ;
#349=EDGE_LOOP('',(#350,#351,#352,#353)) ;
#380=EDGE_LOOP('',(#381,#382,#383,#384)) ;
#392=EDGE_LOOP('',(#393,#394,#395,#396)) ;
#423=EDGE_LOOP('',(#424,#425,#426,#427)) ;
#435=EDGE_LOOP('',(#436,#437,#438,#439)) ;
#447=EDGE_LOOP('',(#448,#449)) ;
#451=EDGE_LOOP('',(#452,#453)) ;
#461=EDGE_LOOP('',(#462,#463)) ;
#465=EDGE_LOOP('',(#466,#467)) ;
#70=FACE_OUTER_BOUND('',#65,.T.) ;
#95=FACE_OUTER_BOUND('',#90,.T.) ;
#136=FACE_OUTER_BOUND('',#131,.T.) ;
#154=FACE_OUTER_BOUND('',#149,.T.) ;
#165=FACE_OUTER_BOUND('',#162,.T.) ;
#180=FACE_OUTER_BOUND('',#177,.T.) ;
#237=FACE_OUTER_BOUND('',#232,.T.) ;
#254=FACE_OUTER_BOUND('',#249,.T.) ;
#285=FACE_OUTER_BOUND('',#280,.T.) ;
#297=FACE_OUTER_BOUND('',#292,.T.) ;
#337=FACE_OUTER_BOUND('',#332,.T.) ;
#354=FACE_OUTER_BOUND('',#349,.T.) ;
#385=FACE_OUTER_BOUND('',#380,.T.) ;
#397=FACE_OUTER_BOUND('',#392,.T.) ;
#428=FACE_OUTER_BOUND('',#423,.T.) ;
#440=FACE_OUTER_BOUND('',#435,.T.) ;
#450=FACE_OUTER_BOUND('',#447,.T.) ;
#464=FACE_OUTER_BOUND('',#461,.T.) ;
#49=LINE('Line',#46,#48) ;
#63=LINE('Line',#60,#62) ;
#115=LINE('Line',#112,#114) ;
#129=LINE('Line',#126,#128) ;
#216=LINE('Line',#213,#215) ;
#230=LINE('Line',#227,#229) ;
#264=LINE('Line',#261,#263) ;
#278=LINE('Line',#275,#277) ;
#316=LINE('Line',#313,#315) ;
#330=LINE('Line',#327,#329) ;
#364=LINE('Line',#361,#363) ;
#378=LINE('Line',#375,#377) ;
#407=LINE('Line',#404,#406) ;
#421=LINE('Line',#418,#420) ;
#161=PLANE('',#160) ;
#176=PLANE('',#175) ;
#446=PLANE('',#445) ;
#460=PLANE('',#459) ;
#9=PRODUCT_CATEGORY_RELATIONSHIP(' ',' ',#7,#8) ;
#6=PRODUCT_DEFINITION_FORMATION_WITH_SPECIFIED_SOURCE('',' ',#5,.BOUGHT.) ;
#20=SHAPE_DEFINITION_REPRESENTATION(#11,#19) ;
#42=VERTEX_POINT('',#41) ;
#44=VERTEX_POINT('',#43) ;
#51=VERTEX_POINT('',#50) ;
#58=VERTEX_POINT('',#57) ;
#108=VERTEX_POINT('',#107) ;
#110=VERTEX_POINT('',#109) ;
#117=VERTEX_POINT('',#116) ;
#124=VERTEX_POINT('',#123) ;
#209=VERTEX_POINT('',#208) ;
#211=VERTEX_POINT('',#210) ;
#218=VERTEX_POINT('',#217) ;
#225=VERTEX_POINT('',#224) ;
#266=VERTEX_POINT('',#265) ;
#273=VERTEX_POINT('',#272) ;
#309=VERTEX_POINT('',#308) ;
#311=VERTEX_POINT('',#310) ;
#318=VERTEX_POINT('',#317) ;
#325=VERTEX_POINT('',#324) ;
#366=VERTEX_POINT('',#365) ;
#373=VERTEX_POINT('',#372) ;
#409=VERTEX_POINT('',#408) ;
#416=VERTEX_POINT('',#415) ;
#12=(LENGTH_UNIT()NAMED_UNIT(*)SI_UNIT(.MILLI.,.METRE.)) ;
#13=(NAMED_UNIT(*)PLANE_ANGLE_UNIT()SI_UNIT($,.RADIAN.)) ;
#14=(NAMED_UNIT(*)SI_UNIT($,.STERADIAN.)SOLID_ANGLE_UNIT()) ;
#16=(GEOMETRIC_REPRESENTATION_CONTEXT(3)GLOBAL_UNCERTAINTY_ASSIGNED_CONTEXT((#15))GLOBAL_UNIT_ASSIGNED_CONTEXT((#12,#13,#14))REPRESENTATION_CONTEXT(' ',' ')) ;
ENDSEC;
END-ISO-10303-21;
