ISO-10303-21;
HEADER;
FILE_DESCRIPTION(('CATIA V5 STEP Exchange','CAx-IF Rec.Pracs.--- Model Styling and Organization---1.5--- 2016-08-15','CAx-IF Rec.Pracs.---Supplemental Geometry---1.0---2011-11-01','CAx-IF Rec.Pracs.--- Composite Materials ---1.1---2010-07-15'),'2;1');

FILE_NAME ('706723-1_3_2652380000_2652380000.stp','2024-06-12T11:33:36+00:00',('none'),('Weidmueller'),'CATIA Version 5-6 Release 2022 SP4 HF5','CATIA V5 STEP AP214 v3','none');

FILE_SCHEMA(('AUTOMOTIVE_DESIGN { 1 0 10303 214 1 1 1 1 }'));

ENDSEC;
DATA;
#5=PRODUCT('CABTITE BP 10MM PA','CABTITE BP 10MM PA',' ',(#2)) ;
#2=PRODUCT_CONTEXT(' ',#1,'mechanical') ;
#1=APPLICATION_CONTEXT('automotive design') ;
#10=PRODUCT_DEFINITION(' ',' ',#6,#3) ;
#3=PRODUCT_DEFINITION_CONTEXT('part definition',#1,' ') ;
#11=PRODUCT_DEFINITION_SHAPE(' ',' ',#10) ;
#447=MECHANICAL_DESIGN_GEOMETRIC_PRESENTATION_REPRESENTATION(' ',(#87,#113,#178,#202,#219,#231,#238,#270,#283,#315,#328,#393,#425,#438,#444,#29),#16) ;
#19=SHAPE_REPRESENTATION(' ',(#18),#16) ;
#18=AXIS2_PLACEMENT_3D(' ',#17,$,$) ;
#35=AXIS2_PLACEMENT_3D('Cylinder Axis2P3D',#32,#33,#34) ;
#48=AXIS2_PLACEMENT_3D('Circle Axis2P3D',#46,#47,$) ;
#62=AXIS2_PLACEMENT_3D('Circle Axis2P3D',#60,#61,$) ;
#69=AXIS2_PLACEMENT_3D('Circle Axis2P3D',#67,#68,$) ;
#90=AXIS2_PLACEMENT_3D('Circle Axis2P3D',#88,#89,$) ;
#95=AXIS2_PLACEMENT_3D('Circle Axis2P3D',#93,#94,$) ;
#102=AXIS2_PLACEMENT_3D('Circle Axis2P3D',#100,#101,$) ;
#117=AXIS2_PLACEMENT_3D('Plane Axis2P3D',#114,#115,#116) ;
#182=AXIS2_PLACEMENT_3D('Sphere Axis2P3D',#179,#180,#181) ;
#186=AXIS2_PLACEMENT_3D('Circle Axis2P3D',#184,#185,$) ;
#193=AXIS2_PLACEMENT_3D('Circle Axis2P3D',#191,#192,$) ;
#206=AXIS2_PLACEMENT_3D('Sphere Axis2P3D',#203,#204,#205) ;
#210=AXIS2_PLACEMENT_3D('Circle Axis2P3D',#208,#209,$) ;
#222=AXIS2_PLACEMENT_3D('Circle Axis2P3D',#220,#221,$) ;
#242=AXIS2_PLACEMENT_3D('Cylinder Axis2P3D',#239,#240,#241) ;
#253=AXIS2_PLACEMENT_3D('Circle Axis2P3D',#251,#252,$) ;
#273=AXIS2_PLACEMENT_3D('Circle Axis2P3D',#271,#272,$) ;
#287=AXIS2_PLACEMENT_3D('Cone Axis2P3D',#284,#285,#286) ;
#305=AXIS2_PLACEMENT_3D('Circle Axis2P3D',#303,#304,$) ;
#318=AXIS2_PLACEMENT_3D('Circle Axis2P3D',#316,#317,$) ;
#332=AXIS2_PLACEMENT_3D('Plane Axis2P3D',#329,#330,#331) ;
#397=AXIS2_PLACEMENT_3D('Cylinder Axis2P3D',#394,#395,#396) ;
#401=AXIS2_PLACEMENT_3D('Circle Axis2P3D',#399,#400,$) ;
#428=AXIS2_PLACEMENT_3D('Circle Axis2P3D',#426,#427,$) ;
#17=CARTESIAN_POINT(' ',(0.,0.,0.)) ;
#32=CARTESIAN_POINT('Axis2P3D Location',(5.9,5.9,16.5)) ;
#37=CARTESIAN_POINT('Line Origine',(8.84858271772E-32,5.9,16.5)) ;
#41=CARTESIAN_POINT('Vertex',(8.84858271772E-32,5.9,16.5)) ;
#43=CARTESIAN_POINT('Vertex',(4.09358760511E-31,5.9,17.)) ;
#46=CARTESIAN_POINT('Axis2P3D Location',(5.9,5.9,16.5)) ;
#50=CARTESIAN_POINT('Vertex',(11.8,5.9,16.5)) ;
#53=CARTESIAN_POINT('Line Origine',(11.8,5.9,16.5)) ;
#57=CARTESIAN_POINT('Vertex',(11.8,5.9,17.)) ;
#60=CARTESIAN_POINT('Axis2P3D Location',(5.9,5.9,17.)) ;
#64=CARTESIAN_POINT('Vertex',(5.9,0.,17.)) ;
#67=CARTESIAN_POINT('Axis2P3D Location',(5.9,5.9,17.)) ;
#88=CARTESIAN_POINT('Axis2P3D Location',(5.9,5.9,16.5)) ;
#93=CARTESIAN_POINT('Axis2P3D Location',(5.9,5.9,17.)) ;
#97=CARTESIAN_POINT('Vertex',(5.90000000002,11.8,17.)) ;
#100=CARTESIAN_POINT('Axis2P3D Location',(5.9,5.9,17.)) ;
#114=CARTESIAN_POINT('Axis2P3D Location',(5.9,-1.1990408666E-14,16.5)) ;
#124=CARTESIAN_POINT('Control Point',(10.9,5.90000000037,16.5)) ;
#125=CARTESIAN_POINT('Control Point',(10.9,5.35233581002,16.5)) ;
#126=CARTESIAN_POINT('Control Point',(10.8250159799,4.80467254534,16.5)) ;
#127=CARTESIAN_POINT('Control Point',(10.6749517072,4.27047095688,16.5)) ;
#128=CARTESIAN_POINT('Control Point',(10.2326046211,3.25727413957,16.5)) ;
#129=CARTESIAN_POINT('Control Point',(9.53419864937,2.40026789436,16.5)) ;
#130=CARTESIAN_POINT('Control Point',(9.1279082673,2.02235420159,16.5)) ;
#131=CARTESIAN_POINT('Control Point',(8.22266091034,1.38771575781,16.5)) ;
#132=CARTESIAN_POINT('Control Point',(7.18014548526,1.01975900397,16.5)) ;
#133=CARTESIAN_POINT('Control Point',(6.63649493917,0.908697172833,16.5)) ;
#134=CARTESIAN_POINT('Control Point',(5.53319012916,0.83828948498,16.5)) ;
#135=CARTESIAN_POINT('Control Point',(4.45156777143,1.06703313521,16.5)) ;
#136=CARTESIAN_POINT('Control Point',(3.92960969102,1.25531586434,16.5)) ;
#137=CARTESIAN_POINT('Control Point',(2.95103472339,1.76973770072,16.5)) ;
#138=CARTESIAN_POINT('Control Point',(2.14674923769,2.5282595984,16.5)) ;
#139=CARTESIAN_POINT('Control Point',(1.79918979085,2.96080209879,16.5)) ;
#140=CARTESIAN_POINT('Control Point',(1.30658851135,3.78426450414,16.5)) ;
#141=CARTESIAN_POINT('Control Point',(1.02183462461,4.69634375668,16.5)) ;
#142=CARTESIAN_POINT('Control Point',(0.940606297947,5.09396018844,16.5)) ;
#143=CARTESIAN_POINT('Control Point',(0.9,5.49697991605,16.5)) ;
#144=CARTESIAN_POINT('Control Point',(0.9,5.90000000037,16.5)) ;
#145=CARTESIAN_POINT('Vertex',(10.9,5.9,16.5)) ;
#147=CARTESIAN_POINT('Vertex',(0.9,5.90000000037,16.5)) ;
#151=CARTESIAN_POINT('Control Point',(0.9,5.90000000037,16.5)) ;
#152=CARTESIAN_POINT('Control Point',(0.9,6.44766418676,16.5)) ;
#153=CARTESIAN_POINT('Control Point',(0.974984018973,6.99532744747,16.5)) ;
#154=CARTESIAN_POINT('Control Point',(1.12504829334,7.52952904695,16.5)) ;
#155=CARTESIAN_POINT('Control Point',(1.56739537499,8.54272585435,16.5)) ;
#156=CARTESIAN_POINT('Control Point',(2.26580133746,9.39973209301,16.5)) ;
#157=CARTESIAN_POINT('Control Point',(2.67209173376,9.77764579911,16.5)) ;
#158=CARTESIAN_POINT('Control Point',(3.5773390868,10.4122842411,16.5)) ;
#159=CARTESIAN_POINT('Control Point',(4.61985450761,10.7802409952,16.5)) ;
#160=CARTESIAN_POINT('Control Point',(5.1635050462,10.8913028237,16.5)) ;
#161=CARTESIAN_POINT('Control Point',(6.26680986603,10.961710515,16.5)) ;
#162=CARTESIAN_POINT('Control Point',(7.34843223374,10.7329668626,16.5)) ;
#163=CARTESIAN_POINT('Control Point',(7.87039029206,10.5446841426,16.5)) ;
#164=CARTESIAN_POINT('Control Point',(8.84896527084,10.0302623033,16.5)) ;
#165=CARTESIAN_POINT('Control Point',(9.65325076442,9.27174039775,16.5)) ;
#166=CARTESIAN_POINT('Control Point',(10.0008102048,8.83919790805,16.5)) ;
#167=CARTESIAN_POINT('Control Point',(10.4934114866,8.01573550165,16.5)) ;
#168=CARTESIAN_POINT('Control Point',(10.7781653747,7.10365624754,16.5)) ;
#169=CARTESIAN_POINT('Control Point',(10.8593937024,6.70603980883,16.5)) ;
#170=CARTESIAN_POINT('Control Point',(10.9,6.30302008295,16.5)) ;
#171=CARTESIAN_POINT('Control Point',(10.9,5.90000000037,16.5)) ;
#179=CARTESIAN_POINT('Axis2P3D Location',(5.9,5.9,-17.56)) ;
#184=CARTESIAN_POINT('Axis2P3D Location',(5.9,5.9,-17.56)) ;
#188=CARTESIAN_POINT('Vertex',(5.9,5.9,17.5)) ;
#191=CARTESIAN_POINT('Axis2P3D Location',(5.9,5.9,-17.56)) ;
#203=CARTESIAN_POINT('Axis2P3D Location',(5.9,5.9,-17.56)) ;
#208=CARTESIAN_POINT('Axis2P3D Location',(5.9,5.9,-17.56)) ;
#220=CARTESIAN_POINT('Axis2P3D Location',(5.9,5.9,-17.56)) ;
#239=CARTESIAN_POINT('Axis2P3D Location',(5.9,5.9,16.5)) ;
#244=CARTESIAN_POINT('Line Origine',(0.9,5.9,16.5)) ;
#248=CARTESIAN_POINT('Vertex',(0.9,5.9,2.)) ;
#251=CARTESIAN_POINT('Axis2P3D Location',(5.9,5.9,2.)) ;
#255=CARTESIAN_POINT('Vertex',(10.9,5.9,2.)) ;
#258=CARTESIAN_POINT('Line Origine',(10.9,5.9,16.5)) ;
#271=CARTESIAN_POINT('Axis2P3D Location',(5.9,5.9,2.)) ;
#284=CARTESIAN_POINT('Axis2P3D Location',(5.9,5.9,0.)) ;
#289=CARTESIAN_POINT('Line Origine',(980588.874583,5.89999999976,4902891.87868)) ;
#293=CARTESIAN_POINT('Vertex',(10.5,5.9,0.)) ;
#296=CARTESIAN_POINT('Line Origine',(-980577.074583,5.90000000012,4902891.87868)) ;
#300=CARTESIAN_POINT('Vertex',(1.30000000002,5.9,-1.20334738445E-10)) ;
#303=CARTESIAN_POINT('Axis2P3D Location',(5.9,5.9,0.)) ;
#316=CARTESIAN_POINT('Axis2P3D Location',(5.9,5.9,0.)) ;
#329=CARTESIAN_POINT('Axis2P3D Location',(5.9,0.9,0.)) ;
#339=CARTESIAN_POINT('Control Point',(2.9,5.9,0.)) ;
#340=CARTESIAN_POINT('Control Point',(2.9,6.23937060115,0.)) ;
#341=CARTESIAN_POINT('Control Point',(2.9479885064,6.5787402151,0.)) ;
#342=CARTESIAN_POINT('Control Point',(3.04403500959,6.90922089227,0.)) ;
#343=CARTESIAN_POINT('Control Point',(3.32680470478,7.53367680466,0.)) ;
#344=CARTESIAN_POINT('Control Point',(3.77162514692,8.0552449128,0.)) ;
#345=CARTESIAN_POINT('Control Point',(4.02984292815,8.28276632454,0.)) ;
#346=CARTESIAN_POINT('Control Point',(4.60326386603,8.65838889921,0.)) ;
#347=CARTESIAN_POINT('Control Point',(5.25834618493,8.8602939943,0.)) ;
#348=CARTESIAN_POINT('Control Point',(5.59828878939,8.91397298809,0.)) ;
#349=CARTESIAN_POINT('Control Point',(6.28371458926,8.92373891611,0.)) ;
#350=CARTESIAN_POINT('Control Point',(6.94497121355,8.74307848983,0.)) ;
#351=CARTESIAN_POINT('Control Point',(7.26073125176,8.60619165938,0.)) ;
#352=CARTESIAN_POINT('Control Point',(7.84462098617,8.24705840737,0.)) ;
#353=CARTESIAN_POINT('Control Point',(8.3060407652,7.74011629447,0.)) ;
#354=CARTESIAN_POINT('Control Point',(8.49924478923,7.45531004774,0.)) ;
#355=CARTESIAN_POINT('Control Point',(8.73265601212,6.97663645728,0.)) ;
#356=CARTESIAN_POINT('Control Point',(8.85584994989,6.46226772404,0.)) ;
#357=CARTESIAN_POINT('Control Point',(8.88528399851,6.27586360556,0.)) ;
#358=CARTESIAN_POINT('Control Point',(8.9,6.0879319106,0.)) ;
#359=CARTESIAN_POINT('Control Point',(8.9,5.9,0.)) ;
#360=CARTESIAN_POINT('Vertex',(2.9,5.9,3.72523345504E-10)) ;
#362=CARTESIAN_POINT('Vertex',(8.9,5.9,0.)) ;
#366=CARTESIAN_POINT('Control Point',(8.9,5.9,0.)) ;
#367=CARTESIAN_POINT('Control Point',(8.9,5.56062939883,0.)) ;
#368=CARTESIAN_POINT('Control Point',(8.85201149359,5.22125978487,0.)) ;
#369=CARTESIAN_POINT('Control Point',(8.75596499041,4.89077910777,0.)) ;
#370=CARTESIAN_POINT('Control Point',(8.47319529615,4.26632319744,0.)) ;
#371=CARTESIAN_POINT('Control Point',(8.02837485606,3.74475509062,0.)) ;
#372=CARTESIAN_POINT('Control Point',(7.77015706988,3.51723367305,0.)) ;
#373=CARTESIAN_POINT('Control Point',(7.19673613412,3.1416111004,0.)) ;
#374=CARTESIAN_POINT('Control Point',(6.54165381796,2.93970600598,0.)) ;
#375=CARTESIAN_POINT('Control Point',(6.20171120956,2.88602701193,0.)) ;
#376=CARTESIAN_POINT('Control Point',(5.51628541023,2.87626108403,0.)) ;
#377=CARTESIAN_POINT('Control Point',(4.85502878647,3.05692151012,0.)) ;
#378=CARTESIAN_POINT('Control Point',(4.53926874826,3.19380834067,0.)) ;
#379=CARTESIAN_POINT('Control Point',(3.95537901383,3.55294159263,0.)) ;
#380=CARTESIAN_POINT('Control Point',(3.4939592348,4.05988370549,0.)) ;
#381=CARTESIAN_POINT('Control Point',(3.3007552108,4.34468995231,0.)) ;
#382=CARTESIAN_POINT('Control Point',(3.0673439879,4.8233635427,0.)) ;
#383=CARTESIAN_POINT('Control Point',(2.94415005011,5.33773227587,0.)) ;
#384=CARTESIAN_POINT('Control Point',(2.91471600148,5.52413639455,0.)) ;
#385=CARTESIAN_POINT('Control Point',(2.9,5.71206808946,0.)) ;
#386=CARTESIAN_POINT('Control Point',(2.9,5.9,0.)) ;
#394=CARTESIAN_POINT('Axis2P3D Location',(5.9,5.9,163.35)) ;
#399=CARTESIAN_POINT('Axis2P3D Location',(5.9,5.9,16.5000000004)) ;
#403=CARTESIAN_POINT('Vertex',(8.9,5.90000000037,16.5000000004)) ;
#405=CARTESIAN_POINT('Vertex',(2.9,5.9,16.5000000004)) ;
#408=CARTESIAN_POINT('Line Origine',(2.9,5.9,163.35)) ;
#413=CARTESIAN_POINT('Line Origine',(8.9,5.9,163.35)) ;
#426=CARTESIAN_POINT('Axis2P3D Location',(5.9,5.9,16.5000000004)) ;
#33=DIRECTION('Axis2P3D Direction',(0.,0.,-1.)) ;
#34=DIRECTION('Axis2P3D XDirection',(-1.,-2.64687485605E-28,-0.)) ;
#38=DIRECTION('Vector Direction',(0.,0.,-1.)) ;
#47=DIRECTION('Axis2P3D Direction',(0.,0.,-1.)) ;
#54=DIRECTION('Vector Direction',(0.,0.,-1.)) ;
#61=DIRECTION('Axis2P3D Direction',(0.,0.,-1.)) ;
#68=DIRECTION('Axis2P3D Direction',(0.,0.,-1.)) ;
#89=DIRECTION('Axis2P3D Direction',(0.,0.,-1.)) ;
#94=DIRECTION('Axis2P3D Direction',(0.,0.,-1.)) ;
#101=DIRECTION('Axis2P3D Direction',(0.,0.,-1.)) ;
#115=DIRECTION('Axis2P3D Direction',(0.,0.,1.)) ;
#116=DIRECTION('Axis2P3D XDirection',(1.,0.,0.)) ;
#180=DIRECTION('Axis2P3D Direction',(0.,0.,-1.)) ;
#181=DIRECTION('Axis2P3D XDirection',(1.,2.02664784872E-16,0.)) ;
#185=DIRECTION('Axis2P3D Direction',(-2.02664784872E-16,1.,0.)) ;
#192=DIRECTION('Axis2P3D Direction',(1.,2.63897124829E-16,0.)) ;
#204=DIRECTION('Axis2P3D Direction',(-0.,0.,-1.)) ;
#205=DIRECTION('Axis2P3D XDirection',(-1.,-3.29330275416E-16,0.)) ;
#209=DIRECTION('Axis2P3D Direction',(3.29330275416E-16,-1.,0.)) ;
#221=DIRECTION('Axis2P3D Direction',(-1.,-3.90562615373E-16,-0.)) ;
#240=DIRECTION('Axis2P3D Direction',(0.,0.,-1.)) ;
#241=DIRECTION('Axis2P3D XDirection',(-1.,-2.64687485605E-28,-0.)) ;
#245=DIRECTION('Vector Direction',(0.,0.,-1.)) ;
#252=DIRECTION('Axis2P3D Direction',(0.,0.,-1.)) ;
#259=DIRECTION('Vector Direction',(0.,0.,-1.)) ;
#272=DIRECTION('Axis2P3D Direction',(0.,0.,-1.)) ;
#285=DIRECTION('Axis2P3D Direction',(0.,0.,1.)) ;
#286=DIRECTION('Axis2P3D XDirection',(1.,0.,0.)) ;
#290=DIRECTION('Vector Direction',(0.196116134917,-4.80345302626E-17,0.980580675735)) ;
#297=DIRECTION('Vector Direction',(-0.196116134917,2.40172651313E-17,0.980580675735)) ;
#304=DIRECTION('Axis2P3D Direction',(0.,0.,1.)) ;
#317=DIRECTION('Axis2P3D Direction',(0.,0.,1.)) ;
#330=DIRECTION('Axis2P3D Direction',(0.,0.,1.)) ;
#331=DIRECTION('Axis2P3D XDirection',(1.,0.,0.)) ;
#395=DIRECTION('Axis2P3D Direction',(0.,0.,-1.)) ;
#396=DIRECTION('Axis2P3D XDirection',(-1.,0.,0.)) ;
#400=DIRECTION('Axis2P3D Direction',(0.,0.,-1.)) ;
#409=DIRECTION('Vector Direction',(0.,0.,-1.)) ;
#414=DIRECTION('Vector Direction',(0.,0.,-1.)) ;
#427=DIRECTION('Axis2P3D Direction',(0.,0.,-1.)) ;
#30=PRESENTATION_LAYER_ASSIGNMENT('1',' ',(#21)) ;
#8=PRODUCT_RELATED_PRODUCT_CATEGORY('part',$,(#5)) ;
#7=PRODUCT_CATEGORY('part','specification') ;
#29=STYLED_ITEM(' ',(#28),#21) ;
#28=PRESENTATION_STYLE_ASSIGNMENT((#27)) ;
#86=PRESENTATION_STYLE_ASSIGNMENT((#85)) ;
#27=SURFACE_STYLE_USAGE(.BOTH.,#26) ;
#85=SURFACE_STYLE_USAGE(.BOTH.,#84) ;
#26=SURFACE_SIDE_STYLE(' ',(#25)) ;
#84=SURFACE_SIDE_STYLE(' ',(#83)) ;
#25=SURFACE_STYLE_FILL_AREA(#24) ;
#83=SURFACE_STYLE_FILL_AREA(#82) ;
#24=FILL_AREA_STYLE(' ',(#23)) ;
#82=FILL_AREA_STYLE(' ',(#81)) ;
#23=FILL_AREA_STYLE_COLOUR(' ',#22) ;
#81=FILL_AREA_STYLE_COLOUR(' ',#80) ;
#39=VECTOR('Line Direction',#38,1.) ;
#55=VECTOR('Line Direction',#54,1.) ;
#246=VECTOR('Line Direction',#245,1.) ;
#260=VECTOR('Line Direction',#259,1.) ;
#291=VECTOR('Line Direction',#290,1.) ;
#298=VECTOR('Line Direction',#297,1.) ;
#410=VECTOR('Line Direction',#409,1.) ;
#415=VECTOR('Line Direction',#414,1.) ;
#15=UNCERTAINTY_MEASURE_WITH_UNIT(LENGTH_MEASURE(0.005),#12,'distance_accuracy_value','CONFUSED CURVE UNCERTAINTY') ;
#446=SHAPE_REPRESENTATION_RELATIONSHIP(' ',' ',#19,#445) ;
#73=ORIENTED_EDGE('',*,*,#45,.F.) ;
#74=ORIENTED_EDGE('',*,*,#52,.F.) ;
#75=ORIENTED_EDGE('',*,*,#59,.F.) ;
#76=ORIENTED_EDGE('',*,*,#66,.T.) ;
#77=ORIENTED_EDGE('',*,*,#71,.T.) ;
#106=ORIENTED_EDGE('',*,*,#59,.T.) ;
#107=ORIENTED_EDGE('',*,*,#92,.F.) ;
#108=ORIENTED_EDGE('',*,*,#45,.T.) ;
#109=ORIENTED_EDGE('',*,*,#99,.T.) ;
#110=ORIENTED_EDGE('',*,*,#104,.T.) ;
#120=ORIENTED_EDGE('',*,*,#92,.T.) ;
#121=ORIENTED_EDGE('',*,*,#52,.T.) ;
#174=ORIENTED_EDGE('',*,*,#149,.F.) ;
#175=ORIENTED_EDGE('',*,*,#172,.F.) ;
#197=ORIENTED_EDGE('',*,*,#66,.F.) ;
#198=ORIENTED_EDGE('',*,*,#190,.F.) ;
#199=ORIENTED_EDGE('',*,*,#195,.T.) ;
#214=ORIENTED_EDGE('',*,*,#212,.T.) ;
#215=ORIENTED_EDGE('',*,*,#71,.F.) ;
#216=ORIENTED_EDGE('',*,*,#195,.F.) ;
#226=ORIENTED_EDGE('',*,*,#99,.F.) ;
#227=ORIENTED_EDGE('',*,*,#212,.F.) ;
#228=ORIENTED_EDGE('',*,*,#224,.T.) ;
#233=ORIENTED_EDGE('',*,*,#190,.T.) ;
#234=ORIENTED_EDGE('',*,*,#104,.F.) ;
#235=ORIENTED_EDGE('',*,*,#224,.F.) ;
#264=ORIENTED_EDGE('',*,*,#250,.F.) ;
#265=ORIENTED_EDGE('',*,*,#257,.T.) ;
#266=ORIENTED_EDGE('',*,*,#262,.F.) ;
#267=ORIENTED_EDGE('',*,*,#149,.T.) ;
#277=ORIENTED_EDGE('',*,*,#262,.T.) ;
#278=ORIENTED_EDGE('',*,*,#275,.T.) ;
#279=ORIENTED_EDGE('',*,*,#250,.T.) ;
#280=ORIENTED_EDGE('',*,*,#172,.T.) ;
#309=ORIENTED_EDGE('',*,*,#295,.F.) ;
#310=ORIENTED_EDGE('',*,*,#257,.F.) ;
#311=ORIENTED_EDGE('',*,*,#302,.F.) ;
#312=ORIENTED_EDGE('',*,*,#307,.F.) ;
#322=ORIENTED_EDGE('',*,*,#302,.T.) ;
#323=ORIENTED_EDGE('',*,*,#275,.F.) ;
#324=ORIENTED_EDGE('',*,*,#295,.T.) ;
#325=ORIENTED_EDGE('',*,*,#320,.F.) ;
#335=ORIENTED_EDGE('',*,*,#307,.T.) ;
#336=ORIENTED_EDGE('',*,*,#320,.T.) ;
#389=ORIENTED_EDGE('',*,*,#364,.F.) ;
#390=ORIENTED_EDGE('',*,*,#387,.F.) ;
#419=ORIENTED_EDGE('',*,*,#407,.T.) ;
#420=ORIENTED_EDGE('',*,*,#412,.F.) ;
#421=ORIENTED_EDGE('',*,*,#364,.T.) ;
#422=ORIENTED_EDGE('',*,*,#417,.F.) ;
#432=ORIENTED_EDGE('',*,*,#430,.T.) ;
#433=ORIENTED_EDGE('',*,*,#417,.T.) ;
#434=ORIENTED_EDGE('',*,*,#387,.T.) ;
#435=ORIENTED_EDGE('',*,*,#412,.T.) ;
#440=ORIENTED_EDGE('',*,*,#430,.F.) ;
#441=ORIENTED_EDGE('',*,*,#407,.F.) ;
#176=FACE_BOUND('',#173,.T.) ;
#391=FACE_BOUND('',#388,.T.) ;
#31=CLOSED_SHELL('Closed Shell',(#79,#112,#177,#201,#218,#230,#237,#269,#282,#314,#327,#392,#424,#437,#443)) ;
#445=ADVANCED_BREP_SHAPE_REPRESENTATION('NONE',(#21),#16) ;
#79=ADVANCED_FACE('CABTITE BP 10MM PA',(#78),#36,.T.) ;
#112=ADVANCED_FACE('CABTITE BP 10MM PA',(#111),#36,.T.) ;
#177=ADVANCED_FACE('CABTITE BP 10MM PA',(#122,#176),#118,.F.) ;
#201=ADVANCED_FACE('CABTITE BP 10MM PA',(#200),#183,.T.) ;
#218=ADVANCED_FACE('CABTITE BP 10MM PA',(#217),#207,.T.) ;
#230=ADVANCED_FACE('CABTITE BP 10MM PA',(#229),#207,.T.) ;
#237=ADVANCED_FACE('CABTITE BP 10MM PA',(#236),#207,.T.) ;
#269=ADVANCED_FACE('CABTITE BP 10MM PA',(#268),#243,.T.) ;
#282=ADVANCED_FACE('CABTITE BP 10MM PA',(#281),#243,.T.) ;
#314=ADVANCED_FACE('CABTITE BP 10MM PA',(#313),#288,.T.) ;
#327=ADVANCED_FACE('CABTITE BP 10MM PA',(#326),#288,.T.) ;
#392=ADVANCED_FACE('CABTITE BP 10MM PA',(#337,#391),#333,.F.) ;
#424=ADVANCED_FACE('CABTITE BP 10MM PA',(#423),#398,.F.) ;
#437=ADVANCED_FACE('CABTITE BP 10MM PA',(#436),#398,.F.) ;
#443=ADVANCED_FACE('CABTITE BP 10MM PA',(#442),#118,.F.) ;
#4=APPLICATION_PROTOCOL_DEFINITION('international standard','automotive_design',2001,#1) ;
#123=B_SPLINE_CURVE_WITH_KNOTS('',5,(#124,#125,#126,#127,#128,#129,#130,#131,#132,#133,#134,#135,#136,#137,#138,#139,#140,#141,#142,#143,#144),.UNSPECIFIED.,.F.,.U.,(6,3,3,3,3,3,6),(0.,3.88412014572,7.76824028112,11.6523603872,15.5364805384,19.4206007583,22.2788822676),.UNSPECIFIED.) ;
#150=B_SPLINE_CURVE_WITH_KNOTS('',5,(#151,#152,#153,#154,#155,#156,#157,#158,#159,#160,#161,#162,#163,#164,#165,#166,#167,#168,#169,#170,#171),.UNSPECIFIED.,.F.,.U.,(6,3,3,3,3,3,6),(0.,3.88412012039,7.76824021166,11.6523603393,15.5364805444,19.4206007932,22.2788822923),.UNSPECIFIED.) ;
#338=B_SPLINE_CURVE_WITH_KNOTS('',5,(#339,#340,#341,#342,#343,#344,#345,#346,#347,#348,#349,#350,#351,#352,#353,#354,#355,#356,#357,#358,#359),.UNSPECIFIED.,.F.,.U.,(6,3,3,3,3,3,6),(0.,2.40727047744,4.8145409346,7.22181140868,9.62908189141,12.0363524115,13.3694170276),.UNSPECIFIED.) ;
#365=B_SPLINE_CURVE_WITH_KNOTS('',5,(#366,#367,#368,#369,#370,#371,#372,#373,#374,#375,#376,#377,#378,#379,#380,#381,#382,#383,#384,#385,#386),.UNSPECIFIED.,.F.,.U.,(6,3,3,3,3,3,6),(0.,2.40727047761,4.81454091889,7.22181138927,9.62908187196,12.036352392,13.3694170078),.UNSPECIFIED.) ;
#21=MANIFOLD_SOLID_BREP('CABTITE BP 10MM PA',#31) ;
#49=CIRCLE('generated circle',#48,5.9) ;
#63=CIRCLE('generated circle',#62,5.9) ;
#70=CIRCLE('generated circle',#69,5.9) ;
#91=CIRCLE('generated circle',#90,5.9) ;
#96=CIRCLE('generated circle',#95,5.9) ;
#103=CIRCLE('generated circle',#102,5.9) ;
#187=CIRCLE('generated circle',#186,35.06) ;
#194=CIRCLE('generated circle',#193,35.06) ;
#211=CIRCLE('generated circle',#210,35.06) ;
#223=CIRCLE('generated circle',#222,35.06) ;
#254=CIRCLE('generated circle',#253,5.) ;
#274=CIRCLE('generated circle',#273,5.) ;
#306=CIRCLE('generated circle',#305,4.6) ;
#319=CIRCLE('generated circle',#318,4.6) ;
#402=CIRCLE('generated circle',#401,3.) ;
#429=CIRCLE('generated circle',#428,3.) ;
#22=COLOUR_RGB('Colour',0.823529411765,0.823529411765,1.) ;
#80=COLOUR_RGB('Colour',0.964705882353,0.937254901961,0.894117647059) ;
#288=CONICAL_SURFACE('Cone',#287,4.6,0.197395559624) ;
#87=OVER_RIDING_STYLED_ITEM(' ',(#86),#79,#29) ;
#113=OVER_RIDING_STYLED_ITEM(' ',(#86),#112,#29) ;
#178=OVER_RIDING_STYLED_ITEM(' ',(#86),#177,#29) ;
#202=OVER_RIDING_STYLED_ITEM(' ',(#86),#201,#29) ;
#219=OVER_RIDING_STYLED_ITEM(' ',(#86),#218,#29) ;
#231=OVER_RIDING_STYLED_ITEM(' ',(#86),#230,#29) ;
#238=OVER_RIDING_STYLED_ITEM(' ',(#86),#237,#29) ;
#270=OVER_RIDING_STYLED_ITEM(' ',(#86),#269,#29) ;
#283=OVER_RIDING_STYLED_ITEM(' ',(#86),#282,#29) ;
#315=OVER_RIDING_STYLED_ITEM(' ',(#86),#314,#29) ;
#328=OVER_RIDING_STYLED_ITEM(' ',(#86),#327,#29) ;
#393=OVER_RIDING_STYLED_ITEM(' ',(#86),#392,#29) ;
#425=OVER_RIDING_STYLED_ITEM(' ',(#86),#424,#29) ;
#438=OVER_RIDING_STYLED_ITEM(' ',(#86),#437,#29) ;
#444=OVER_RIDING_STYLED_ITEM(' ',(#86),#443,#29) ;
#36=CYLINDRICAL_SURFACE('generated cylinder',#35,5.9) ;
#243=CYLINDRICAL_SURFACE('generated cylinder',#242,5.) ;
#398=CYLINDRICAL_SURFACE('generated cylinder',#397,3.) ;
#45=EDGE_CURVE('',#42,#44,#40,.F.) ;
#52=EDGE_CURVE('',#51,#42,#49,.T.) ;
#59=EDGE_CURVE('',#58,#51,#56,.T.) ;
#66=EDGE_CURVE('',#58,#65,#63,.T.) ;
#71=EDGE_CURVE('',#65,#44,#70,.T.) ;
#92=EDGE_CURVE('',#42,#51,#91,.T.) ;
#99=EDGE_CURVE('',#44,#98,#96,.T.) ;
#104=EDGE_CURVE('',#98,#58,#103,.T.) ;
#149=EDGE_CURVE('',#146,#148,#123,.T.) ;
#172=EDGE_CURVE('',#148,#146,#150,.T.) ;
#190=EDGE_CURVE('',#189,#58,#187,.T.) ;
#195=EDGE_CURVE('',#189,#65,#194,.T.) ;
#212=EDGE_CURVE('',#189,#44,#211,.T.) ;
#224=EDGE_CURVE('',#189,#98,#223,.T.) ;
#250=EDGE_CURVE('',#249,#148,#247,.F.) ;
#257=EDGE_CURVE('',#249,#256,#254,.F.) ;
#262=EDGE_CURVE('',#146,#256,#261,.T.) ;
#275=EDGE_CURVE('',#256,#249,#274,.F.) ;
#295=EDGE_CURVE('',#256,#294,#292,.F.) ;
#302=EDGE_CURVE('',#301,#249,#299,.T.) ;
#307=EDGE_CURVE('',#294,#301,#306,.F.) ;
#320=EDGE_CURVE('',#301,#294,#319,.F.) ;
#364=EDGE_CURVE('',#361,#363,#338,.T.) ;
#387=EDGE_CURVE('',#363,#361,#365,.T.) ;
#407=EDGE_CURVE('',#404,#406,#402,.F.) ;
#412=EDGE_CURVE('',#361,#406,#411,.F.) ;
#417=EDGE_CURVE('',#404,#363,#416,.T.) ;
#430=EDGE_CURVE('',#406,#404,#429,.F.) ;
#72=EDGE_LOOP('',(#73,#74,#75,#76,#77)) ;
#105=EDGE_LOOP('',(#106,#107,#108,#109,#110)) ;
#119=EDGE_LOOP('',(#120,#121)) ;
#173=EDGE_LOOP('',(#174,#175)) ;
#196=EDGE_LOOP('',(#197,#198,#199)) ;
#213=EDGE_LOOP('',(#214,#215,#216)) ;
#225=EDGE_LOOP('',(#226,#227,#228)) ;
#232=EDGE_LOOP('',(#233,#234,#235)) ;
#263=EDGE_LOOP('',(#264,#265,#266,#267)) ;
#276=EDGE_LOOP('',(#277,#278,#279,#280)) ;
#308=EDGE_LOOP('',(#309,#310,#311,#312)) ;
#321=EDGE_LOOP('',(#322,#323,#324,#325)) ;
#334=EDGE_LOOP('',(#335,#336)) ;
#388=EDGE_LOOP('',(#389,#390)) ;
#418=EDGE_LOOP('',(#419,#420,#421,#422)) ;
#431=EDGE_LOOP('',(#432,#433,#434,#435)) ;
#439=EDGE_LOOP('',(#440,#441)) ;
#78=FACE_OUTER_BOUND('',#72,.T.) ;
#111=FACE_OUTER_BOUND('',#105,.T.) ;
#122=FACE_OUTER_BOUND('',#119,.T.) ;
#200=FACE_OUTER_BOUND('',#196,.T.) ;
#217=FACE_OUTER_BOUND('',#213,.T.) ;
#229=FACE_OUTER_BOUND('',#225,.T.) ;
#236=FACE_OUTER_BOUND('',#232,.T.) ;
#268=FACE_OUTER_BOUND('',#263,.T.) ;
#281=FACE_OUTER_BOUND('',#276,.T.) ;
#313=FACE_OUTER_BOUND('',#308,.T.) ;
#326=FACE_OUTER_BOUND('',#321,.T.) ;
#337=FACE_OUTER_BOUND('',#334,.T.) ;
#423=FACE_OUTER_BOUND('',#418,.T.) ;
#436=FACE_OUTER_BOUND('',#431,.T.) ;
#442=FACE_OUTER_BOUND('',#439,.T.) ;
#40=LINE('Line',#37,#39) ;
#56=LINE('Line',#53,#55) ;
#247=LINE('Line',#244,#246) ;
#261=LINE('Line',#258,#260) ;
#292=LINE('Line',#289,#291) ;
#299=LINE('Line',#296,#298) ;
#411=LINE('Line',#408,#410) ;
#416=LINE('Line',#413,#415) ;
#118=PLANE('',#117) ;
#333=PLANE('',#332) ;
#9=PRODUCT_CATEGORY_RELATIONSHIP(' ',' ',#7,#8) ;
#6=PRODUCT_DEFINITION_FORMATION_WITH_SPECIFIED_SOURCE(' ',' ',#5,.NOT_KNOWN.) ;
#20=SHAPE_DEFINITION_REPRESENTATION(#11,#19) ;
#183=SPHERICAL_SURFACE('',#182,35.06) ;
#207=SPHERICAL_SURFACE('',#206,35.06) ;
#42=VERTEX_POINT('',#41) ;
#44=VERTEX_POINT('',#43) ;
#51=VERTEX_POINT('',#50) ;
#58=VERTEX_POINT('',#57) ;
#65=VERTEX_POINT('',#64) ;
#98=VERTEX_POINT('',#97) ;
#146=VERTEX_POINT('',#145) ;
#148=VERTEX_POINT('',#147) ;
#189=VERTEX_POINT('',#188) ;
#249=VERTEX_POINT('',#248) ;
#256=VERTEX_POINT('',#255) ;
#294=VERTEX_POINT('',#293) ;
#301=VERTEX_POINT('',#300) ;
#361=VERTEX_POINT('',#360) ;
#363=VERTEX_POINT('',#362) ;
#404=VERTEX_POINT('',#403) ;
#406=VERTEX_POINT('',#405) ;
#12=(LENGTH_UNIT()NAMED_UNIT(*)SI_UNIT(.MILLI.,.METRE.)) ;
#13=(NAMED_UNIT(*)PLANE_ANGLE_UNIT()SI_UNIT($,.RADIAN.)) ;
#14=(NAMED_UNIT(*)SI_UNIT($,.STERADIAN.)SOLID_ANGLE_UNIT()) ;
#16=(GEOMETRIC_REPRESENTATION_CONTEXT(3)GLOBAL_UNCERTAINTY_ASSIGNED_CONTEXT((#15))GLOBAL_UNIT_ASSIGNED_CONTEXT((#12,#13,#14))REPRESENTATION_CONTEXT(' ',' ')) ;
ENDSEC;
END-ISO-10303-21;
