ISO-10303-21;
HEADER;
FILE_DESCRIPTION(('CATIA V5R24 STEP','CAx-IF Rec.Pracs.--- Model Styling and Organization---1.2---2011-12-15'),'2;1');

FILE_NAME ('036039-1_1_1071200000_1071200000.stp','2018-09-06T09:14:00+00:00',('none'),('Weidmueller'),'CATIA Version 5-6 Release 2014 SP4 HF52','CATIA V5 STEP AP214','none');

FILE_SCHEMA(('AUTOMOTIVE_DESIGN { 1 0 10303 214 1 1 1 1 }'));

ENDSEC;
DATA;
#5=PRODUCT('1071200000','','',(#2)) ;
#2=PRODUCT_CONTEXT(' ',#1,'mechanical') ;
#1=APPLICATION_CONTEXT('automotive design') ;
#10=PRODUCT_DEFINITION('',' ',#6,#3) ;
#3=PRODUCT_DEFINITION_CONTEXT('part definition',#1,' ') ;
#11=PRODUCT_DEFINITION_SHAPE(' ',' ',#10) ;
#331=MECHANICAL_DESIGN_GEOMETRIC_PRESENTATION_REPRESENTATION(' ',(#46),#16) ;
#19=SHAPE_REPRESENTATION(' ',(#18),#16) ;
#18=AXIS2_PLACEMENT_3D(' ',#17,$,$) ;
#24=AXIS2_PLACEMENT_3D('Plane Axis2P3D',#21,#22,#23) ;
#31=AXIS2_PLACEMENT_3D('Plane Axis2P3D',#28,#29,#30) ;
#36=AXIS2_PLACEMENT_3D('Plane Axis2P3D',#33,#34,#35) ;
#52=AXIS2_PLACEMENT_3D('Cylinder Axis2P3D',#49,#50,#51) ;
#65=AXIS2_PLACEMENT_3D('Circle Axis2P3D',#63,#64,$) ;
#79=AXIS2_PLACEMENT_3D('Circle Axis2P3D',#77,#78,$) ;
#92=AXIS2_PLACEMENT_3D('Plane Axis2P3D',#89,#90,#91) ;
#123=AXIS2_PLACEMENT_3D('Cylinder Axis2P3D',#120,#121,#122) ;
#127=AXIS2_PLACEMENT_3D('Circle Axis2P3D',#125,#126,$) ;
#141=AXIS2_PLACEMENT_3D('Circle Axis2P3D',#139,#140,$) ;
#154=AXIS2_PLACEMENT_3D('Plane Axis2P3D',#151,#152,#153) ;
#185=AXIS2_PLACEMENT_3D('Cylinder Axis2P3D',#182,#183,#184) ;
#189=AXIS2_PLACEMENT_3D('Circle Axis2P3D',#187,#188,$) ;
#203=AXIS2_PLACEMENT_3D('Circle Axis2P3D',#201,#202,$) ;
#216=AXIS2_PLACEMENT_3D('Plane Axis2P3D',#213,#214,#215) ;
#247=AXIS2_PLACEMENT_3D('Cylinder Axis2P3D',#244,#245,#246) ;
#251=AXIS2_PLACEMENT_3D('Circle Axis2P3D',#249,#250,$) ;
#265=AXIS2_PLACEMENT_3D('Circle Axis2P3D',#263,#264,$) ;
#278=AXIS2_PLACEMENT_3D('Plane Axis2P3D',#275,#276,#277) ;
#300=AXIS2_PLACEMENT_3D('Plane Axis2P3D',#297,#298,#299) ;
#316=AXIS2_PLACEMENT_3D('Plane Axis2P3D',#313,#314,#315) ;
#17=CARTESIAN_POINT(' ',(0.,0.,0.)) ;
#21=CARTESIAN_POINT('Axis2P3D Location',(0.,0.,0.)) ;
#28=CARTESIAN_POINT('Axis2P3D Location',(0.,0.,0.)) ;
#33=CARTESIAN_POINT('Axis2P3D Location',(0.,0.,0.)) ;
#49=CARTESIAN_POINT('Axis2P3D Location',(500.,7.,0.300000000001)) ;
#54=CARTESIAN_POINT('Line Origine',(500.,7.3,0.300000000001)) ;
#58=CARTESIAN_POINT('Vertex',(1000.,7.3,0.300000000001)) ;
#60=CARTESIAN_POINT('Vertex',(2.05536573933E-015,7.3,0.3)) ;
#63=CARTESIAN_POINT('Axis2P3D Location',(1000.,7.,0.300000000001)) ;
#67=CARTESIAN_POINT('Vertex',(1000.,7.,1.0220867793E-012)) ;
#70=CARTESIAN_POINT('Line Origine',(500.,7.,5.79758463459E-013)) ;
#74=CARTESIAN_POINT('Vertex',(1.95201295388E-015,7.,5.57486586663E-014)) ;
#77=CARTESIAN_POINT('Axis2P3D Location',(-5.68434188608E-014,7.,0.3)) ;
#89=CARTESIAN_POINT('Axis2P3D Location',(500.,7.,5.11590769747E-013)) ;
#94=CARTESIAN_POINT('Line Origine',(1000.,3.65,9.86501277915E-013)) ;
#98=CARTESIAN_POINT('Vertex',(1000.,0.299999999999,1.023607259E-012)) ;
#101=CARTESIAN_POINT('Line Origine',(500.,0.299999999999,5.12001026425E-013)) ;
#105=CARTESIAN_POINT('Vertex',(-6.71725134425E-015,0.3,5.72691383687E-014)) ;
#108=CARTESIAN_POINT('Line Origine',(-5.68434188608E-014,3.65,3.70905182574E-014)) ;
#120=CARTESIAN_POINT('Axis2P3D Location',(500.,0.299999999999,0.300000000001)) ;
#125=CARTESIAN_POINT('Axis2P3D Location',(1000.,0.299999999999,0.300000000001)) ;
#129=CARTESIAN_POINT('Vertex',(1000.,-1.31381955764E-012,0.300000000001)) ;
#132=CARTESIAN_POINT('Line Origine',(500.,-6.0595972684E-013,0.300000000001)) ;
#136=CARTESIAN_POINT('Vertex',(-7.3902505855E-015,6.46333497352E-014,0.3)) ;
#139=CARTESIAN_POINT('Axis2P3D Location',(-5.68434188608E-014,0.3,0.3)) ;
#151=CARTESIAN_POINT('Axis2P3D Location',(500.,-6.17284001692E-013,0.900000000001)) ;
#156=CARTESIAN_POINT('Line Origine',(1000.,-1.26426239364E-012,0.600000000001)) ;
#160=CARTESIAN_POINT('Vertex',(1000.,-1.31356077363E-012,0.900000000001)) ;
#163=CARTESIAN_POINT('Line Origine',(500.,-6.17284001692E-013,0.900000000001)) ;
#167=CARTESIAN_POINT('Vertex',(-7.95989704129E-015,6.48921337441E-014,0.9)) ;
#170=CARTESIAN_POINT('Line Origine',(-5.68434188608E-014,2.96576508551E-014,0.6)) ;
#182=CARTESIAN_POINT('Axis2P3D Location',(500.,0.299999999999,0.900000000001)) ;
#187=CARTESIAN_POINT('Axis2P3D Location',(1000.,0.299999999999,0.900000000001)) ;
#191=CARTESIAN_POINT('Vertex',(1000.,0.299999999999,1.2)) ;
#194=CARTESIAN_POINT('Line Origine',(500.,0.299999999999,1.2)) ;
#198=CARTESIAN_POINT('Vertex',(-7.85654425584E-015,0.3,1.2)) ;
#201=CARTESIAN_POINT('Axis2P3D Location',(-5.68434188608E-014,0.3,0.9)) ;
#213=CARTESIAN_POINT('Axis2P3D Location',(500.,0.299999999999,1.2)) ;
#218=CARTESIAN_POINT('Line Origine',(1000.,3.65,1.2)) ;
#222=CARTESIAN_POINT('Vertex',(1000.,7.,1.2)) ;
#225=CARTESIAN_POINT('Line Origine',(500.,7.,1.2)) ;
#229=CARTESIAN_POINT('Vertex',(8.12720042291E-016,7.,1.2)) ;
#232=CARTESIAN_POINT('Line Origine',(-5.68434188608E-014,3.65,1.2)) ;
#244=CARTESIAN_POINT('Axis2P3D Location',(500.,7.,0.900000000001)) ;
#249=CARTESIAN_POINT('Axis2P3D Location',(1000.,7.,0.900000000001)) ;
#253=CARTESIAN_POINT('Vertex',(1000.,7.3,0.900000000001)) ;
#256=CARTESIAN_POINT('Line Origine',(500.,7.3,0.900000000001)) ;
#260=CARTESIAN_POINT('Vertex',(1.48571928354E-015,7.3,0.9)) ;
#263=CARTESIAN_POINT('Axis2P3D Location',(-5.68434188608E-014,7.,0.9)) ;
#275=CARTESIAN_POINT('Axis2P3D Location',(500.,7.3,0.300000000001)) ;
#280=CARTESIAN_POINT('Line Origine',(1000.,7.3,0.600000000001)) ;
#285=CARTESIAN_POINT('Line Origine',(-5.68434188608E-014,7.3,0.6)) ;
#297=CARTESIAN_POINT('Axis2P3D Location',(1000.,-1.31361588274E-012,1.02318153949E-012)) ;
#313=CARTESIAN_POINT('Axis2P3D Location',(-7.1054273576E-015,6.48370246381E-014,5.68434188608E-014)) ;
#22=DIRECTION('Axis2P3D Direction',(0.,0.,1.)) ;
#23=DIRECTION('Axis2P3D XDirection',(1.,0.,0.)) ;
#29=DIRECTION('Axis2P3D Direction',(1.,0.,0.)) ;
#30=DIRECTION('Axis2P3D XDirection',(0.,1.,0.)) ;
#34=DIRECTION('Axis2P3D Direction',(0.,1.,0.)) ;
#35=DIRECTION('Axis2P3D XDirection',(0.,0.,1.)) ;
#50=DIRECTION('Axis2P3D Direction',(-1.,1.2939200445E-015,-9.49410759657E-016)) ;
#51=DIRECTION('Axis2P3D XDirection',(1.2939200445E-015,1.,-8.881784197E-016)) ;
#55=DIRECTION('Vector Direction',(-1.,1.29318777908E-015,-9.49462730659E-016)) ;
#64=DIRECTION('Axis2P3D Direction',(-1.,1.2939200445E-015,-9.49410759657E-016)) ;
#71=DIRECTION('Vector Direction',(-1.,1.29318777908E-015,-9.49462730659E-016)) ;
#78=DIRECTION('Axis2P3D Direction',(-1.,1.2939200445E-015,-9.49410759657E-016)) ;
#90=DIRECTION('Axis2P3D Direction',(9.49410759657E-016,-6.12323399574E-017,-1.)) ;
#91=DIRECTION('Axis2P3D XDirection',(-1.2939200445E-015,-1.,6.12323399574E-017)) ;
#95=DIRECTION('Vector Direction',(0.,-1.,6.12323399574E-017)) ;
#102=DIRECTION('Vector Direction',(-1.,1.2939649352E-015,-9.49410759657E-016)) ;
#109=DIRECTION('Vector Direction',(0.,-1.,6.12323399574E-017)) ;
#121=DIRECTION('Axis2P3D Direction',(-1.,1.2939200445E-015,-9.49410759657E-016)) ;
#122=DIRECTION('Axis2P3D XDirection',(9.49410759657E-016,-3.82856869893E-016,-1.)) ;
#126=DIRECTION('Axis2P3D Direction',(-1.,1.2939200445E-015,-9.49410759657E-016)) ;
#133=DIRECTION('Vector Direction',(-1.,1.2939649352E-015,-9.49462730659E-016)) ;
#140=DIRECTION('Axis2P3D Direction',(-1.,1.2939200445E-015,-9.49410759657E-016)) ;
#152=DIRECTION('Axis2P3D Direction',(1.2939200445E-015,1.,-6.12323399574E-017)) ;
#153=DIRECTION('Axis2P3D XDirection',(9.49410759657E-016,-6.12323399574E-017,-1.)) ;
#157=DIRECTION('Vector Direction',(0.,-6.12323399575E-017,-1.)) ;
#164=DIRECTION('Vector Direction',(-1.,1.2939200445E-015,-9.49462730659E-016)) ;
#171=DIRECTION('Vector Direction',(0.,-6.12323399573E-017,-1.)) ;
#183=DIRECTION('Axis2P3D Direction',(-1.,1.2939200445E-015,-9.49410759657E-016)) ;
#184=DIRECTION('Axis2P3D XDirection',(-1.2939200445E-015,-1.,7.65713739785E-016)) ;
#188=DIRECTION('Axis2P3D Direction',(-1.,1.2939200445E-015,-9.49410759657E-016)) ;
#195=DIRECTION('Vector Direction',(-1.,1.2939649352E-015,-9.49462730659E-016)) ;
#202=DIRECTION('Axis2P3D Direction',(-1.,1.2939200445E-015,-9.49410759657E-016)) ;
#214=DIRECTION('Axis2P3D Direction',(-9.49410759657E-016,6.12323399574E-017,1.)) ;
#215=DIRECTION('Axis2P3D XDirection',(1.2939200445E-015,1.,-6.12323399574E-017)) ;
#219=DIRECTION('Vector Direction',(0.,1.,-6.62819716194E-017)) ;
#226=DIRECTION('Vector Direction',(-1.,1.29318777908E-015,-9.49462730659E-016)) ;
#233=DIRECTION('Vector Direction',(0.,1.,-6.62819716194E-017)) ;
#245=DIRECTION('Axis2P3D Direction',(-1.,1.2939200445E-015,-9.49410759657E-016)) ;
#246=DIRECTION('Axis2P3D XDirection',(-9.49410759657E-016,1.22462657648E-016,1.)) ;
#250=DIRECTION('Axis2P3D Direction',(-1.,1.2939200445E-015,-9.49410759657E-016)) ;
#257=DIRECTION('Vector Direction',(-1.,1.29318777908E-015,-9.49462730659E-016)) ;
#264=DIRECTION('Axis2P3D Direction',(-1.,1.2939200445E-015,-9.49410759657E-016)) ;
#276=DIRECTION('Axis2P3D Direction',(-1.2939200445E-015,-1.,6.12323399574E-017)) ;
#277=DIRECTION('Axis2P3D XDirection',(-9.49410759657E-016,6.12323399574E-017,1.)) ;
#281=DIRECTION('Vector Direction',(0.,0.,1.)) ;
#286=DIRECTION('Vector Direction',(0.,0.,1.)) ;
#298=DIRECTION('Axis2P3D Direction',(-1.,1.2939200445E-015,-9.49410759657E-016)) ;
#299=DIRECTION('Axis2P3D XDirection',(-9.49410759657E-016,6.12323399574E-017,1.)) ;
#314=DIRECTION('Axis2P3D Direction',(-1.,1.2939200445E-015,-9.49410759657E-016)) ;
#315=DIRECTION('Axis2P3D XDirection',(-9.49410759657E-016,6.12323399574E-017,1.)) ;
#47=PRESENTATION_LAYER_ASSIGNMENT('1',' ',(#38)) ;
#8=PRODUCT_RELATED_PRODUCT_CATEGORY('part',$,(#5)) ;
#7=PRODUCT_CATEGORY('part','specification') ;
#46=STYLED_ITEM(' ',(#45),#38) ;
#45=PRESENTATION_STYLE_ASSIGNMENT((#44)) ;
#44=SURFACE_STYLE_USAGE(.BOTH.,#43) ;
#43=SURFACE_SIDE_STYLE(' ',(#42)) ;
#42=SURFACE_STYLE_FILL_AREA(#41) ;
#41=FILL_AREA_STYLE(' ',(#40)) ;
#40=FILL_AREA_STYLE_COLOUR(' ',#39) ;
#56=VECTOR('Line Direction',#55,1.) ;
#72=VECTOR('Line Direction',#71,1.) ;
#96=VECTOR('Line Direction',#95,1.) ;
#103=VECTOR('Line Direction',#102,1.) ;
#110=VECTOR('Line Direction',#109,1.) ;
#134=VECTOR('Line Direction',#133,1.) ;
#158=VECTOR('Line Direction',#157,1.) ;
#165=VECTOR('Line Direction',#164,1.) ;
#172=VECTOR('Line Direction',#171,1.) ;
#196=VECTOR('Line Direction',#195,1.) ;
#220=VECTOR('Line Direction',#219,1.) ;
#227=VECTOR('Line Direction',#226,1.) ;
#234=VECTOR('Line Direction',#233,1.) ;
#258=VECTOR('Line Direction',#257,1.) ;
#282=VECTOR('Line Direction',#281,1.) ;
#287=VECTOR('Line Direction',#286,1.) ;
#15=UNCERTAINTY_MEASURE_WITH_UNIT(LENGTH_MEASURE(0.005),#12,'distance_accuracy_value','CONFUSED CURVE UNCERTAINTY') ;
#330=SHAPE_REPRESENTATION_RELATIONSHIP(' ',' ',#19,#329) ;
#83=ORIENTED_EDGE('',*,*,#62,.F.) ;
#84=ORIENTED_EDGE('',*,*,#69,.T.) ;
#85=ORIENTED_EDGE('',*,*,#76,.T.) ;
#86=ORIENTED_EDGE('',*,*,#81,.F.) ;
#114=ORIENTED_EDGE('',*,*,#76,.F.) ;
#115=ORIENTED_EDGE('',*,*,#100,.T.) ;
#116=ORIENTED_EDGE('',*,*,#107,.T.) ;
#117=ORIENTED_EDGE('',*,*,#112,.F.) ;
#145=ORIENTED_EDGE('',*,*,#107,.F.) ;
#146=ORIENTED_EDGE('',*,*,#131,.T.) ;
#147=ORIENTED_EDGE('',*,*,#138,.T.) ;
#148=ORIENTED_EDGE('',*,*,#143,.F.) ;
#176=ORIENTED_EDGE('',*,*,#138,.F.) ;
#177=ORIENTED_EDGE('',*,*,#162,.T.) ;
#178=ORIENTED_EDGE('',*,*,#169,.T.) ;
#179=ORIENTED_EDGE('',*,*,#174,.F.) ;
#207=ORIENTED_EDGE('',*,*,#169,.F.) ;
#208=ORIENTED_EDGE('',*,*,#193,.T.) ;
#209=ORIENTED_EDGE('',*,*,#200,.T.) ;
#210=ORIENTED_EDGE('',*,*,#205,.F.) ;
#238=ORIENTED_EDGE('',*,*,#200,.F.) ;
#239=ORIENTED_EDGE('',*,*,#224,.T.) ;
#240=ORIENTED_EDGE('',*,*,#231,.T.) ;
#241=ORIENTED_EDGE('',*,*,#236,.F.) ;
#269=ORIENTED_EDGE('',*,*,#231,.F.) ;
#270=ORIENTED_EDGE('',*,*,#255,.T.) ;
#271=ORIENTED_EDGE('',*,*,#262,.T.) ;
#272=ORIENTED_EDGE('',*,*,#267,.F.) ;
#291=ORIENTED_EDGE('',*,*,#262,.F.) ;
#292=ORIENTED_EDGE('',*,*,#284,.T.) ;
#293=ORIENTED_EDGE('',*,*,#62,.T.) ;
#294=ORIENTED_EDGE('',*,*,#289,.F.) ;
#303=ORIENTED_EDGE('',*,*,#284,.F.) ;
#304=ORIENTED_EDGE('',*,*,#255,.F.) ;
#305=ORIENTED_EDGE('',*,*,#224,.F.) ;
#306=ORIENTED_EDGE('',*,*,#193,.F.) ;
#307=ORIENTED_EDGE('',*,*,#162,.F.) ;
#308=ORIENTED_EDGE('',*,*,#131,.F.) ;
#309=ORIENTED_EDGE('',*,*,#100,.F.) ;
#310=ORIENTED_EDGE('',*,*,#69,.F.) ;
#319=ORIENTED_EDGE('',*,*,#81,.T.) ;
#320=ORIENTED_EDGE('',*,*,#112,.T.) ;
#321=ORIENTED_EDGE('',*,*,#143,.T.) ;
#322=ORIENTED_EDGE('',*,*,#174,.T.) ;
#323=ORIENTED_EDGE('',*,*,#205,.T.) ;
#324=ORIENTED_EDGE('',*,*,#236,.T.) ;
#325=ORIENTED_EDGE('',*,*,#267,.T.) ;
#326=ORIENTED_EDGE('',*,*,#289,.T.) ;
#48=CLOSED_SHELL('Closed Shell',(#88,#119,#150,#181,#212,#243,#274,#296,#312,#328)) ;
#329=ADVANCED_BREP_SHAPE_REPRESENTATION('NONE',(#38),#16) ;
#88=ADVANCED_FACE('K\X2\00F6\X0\rper.3',(#87),#53,.T.) ;
#119=ADVANCED_FACE('K\X2\00F6\X0\rper.3',(#118),#93,.T.) ;
#150=ADVANCED_FACE('K\X2\00F6\X0\rper.3',(#149),#124,.T.) ;
#181=ADVANCED_FACE('K\X2\00F6\X0\rper.3',(#180),#155,.F.) ;
#212=ADVANCED_FACE('K\X2\00F6\X0\rper.3',(#211),#186,.T.) ;
#243=ADVANCED_FACE('K\X2\00F6\X0\rper.3',(#242),#217,.T.) ;
#274=ADVANCED_FACE('K\X2\00F6\X0\rper.3',(#273),#248,.T.) ;
#296=ADVANCED_FACE('K\X2\00F6\X0\rper.3',(#295),#279,.F.) ;
#312=ADVANCED_FACE('K\X2\00F6\X0\rper.3',(#311),#301,.F.) ;
#328=ADVANCED_FACE('K\X2\00F6\X0\rper.3',(#327),#317,.T.) ;
#4=APPLICATION_PROTOCOL_DEFINITION('international standard','automotive_design',2001,#1) ;
#38=MANIFOLD_SOLID_BREP('K\X2\00F6\X0\rper.3',#48) ;
#66=CIRCLE('generated circle',#65,0.3) ;
#80=CIRCLE('generated circle',#79,0.3) ;
#128=CIRCLE('generated circle',#127,0.3) ;
#142=CIRCLE('generated circle',#141,0.3) ;
#190=CIRCLE('generated circle',#189,0.3) ;
#204=CIRCLE('generated circle',#203,0.3) ;
#252=CIRCLE('generated circle',#251,0.3) ;
#266=CIRCLE('generated circle',#265,0.3) ;
#39=COLOUR_RGB('Colour',0.823529411765,0.823529411765,1.) ;
#26=CONSTRUCTIVE_GEOMETRY_REPRESENTATION('supplemental geometry',(#25,#32,#37),#16) ;
#27=CONSTRUCTIVE_GEOMETRY_REPRESENTATION_RELATIONSHIP('supplemental geometry','',#19,#26) ;
#53=CYLINDRICAL_SURFACE('generated cylinder',#52,0.3) ;
#124=CYLINDRICAL_SURFACE('generated cylinder',#123,0.3) ;
#186=CYLINDRICAL_SURFACE('generated cylinder',#185,0.3) ;
#248=CYLINDRICAL_SURFACE('generated cylinder',#247,0.3) ;
#62=EDGE_CURVE('',#59,#61,#57,.T.) ;
#69=EDGE_CURVE('',#59,#68,#66,.T.) ;
#76=EDGE_CURVE('',#68,#75,#73,.T.) ;
#81=EDGE_CURVE('',#61,#75,#80,.T.) ;
#100=EDGE_CURVE('',#68,#99,#97,.T.) ;
#107=EDGE_CURVE('',#99,#106,#104,.T.) ;
#112=EDGE_CURVE('',#75,#106,#111,.T.) ;
#131=EDGE_CURVE('',#99,#130,#128,.T.) ;
#138=EDGE_CURVE('',#130,#137,#135,.T.) ;
#143=EDGE_CURVE('',#106,#137,#142,.T.) ;
#162=EDGE_CURVE('',#130,#161,#159,.F.) ;
#169=EDGE_CURVE('',#161,#168,#166,.T.) ;
#174=EDGE_CURVE('',#137,#168,#173,.F.) ;
#193=EDGE_CURVE('',#161,#192,#190,.T.) ;
#200=EDGE_CURVE('',#192,#199,#197,.T.) ;
#205=EDGE_CURVE('',#168,#199,#204,.T.) ;
#224=EDGE_CURVE('',#192,#223,#221,.T.) ;
#231=EDGE_CURVE('',#223,#230,#228,.T.) ;
#236=EDGE_CURVE('',#199,#230,#235,.T.) ;
#255=EDGE_CURVE('',#223,#254,#252,.T.) ;
#262=EDGE_CURVE('',#254,#261,#259,.T.) ;
#267=EDGE_CURVE('',#230,#261,#266,.T.) ;
#284=EDGE_CURVE('',#254,#59,#283,.F.) ;
#289=EDGE_CURVE('',#261,#61,#288,.F.) ;
#82=EDGE_LOOP('',(#83,#84,#85,#86)) ;
#113=EDGE_LOOP('',(#114,#115,#116,#117)) ;
#144=EDGE_LOOP('',(#145,#146,#147,#148)) ;
#175=EDGE_LOOP('',(#176,#177,#178,#179)) ;
#206=EDGE_LOOP('',(#207,#208,#209,#210)) ;
#237=EDGE_LOOP('',(#238,#239,#240,#241)) ;
#268=EDGE_LOOP('',(#269,#270,#271,#272)) ;
#290=EDGE_LOOP('',(#291,#292,#293,#294)) ;
#302=EDGE_LOOP('',(#303,#304,#305,#306,#307,#308,#309,#310)) ;
#318=EDGE_LOOP('',(#319,#320,#321,#322,#323,#324,#325,#326)) ;
#87=FACE_OUTER_BOUND('',#82,.T.) ;
#118=FACE_OUTER_BOUND('',#113,.T.) ;
#149=FACE_OUTER_BOUND('',#144,.T.) ;
#180=FACE_OUTER_BOUND('',#175,.T.) ;
#211=FACE_OUTER_BOUND('',#206,.T.) ;
#242=FACE_OUTER_BOUND('',#237,.T.) ;
#273=FACE_OUTER_BOUND('',#268,.T.) ;
#295=FACE_OUTER_BOUND('',#290,.T.) ;
#311=FACE_OUTER_BOUND('',#302,.T.) ;
#327=FACE_OUTER_BOUND('',#318,.T.) ;
#57=LINE('Line',#54,#56) ;
#73=LINE('Line',#70,#72) ;
#97=LINE('Line',#94,#96) ;
#104=LINE('Line',#101,#103) ;
#111=LINE('Line',#108,#110) ;
#135=LINE('Line',#132,#134) ;
#159=LINE('Line',#156,#158) ;
#166=LINE('Line',#163,#165) ;
#173=LINE('Line',#170,#172) ;
#197=LINE('Line',#194,#196) ;
#221=LINE('Line',#218,#220) ;
#228=LINE('Line',#225,#227) ;
#235=LINE('Line',#232,#234) ;
#259=LINE('Line',#256,#258) ;
#283=LINE('Line',#280,#282) ;
#288=LINE('Line',#285,#287) ;
#25=PLANE('Referenz_xy',#24) ;
#32=PLANE('Referenz_yz',#31) ;
#37=PLANE('Referenz_zx',#36) ;
#93=PLANE('',#92) ;
#155=PLANE('',#154) ;
#217=PLANE('',#216) ;
#279=PLANE('',#278) ;
#301=PLANE('',#300) ;
#317=PLANE('',#316) ;
#9=PRODUCT_CATEGORY_RELATIONSHIP(' ',' ',#7,#8) ;
#6=PRODUCT_DEFINITION_FORMATION_WITH_SPECIFIED_SOURCE('',' ',#5,.NOT_KNOWN.) ;
#20=SHAPE_DEFINITION_REPRESENTATION(#11,#19) ;
#59=VERTEX_POINT('',#58) ;
#61=VERTEX_POINT('',#60) ;
#68=VERTEX_POINT('',#67) ;
#75=VERTEX_POINT('',#74) ;
#99=VERTEX_POINT('',#98) ;
#106=VERTEX_POINT('',#105) ;
#130=VERTEX_POINT('',#129) ;
#137=VERTEX_POINT('',#136) ;
#161=VERTEX_POINT('',#160) ;
#168=VERTEX_POINT('',#167) ;
#192=VERTEX_POINT('',#191) ;
#199=VERTEX_POINT('',#198) ;
#223=VERTEX_POINT('',#222) ;
#230=VERTEX_POINT('',#229) ;
#254=VERTEX_POINT('',#253) ;
#261=VERTEX_POINT('',#260) ;
#12=(LENGTH_UNIT()NAMED_UNIT(*)SI_UNIT(.MILLI.,.METRE.)) ;
#13=(NAMED_UNIT(*)PLANE_ANGLE_UNIT()SI_UNIT($,.RADIAN.)) ;
#14=(NAMED_UNIT(*)SI_UNIT($,.STERADIAN.)SOLID_ANGLE_UNIT()) ;
#16=(GEOMETRIC_REPRESENTATION_CONTEXT(3)GLOBAL_UNCERTAINTY_ASSIGNED_CONTEXT((#15))GLOBAL_UNIT_ASSIGNED_CONTEXT((#12,#13,#14))REPRESENTATION_CONTEXT(' ',' ')) ;
ENDSEC;
END-ISO-10303-21;
