ISO-10303-21;
HEADER;
FILE_DESCRIPTION(('CATIA V5 STEP Exchange','CAx-IF Rec.Pracs.--- Model Styling and Organization---1.5--- 2016-08-15','CAx-IF Rec.Pracs.---Supplemental Geometry---1.0---2011-11-01','CAx-IF Rec.Pracs.--- Composite Materials ---1.1---2010-07-15'),'2;1');

FILE_NAME ('706729-2_1_2652440000_2652440000 CABTITE BP 20MM PA S3D.stp','2024-06-13T10:52:22+00:00',('none'),('Weidmueller'),'CATIA Version 5-6 Release 2022 SP4 HF5','CATIA V5 STEP AP214 v3','none');

FILE_SCHEMA(('AUTOMOTIVE_DESIGN { 1 0 10303 214 1 1 1 1 }'));

ENDSEC;
DATA;
#5=PRODUCT('2652440000 CABTITE BP 20MM PA S3D','2652440000_CABTITE BP 20MM PA','PART-2652440000_CABTITE BP 20MM PA-DESC',(#2)) ;
#2=PRODUCT_CONTEXT(' ',#1,'mechanical') ;
#1=APPLICATION_CONTEXT('automotive design') ;
#10=PRODUCT_DEFINITION('NONE',' ',#6,#3) ;
#3=PRODUCT_DEFINITION_CONTEXT('part definition',#1,' ') ;
#11=PRODUCT_DEFINITION_SHAPE(' ',' ',#10) ;
#523=MECHANICAL_DESIGN_GEOMETRIC_PRESENTATION_REPRESENTATION(' ',(#78,#142,#257,#282,#316,#350,#386,#399,#431,#449,#462,#475,#488,#496,#509,#520,#29),#16) ;
#19=SHAPE_REPRESENTATION(' ',(#18),#16) ;
#18=AXIS2_PLACEMENT_3D(' ',#17,$,$) ;
#34=AXIS2_PLACEMENT_3D('Plane Axis2P3D',#31,#32,#33) ;
#82=AXIS2_PLACEMENT_3D('Cylinder Axis2P3D',#79,#80,#81) ;
#95=AXIS2_PLACEMENT_3D('Circle Axis2P3D',#93,#94,$) ;
#109=AXIS2_PLACEMENT_3D('Circle Axis2P3D',#107,#108,$) ;
#114=AXIS2_PLACEMENT_3D('Circle Axis2P3D',#112,#113,$) ;
#128=AXIS2_PLACEMENT_3D('Circle Axis2P3D',#126,#127,$) ;
#146=AXIS2_PLACEMENT_3D('Plane Axis2P3D',#143,#144,#145) ;
#199=AXIS2_PLACEMENT_3D('Circle Axis2P3D',#197,#198,$) ;
#261=AXIS2_PLACEMENT_3D('Cylinder Axis2P3D',#258,#259,#260) ;
#272=AXIS2_PLACEMENT_3D('Circle Axis2P3D',#270,#271,$) ;
#286=AXIS2_PLACEMENT_3D('Plane Axis2P3D',#283,#284,#285) ;
#299=AXIS2_PLACEMENT_3D('Circle Axis2P3D',#297,#298,$) ;
#304=AXIS2_PLACEMENT_3D('Circle Axis2P3D',#302,#303,$) ;
#331=AXIS2_PLACEMENT_3D('Circle Axis2P3D',#329,#330,$) ;
#336=AXIS2_PLACEMENT_3D('Circle Axis2P3D',#334,#335,$) ;
#367=AXIS2_PLACEMENT_3D('Circle Axis2P3D',#365,#366,$) ;
#374=AXIS2_PLACEMENT_3D('Circle Axis2P3D',#372,#373,$) ;
#403=AXIS2_PLACEMENT_3D('Cone Axis2P3D',#400,#401,#402) ;
#414=AXIS2_PLACEMENT_3D('Circle Axis2P3D',#412,#413,$) ;
#435=AXIS2_PLACEMENT_3D('Cylinder Axis2P3D',#432,#433,#434) ;
#466=AXIS2_PLACEMENT_3D('Plane Axis2P3D',#463,#464,#465) ;
#499=AXIS2_PLACEMENT_3D('Circle Axis2P3D',#497,#498,$) ;
#513=AXIS2_PLACEMENT_3D('Plane Axis2P3D',#510,#511,#512) ;
#17=CARTESIAN_POINT(' ',(0.,0.,0.)) ;
#31=CARTESIAN_POINT('Axis2P3D Location',(0.75,9.,17.)) ;
#36=CARTESIAN_POINT('Line Origine',(0.778888951987,9.,19.5)) ;
#40=CARTESIAN_POINT('Vertex',(0.778888951987,9.,22.)) ;
#42=CARTESIAN_POINT('Vertex',(0.778888951987,9.,17.)) ;
#45=CARTESIAN_POINT('Line Origine',(0.764444475994,9.,22.)) ;
#49=CARTESIAN_POINT('Vertex',(0.75,9.,22.)) ;
#52=CARTESIAN_POINT('Line Origine',(0.75,9.,19.5)) ;
#56=CARTESIAN_POINT('Vertex',(0.75,9.,17.)) ;
#59=CARTESIAN_POINT('Line Origine',(0.764444475994,9.,17.)) ;
#79=CARTESIAN_POINT('Axis2P3D Location',(10.5,9.75,1.73472347598E-15)) ;
#84=CARTESIAN_POINT('Line Origine',(20.25,9.75,0.)) ;
#88=CARTESIAN_POINT('Vertex',(20.25,9.75,17.)) ;
#90=CARTESIAN_POINT('Vertex',(20.25,9.75,4.)) ;
#93=CARTESIAN_POINT('Axis2P3D Location',(10.5,9.75,17.)) ;
#97=CARTESIAN_POINT('Vertex',(20.2211110476,9.00000000003,17.)) ;
#100=CARTESIAN_POINT('Line Origine',(20.2211110476,9.,0.)) ;
#104=CARTESIAN_POINT('Vertex',(20.2211110476,9.,22.)) ;
#107=CARTESIAN_POINT('Axis2P3D Location',(10.5,9.75,22.)) ;
#112=CARTESIAN_POINT('Axis2P3D Location',(10.5,9.75,17.)) ;
#116=CARTESIAN_POINT('Vertex',(0.75,9.75,17.)) ;
#119=CARTESIAN_POINT('Line Origine',(0.75,9.75,0.)) ;
#123=CARTESIAN_POINT('Vertex',(0.75,9.75,4.)) ;
#126=CARTESIAN_POINT('Axis2P3D Location',(10.5,9.75,4.)) ;
#143=CARTESIAN_POINT('Axis2P3D Location',(10.5,9.75,22.)) ;
#148=CARTESIAN_POINT('Line Origine',(20.235555524,9.,22.)) ;
#152=CARTESIAN_POINT('Vertex',(20.25,9.,22.)) ;
#156=CARTESIAN_POINT('Control Point',(20.25,9.,22.)) ;
#157=CARTESIAN_POINT('Control Point',(20.3348493568,9.,22.)) ;
#158=CARTESIAN_POINT('Control Point',(20.4196978662,9.01199902365,22.)) ;
#159=CARTESIAN_POINT('Control Point',(20.5023078694,9.03600831844,22.)) ;
#160=CARTESIAN_POINT('Control Point',(20.6584346855,9.10670875888,22.)) ;
#161=CARTESIAN_POINT('Control Point',(20.7888325758,9.21792645038,22.)) ;
#162=CARTESIAN_POINT('Control Point',(20.8457041873,9.28247470473,22.)) ;
#163=CARTESIAN_POINT('Control Point',(20.929131925,9.40984377217,22.)) ;
#164=CARTESIAN_POINT('Control Point',(20.9782767983,9.55332467436,22.)) ;
#165=CARTESIAN_POINT('Control Point',(20.992758366,9.61818049986,22.)) ;
#166=CARTESIAN_POINT('Control Point',(20.9999992225,9.68409038518,22.)) ;
#167=CARTESIAN_POINT('Control Point',(20.9999996889,9.75,22.)) ;
#168=CARTESIAN_POINT('Vertex',(21.,9.75,22.)) ;
#172=CARTESIAN_POINT('Control Point',(20.9999996889,9.75,22.)) ;
#173=CARTESIAN_POINT('Control Point',(21.0000002897,9.83485008587,22.)) ;
#174=CARTESIAN_POINT('Control Point',(20.9880012267,9.91969859517,22.)) ;
#175=CARTESIAN_POINT('Control Point',(20.9639961792,10.0022903232,22.)) ;
#176=CARTESIAN_POINT('Control Point',(20.8932994454,10.158422371,22.)) ;
#177=CARTESIAN_POINT('Control Point',(20.7820843448,10.2888224905,22.)) ;
#178=CARTESIAN_POINT('Control Point',(20.7175506172,10.3456822736,22.)) ;
#179=CARTESIAN_POINT('Control Point',(20.6101163944,10.4160606131,22.)) ;
#180=CARTESIAN_POINT('Control Point',(20.4912185856,10.4620453939,22.)) ;
#181=CARTESIAN_POINT('Control Point',(20.4503407516,10.4746159241,22.)) ;
#182=CARTESIAN_POINT('Control Point',(20.3859597331,10.4894822841,22.)) ;
#183=CARTESIAN_POINT('Control Point',(20.3204538779,10.4972293715,22.)) ;
#184=CARTESIAN_POINT('Control Point',(20.2969416132,10.4990818588,22.)) ;
#185=CARTESIAN_POINT('Control Point',(20.2734708039,10.5,22.)) ;
#186=CARTESIAN_POINT('Control Point',(20.25,10.5,22.)) ;
#187=CARTESIAN_POINT('Vertex',(20.25,10.5,22.)) ;
#190=CARTESIAN_POINT('Line Origine',(20.235555524,10.5,22.)) ;
#194=CARTESIAN_POINT('Vertex',(20.221111048,10.5,22.)) ;
#197=CARTESIAN_POINT('Axis2P3D Location',(10.5,9.74999999957,22.)) ;
#201=CARTESIAN_POINT('Vertex',(0.778888951987,10.5,22.)) ;
#204=CARTESIAN_POINT('Line Origine',(0.764444475994,10.5,22.)) ;
#208=CARTESIAN_POINT('Vertex',(0.75,10.5,22.)) ;
#212=CARTESIAN_POINT('Control Point',(0.75,10.5,22.)) ;
#213=CARTESIAN_POINT('Control Point',(0.665150643172,10.5,22.)) ;
#214=CARTESIAN_POINT('Control Point',(0.58030213383,10.4880009763,22.)) ;
#215=CARTESIAN_POINT('Control Point',(0.49769213048,10.4639916816,22.)) ;
#216=CARTESIAN_POINT('Control Point',(0.341565314581,10.3932912411,22.)) ;
#217=CARTESIAN_POINT('Control Point',(0.211167424291,10.2820735497,22.)) ;
#218=CARTESIAN_POINT('Control Point',(0.154295812596,10.2175252952,22.)) ;
#219=CARTESIAN_POINT('Control Point',(0.0708680749041,10.0901562277,22.)) ;
#220=CARTESIAN_POINT('Control Point',(0.0217232016576,9.94667532541,22.)) ;
#221=CARTESIAN_POINT('Control Point',(0.00724163402253,9.88181950037,22.)) ;
#222=CARTESIAN_POINT('Control Point',(7.7757262125E-07,9.81590961491,22.)) ;
#223=CARTESIAN_POINT('Control Point',(3.11061738145E-07,9.75,22.)) ;
#224=CARTESIAN_POINT('Vertex',(2.23478111241E-31,9.75,22.)) ;
#228=CARTESIAN_POINT('Control Point',(3.11061739922E-07,9.75,22.)) ;
#229=CARTESIAN_POINT('Control Point',(-2.89510562882E-07,9.66514991244,22.)) ;
#230=CARTESIAN_POINT('Control Point',(0.0119987722568,9.58030140118,22.)) ;
#231=CARTESIAN_POINT('Control Point',(0.0360038251878,9.49770966319,22.)) ;
#232=CARTESIAN_POINT('Control Point',(0.106700562307,9.34157761646,22.)) ;
#233=CARTESIAN_POINT('Control Point',(0.217915665809,9.21117749911,22.)) ;
#234=CARTESIAN_POINT('Control Point',(0.282449398212,9.15431771394,22.)) ;
#235=CARTESIAN_POINT('Control Point',(0.389883621643,9.08393937795,22.)) ;
#236=CARTESIAN_POINT('Control Point',(0.508781430262,9.03795460043,22.)) ;
#237=CARTESIAN_POINT('Control Point',(0.549659264644,9.02538407024,22.)) ;
#238=CARTESIAN_POINT('Control Point',(0.6140402802,9.01051771252,22.)) ;
#239=CARTESIAN_POINT('Control Point',(0.67954613212,9.00277062665,22.)) ;
#240=CARTESIAN_POINT('Control Point',(0.703058393659,9.00091814094,22.)) ;
#241=CARTESIAN_POINT('Control Point',(0.726529199529,9.,22.)) ;
#242=CARTESIAN_POINT('Control Point',(0.75,9.,22.)) ;
#258=CARTESIAN_POINT('Axis2P3D Location',(0.75,9.75,17.)) ;
#263=CARTESIAN_POINT('Line Origine',(0.,9.75,17.)) ;
#267=CARTESIAN_POINT('Vertex',(2.23478111241E-31,9.75,17.)) ;
#270=CARTESIAN_POINT('Axis2P3D Location',(0.75,9.75,17.)) ;
#283=CARTESIAN_POINT('Axis2P3D Location',(0.75,9.75,17.)) ;
#288=CARTESIAN_POINT('Line Origine',(0.764444475994,10.5,17.)) ;
#292=CARTESIAN_POINT('Vertex',(0.778888951987,10.5,17.)) ;
#294=CARTESIAN_POINT('Vertex',(0.75,10.5,17.)) ;
#297=CARTESIAN_POINT('Axis2P3D Location',(10.5000010286,9.74999996558,17.)) ;
#302=CARTESIAN_POINT('Axis2P3D Location',(0.749999999191,9.75000000081,17.)) ;
#317=CARTESIAN_POINT('Line Origine',(0.778888952388,10.5,0.)) ;
#322=CARTESIAN_POINT('Line Origine',(20.2211110476,10.5,0.)) ;
#326=CARTESIAN_POINT('Vertex',(20.2211110476,10.5,17.)) ;
#329=CARTESIAN_POINT('Axis2P3D Location',(10.5,9.75,17.)) ;
#334=CARTESIAN_POINT('Axis2P3D Location',(10.5,9.75,4.)) ;
#351=CARTESIAN_POINT('Line Origine',(20.235555524,9.,17.)) ;
#355=CARTESIAN_POINT('Vertex',(20.25,9.,17.)) ;
#358=CARTESIAN_POINT('Line Origine',(20.235555524,10.5,17.)) ;
#362=CARTESIAN_POINT('Vertex',(20.25,10.5,17.)) ;
#365=CARTESIAN_POINT('Axis2P3D Location',(20.2500000008,9.75000000081,17.)) ;
#369=CARTESIAN_POINT('Vertex',(21.,9.75,17.)) ;
#372=CARTESIAN_POINT('Axis2P3D Location',(20.2500000008,9.74999999919,17.)) ;
#387=CARTESIAN_POINT('Line Origine',(20.25,9.,19.5)) ;
#400=CARTESIAN_POINT('Axis2P3D Location',(10.5,9.75,4.)) ;
#405=CARTESIAN_POINT('Line Origine',(-868235.263337,9.74999999962,4924015.11756)) ;
#409=CARTESIAN_POINT('Vertex',(1.45530792286,9.75,-1.3704593016E-10)) ;
#412=CARTESIAN_POINT('Axis2P3D Location',(10.5,9.75,5.34594590818E-12)) ;
#416=CARTESIAN_POINT('Vertex',(19.5446920772,9.75,5.34594590818E-12)) ;
#419=CARTESIAN_POINT('Line Origine',(868256.263337,9.75000000354,4924015.11756)) ;
#432=CARTESIAN_POINT('Axis2P3D Location',(20.25,9.75,17.)) ;
#437=CARTESIAN_POINT('Line Origine',(21.,9.75,17.)) ;
#450=CARTESIAN_POINT('Line Origine',(20.25,10.5,17.)) ;
#463=CARTESIAN_POINT('Axis2P3D Location',(20.25,10.5,17.)) ;
#476=CARTESIAN_POINT('Line Origine',(0.75,10.5,19.5)) ;
#497=CARTESIAN_POINT('Axis2P3D Location',(10.5,9.75,5.34594590818E-12)) ;
#510=CARTESIAN_POINT('Axis2P3D Location',(10.5,0.705307922834,-4.16333634235E-17)) ;
#32=DIRECTION('Axis2P3D Direction',(2.24820162487E-15,-1.,3.31397256631E-16)) ;
#33=DIRECTION('Axis2P3D XDirection',(1.,2.24820162487E-15,1.38777878078E-17)) ;
#37=DIRECTION('Vector Direction',(2.22044604925E-17,-3.5527136788E-16,-1.)) ;
#46=DIRECTION('Vector Direction',(1.,0.,0.)) ;
#53=DIRECTION('Vector Direction',(-2.22044604925E-17,3.5527136788E-16,1.)) ;
#60=DIRECTION('Vector Direction',(1.,0.,0.)) ;
#80=DIRECTION('Axis2P3D Direction',(-1.73472347598E-18,-1.66533453694E-16,1.)) ;
#81=DIRECTION('Axis2P3D XDirection',(1.,-3.53883589096E-16,1.73472347598E-18)) ;
#85=DIRECTION('Vector Direction',(-1.73479008936E-18,-1.66533453694E-16,1.)) ;
#94=DIRECTION('Axis2P3D Direction',(-1.73472347598E-18,-1.66533453694E-16,1.)) ;
#101=DIRECTION('Vector Direction',(-1.73479008936E-18,-1.66533453694E-16,1.)) ;
#108=DIRECTION('Axis2P3D Direction',(-1.73472347598E-18,-1.66533453694E-16,1.)) ;
#113=DIRECTION('Axis2P3D Direction',(-1.73472347598E-18,-1.66533453694E-16,1.)) ;
#120=DIRECTION('Vector Direction',(-1.73479008936E-18,-1.66533453694E-16,1.)) ;
#127=DIRECTION('Axis2P3D Direction',(-1.73472347598E-18,-1.66533453694E-16,1.)) ;
#144=DIRECTION('Axis2P3D Direction',(1.73472347598E-18,1.66533453694E-16,-1.)) ;
#145=DIRECTION('Axis2P3D XDirection',(1.,2.31065167E-15,1.73472347598E-18)) ;
#149=DIRECTION('Vector Direction',(1.,0.,0.)) ;
#191=DIRECTION('Vector Direction',(-1.,0.,0.)) ;
#198=DIRECTION('Axis2P3D Direction',(1.73472347598E-18,1.66533453694E-16,-1.)) ;
#205=DIRECTION('Vector Direction',(-1.,0.,0.)) ;
#259=DIRECTION('Axis2P3D Direction',(1.73472347598E-18,1.66533453694E-16,-1.)) ;
#260=DIRECTION('Axis2P3D XDirection',(1.,2.43311634992E-15,1.73472347598E-18)) ;
#264=DIRECTION('Vector Direction',(1.73472347598E-18,1.66533453694E-16,-1.)) ;
#271=DIRECTION('Axis2P3D Direction',(1.73472347598E-18,1.66533453694E-16,-1.)) ;
#284=DIRECTION('Axis2P3D Direction',(-1.73472347598E-18,-1.66533453694E-16,1.)) ;
#285=DIRECTION('Axis2P3D XDirection',(-1.,-2.31065167E-15,-1.73472347598E-18)) ;
#289=DIRECTION('Vector Direction',(-1.,0.,0.)) ;
#298=DIRECTION('Axis2P3D Direction',(-1.73472347598E-18,-1.66533453694E-16,1.)) ;
#303=DIRECTION('Axis2P3D Direction',(-1.73472347598E-18,-1.66533453694E-16,1.)) ;
#318=DIRECTION('Vector Direction',(-1.73479008936E-18,-1.66533453694E-16,1.)) ;
#323=DIRECTION('Vector Direction',(-1.73479008936E-18,-1.66533453694E-16,1.)) ;
#330=DIRECTION('Axis2P3D Direction',(-1.73472347598E-18,-1.66533453694E-16,1.)) ;
#335=DIRECTION('Axis2P3D Direction',(-1.73472347598E-18,-1.66533453694E-16,1.)) ;
#352=DIRECTION('Vector Direction',(1.,0.,0.)) ;
#359=DIRECTION('Vector Direction',(-1.,0.,0.)) ;
#366=DIRECTION('Axis2P3D Direction',(-1.73472347598E-18,-1.66533453694E-16,1.)) ;
#373=DIRECTION('Axis2P3D Direction',(-1.73472347598E-18,-1.66533453694E-16,1.)) ;
#388=DIRECTION('Vector Direction',(0.,3.5527136788E-16,1.)) ;
#401=DIRECTION('Axis2P3D Direction',(5.33175397388E-17,3.31397256631E-16,1.)) ;
#402=DIRECTION('Axis2P3D XDirection',(-1.,-2.31759078005E-15,0.)) ;
#406=DIRECTION('Vector Direction',(-0.173648177667,-7.60828902337E-17,0.984807753012)) ;
#413=DIRECTION('Axis2P3D Direction',(-7.68043226502E-31,3.31397256631E-16,1.)) ;
#420=DIRECTION('Vector Direction',(0.173648177667,7.07542226699E-16,0.984807753012)) ;
#433=DIRECTION('Axis2P3D Direction',(1.73472347598E-18,1.66533453694E-16,-1.)) ;
#434=DIRECTION('Axis2P3D XDirection',(1.,2.43311634992E-15,1.73472347598E-18)) ;
#438=DIRECTION('Vector Direction',(1.73479008936E-18,1.66533453694E-16,-1.)) ;
#451=DIRECTION('Vector Direction',(1.73479008936E-18,1.66533453694E-16,-1.)) ;
#464=DIRECTION('Axis2P3D Direction',(-2.24820162487E-15,1.,-3.31397256631E-16)) ;
#465=DIRECTION('Axis2P3D XDirection',(-1.,-2.24820162487E-15,-1.38777878078E-17)) ;
#477=DIRECTION('Vector Direction',(-2.22044604925E-17,3.5527136788E-16,1.)) ;
#498=DIRECTION('Axis2P3D Direction',(-7.68043226502E-31,3.31397256631E-16,1.)) ;
#511=DIRECTION('Axis2P3D Direction',(-1.73472347598E-18,-1.66533453694E-16,1.)) ;
#512=DIRECTION('Axis2P3D XDirection',(-1.,-2.31065167E-15,-1.73472347598E-18)) ;
#8=PRODUCT_RELATED_PRODUCT_CATEGORY('part',$,(#5)) ;
#7=PRODUCT_CATEGORY('part','specification') ;
#29=STYLED_ITEM(' ',(#28),#21) ;
#28=PRESENTATION_STYLE_ASSIGNMENT((#27)) ;
#77=PRESENTATION_STYLE_ASSIGNMENT((#76)) ;
#27=SURFACE_STYLE_USAGE(.BOTH.,#26) ;
#76=SURFACE_STYLE_USAGE(.BOTH.,#75) ;
#26=SURFACE_SIDE_STYLE(' ',(#25)) ;
#75=SURFACE_SIDE_STYLE(' ',(#74)) ;
#25=SURFACE_STYLE_FILL_AREA(#24) ;
#74=SURFACE_STYLE_FILL_AREA(#73) ;
#24=FILL_AREA_STYLE(' ',(#23)) ;
#73=FILL_AREA_STYLE(' ',(#72)) ;
#23=FILL_AREA_STYLE_COLOUR(' ',#22) ;
#72=FILL_AREA_STYLE_COLOUR(' ',#71) ;
#38=VECTOR('Line Direction',#37,1.) ;
#47=VECTOR('Line Direction',#46,1.) ;
#54=VECTOR('Line Direction',#53,1.) ;
#61=VECTOR('Line Direction',#60,1.) ;
#86=VECTOR('Line Direction',#85,1.) ;
#102=VECTOR('Line Direction',#101,1.) ;
#121=VECTOR('Line Direction',#120,1.) ;
#150=VECTOR('Line Direction',#149,1.) ;
#192=VECTOR('Line Direction',#191,1.) ;
#206=VECTOR('Line Direction',#205,1.) ;
#265=VECTOR('Line Direction',#264,1.) ;
#290=VECTOR('Line Direction',#289,1.) ;
#319=VECTOR('Line Direction',#318,1.) ;
#324=VECTOR('Line Direction',#323,1.) ;
#353=VECTOR('Line Direction',#352,1.) ;
#360=VECTOR('Line Direction',#359,1.) ;
#389=VECTOR('Line Direction',#388,1.) ;
#407=VECTOR('Line Direction',#406,1.) ;
#421=VECTOR('Line Direction',#420,1.) ;
#439=VECTOR('Line Direction',#438,1.) ;
#452=VECTOR('Line Direction',#451,1.) ;
#478=VECTOR('Line Direction',#477,1.) ;
#15=UNCERTAINTY_MEASURE_WITH_UNIT(LENGTH_MEASURE(0.005),#12,'distance_accuracy_value','CONFUSED CURVE UNCERTAINTY') ;
#522=SHAPE_REPRESENTATION_RELATIONSHIP(' ',' ',#19,#521) ;
#65=ORIENTED_EDGE('',*,*,#44,.F.) ;
#66=ORIENTED_EDGE('',*,*,#51,.F.) ;
#67=ORIENTED_EDGE('',*,*,#58,.F.) ;
#68=ORIENTED_EDGE('',*,*,#63,.T.) ;
#132=ORIENTED_EDGE('',*,*,#92,.F.) ;
#133=ORIENTED_EDGE('',*,*,#99,.F.) ;
#134=ORIENTED_EDGE('',*,*,#106,.T.) ;
#135=ORIENTED_EDGE('',*,*,#111,.T.) ;
#136=ORIENTED_EDGE('',*,*,#44,.T.) ;
#137=ORIENTED_EDGE('',*,*,#118,.F.) ;
#138=ORIENTED_EDGE('',*,*,#125,.F.) ;
#139=ORIENTED_EDGE('',*,*,#130,.F.) ;
#245=ORIENTED_EDGE('',*,*,#111,.F.) ;
#246=ORIENTED_EDGE('',*,*,#154,.T.) ;
#247=ORIENTED_EDGE('',*,*,#170,.T.) ;
#248=ORIENTED_EDGE('',*,*,#189,.T.) ;
#249=ORIENTED_EDGE('',*,*,#196,.T.) ;
#250=ORIENTED_EDGE('',*,*,#203,.F.) ;
#251=ORIENTED_EDGE('',*,*,#210,.T.) ;
#252=ORIENTED_EDGE('',*,*,#226,.T.) ;
#253=ORIENTED_EDGE('',*,*,#243,.T.) ;
#254=ORIENTED_EDGE('',*,*,#51,.T.) ;
#276=ORIENTED_EDGE('',*,*,#269,.F.) ;
#277=ORIENTED_EDGE('',*,*,#274,.T.) ;
#278=ORIENTED_EDGE('',*,*,#58,.T.) ;
#279=ORIENTED_EDGE('',*,*,#243,.F.) ;
#308=ORIENTED_EDGE('',*,*,#296,.F.) ;
#309=ORIENTED_EDGE('',*,*,#301,.T.) ;
#310=ORIENTED_EDGE('',*,*,#118,.T.) ;
#311=ORIENTED_EDGE('',*,*,#63,.F.) ;
#312=ORIENTED_EDGE('',*,*,#274,.F.) ;
#313=ORIENTED_EDGE('',*,*,#306,.F.) ;
#340=ORIENTED_EDGE('',*,*,#125,.T.) ;
#341=ORIENTED_EDGE('',*,*,#301,.F.) ;
#342=ORIENTED_EDGE('',*,*,#321,.T.) ;
#343=ORIENTED_EDGE('',*,*,#203,.T.) ;
#344=ORIENTED_EDGE('',*,*,#328,.T.) ;
#345=ORIENTED_EDGE('',*,*,#333,.F.) ;
#346=ORIENTED_EDGE('',*,*,#92,.T.) ;
#347=ORIENTED_EDGE('',*,*,#338,.F.) ;
#378=ORIENTED_EDGE('',*,*,#357,.F.) ;
#379=ORIENTED_EDGE('',*,*,#99,.T.) ;
#380=ORIENTED_EDGE('',*,*,#333,.T.) ;
#381=ORIENTED_EDGE('',*,*,#364,.F.) ;
#382=ORIENTED_EDGE('',*,*,#371,.F.) ;
#383=ORIENTED_EDGE('',*,*,#376,.F.) ;
#393=ORIENTED_EDGE('',*,*,#106,.F.) ;
#394=ORIENTED_EDGE('',*,*,#357,.T.) ;
#395=ORIENTED_EDGE('',*,*,#391,.T.) ;
#396=ORIENTED_EDGE('',*,*,#154,.F.) ;
#425=ORIENTED_EDGE('',*,*,#411,.T.) ;
#426=ORIENTED_EDGE('',*,*,#418,.F.) ;
#427=ORIENTED_EDGE('',*,*,#423,.T.) ;
#428=ORIENTED_EDGE('',*,*,#130,.T.) ;
#443=ORIENTED_EDGE('',*,*,#441,.F.) ;
#444=ORIENTED_EDGE('',*,*,#170,.F.) ;
#445=ORIENTED_EDGE('',*,*,#391,.F.) ;
#446=ORIENTED_EDGE('',*,*,#376,.T.) ;
#456=ORIENTED_EDGE('',*,*,#441,.T.) ;
#457=ORIENTED_EDGE('',*,*,#371,.T.) ;
#458=ORIENTED_EDGE('',*,*,#454,.T.) ;
#459=ORIENTED_EDGE('',*,*,#189,.F.) ;
#469=ORIENTED_EDGE('',*,*,#328,.F.) ;
#470=ORIENTED_EDGE('',*,*,#196,.F.) ;
#471=ORIENTED_EDGE('',*,*,#454,.F.) ;
#472=ORIENTED_EDGE('',*,*,#364,.T.) ;
#482=ORIENTED_EDGE('',*,*,#321,.F.) ;
#483=ORIENTED_EDGE('',*,*,#296,.T.) ;
#484=ORIENTED_EDGE('',*,*,#480,.T.) ;
#485=ORIENTED_EDGE('',*,*,#210,.F.) ;
#490=ORIENTED_EDGE('',*,*,#269,.T.) ;
#491=ORIENTED_EDGE('',*,*,#226,.F.) ;
#492=ORIENTED_EDGE('',*,*,#480,.F.) ;
#493=ORIENTED_EDGE('',*,*,#306,.T.) ;
#503=ORIENTED_EDGE('',*,*,#423,.F.) ;
#504=ORIENTED_EDGE('',*,*,#501,.F.) ;
#505=ORIENTED_EDGE('',*,*,#411,.F.) ;
#506=ORIENTED_EDGE('',*,*,#338,.T.) ;
#516=ORIENTED_EDGE('',*,*,#418,.T.) ;
#517=ORIENTED_EDGE('',*,*,#501,.T.) ;
#30=CLOSED_SHELL('Closed Shell',(#70,#141,#256,#281,#315,#349,#385,#398,#430,#448,#461,#474,#487,#495,#508,#519)) ;
#521=ADVANCED_BREP_SHAPE_REPRESENTATION('NONE',(#21),#16) ;
#70=ADVANCED_FACE('2652440000_CABTITE BP 20MM PA',(#69),#35,.T.) ;
#141=ADVANCED_FACE('2652440000_CABTITE BP 20MM PA',(#140),#83,.T.) ;
#256=ADVANCED_FACE('2652440000_CABTITE BP 20MM PA',(#255),#147,.F.) ;
#281=ADVANCED_FACE('2652440000_CABTITE BP 20MM PA',(#280),#262,.T.) ;
#315=ADVANCED_FACE('2652440000_CABTITE BP 20MM PA',(#314),#287,.F.) ;
#349=ADVANCED_FACE('2652440000_CABTITE BP 20MM PA',(#348),#83,.T.) ;
#385=ADVANCED_FACE('2652440000_CABTITE BP 20MM PA',(#384),#287,.F.) ;
#398=ADVANCED_FACE('2652440000_CABTITE BP 20MM PA',(#397),#35,.T.) ;
#430=ADVANCED_FACE('2652440000_CABTITE BP 20MM PA',(#429),#404,.T.) ;
#448=ADVANCED_FACE('2652440000_CABTITE BP 20MM PA',(#447),#436,.T.) ;
#461=ADVANCED_FACE('2652440000_CABTITE BP 20MM PA',(#460),#436,.T.) ;
#474=ADVANCED_FACE('2652440000_CABTITE BP 20MM PA',(#473),#467,.T.) ;
#487=ADVANCED_FACE('2652440000_CABTITE BP 20MM PA',(#486),#467,.T.) ;
#495=ADVANCED_FACE('2652440000_CABTITE BP 20MM PA',(#494),#262,.T.) ;
#508=ADVANCED_FACE('2652440000_CABTITE BP 20MM PA',(#507),#404,.T.) ;
#519=ADVANCED_FACE('2652440000_CABTITE BP 20MM PA',(#518),#514,.F.) ;
#4=APPLICATION_PROTOCOL_DEFINITION('international standard','automotive_design',2001,#1) ;
#155=B_SPLINE_CURVE_WITH_KNOTS('',5,(#156,#157,#158,#159,#160,#161,#162,#163,#164,#165,#166,#167),.UNSPECIFIED.,.F.,.U.,(6,3,3,6),(0.,0.601770073265,1.20354014852,1.67098123365),.UNSPECIFIED.) ;
#171=B_SPLINE_CURVE_WITH_KNOTS('',5,(#172,#173,#174,#175,#176,#177,#178,#179,#180,#181,#182,#183,#184,#185,#186),.UNSPECIFIED.,.F.,.U.,(6,3,3,3,6),(0.,0.601681964669,1.20336395837,1.5034303024,1.66986604384),.UNSPECIFIED.) ;
#211=B_SPLINE_CURVE_WITH_KNOTS('',5,(#212,#213,#214,#215,#216,#217,#218,#219,#220,#221,#222,#223),.UNSPECIFIED.,.F.,.U.,(6,3,3,6),(0.,0.601770073031,1.20354014785,1.67098123377),.UNSPECIFIED.) ;
#227=B_SPLINE_CURVE_WITH_KNOTS('',5,(#228,#229,#230,#231,#232,#233,#234,#235,#236,#237,#238,#239,#240,#241,#242),.UNSPECIFIED.,.F.,.U.,(6,3,3,3,6),(0.,0.601681976768,1.20336396031,1.50343030487,1.66986602191),.UNSPECIFIED.) ;
#21=MANIFOLD_SOLID_BREP('2652440000_CABTITE BP 20MM PA',#30) ;
#96=CIRCLE('generated circle',#95,9.75) ;
#110=CIRCLE('generated circle',#109,9.75) ;
#115=CIRCLE('generated circle',#114,9.75) ;
#129=CIRCLE('generated circle',#128,9.75) ;
#200=CIRCLE('generated circle',#199,9.75000000043) ;
#273=CIRCLE('generated circle',#272,0.75) ;
#300=CIRCLE('generated circle',#299,9.75000102863) ;
#305=CIRCLE('generated circle',#304,0.749999999191) ;
#332=CIRCLE('generated circle',#331,9.75) ;
#337=CIRCLE('generated circle',#336,9.75) ;
#368=CIRCLE('generated circle',#367,0.749999999191) ;
#375=CIRCLE('generated circle',#374,0.749999999191) ;
#415=CIRCLE('generated circle',#414,9.04469207716) ;
#500=CIRCLE('generated circle',#499,9.04469207716) ;
#22=COLOUR_RGB('Colour',0.823529411765,0.823529411765,1.) ;
#404=CONICAL_SURFACE('Cone',#403,9.75,0.1745329252) ;
#78=OVER_RIDING_STYLED_ITEM(' ',(#77),#70,#29) ;
#142=OVER_RIDING_STYLED_ITEM(' ',(#77),#141,#29) ;
#257=OVER_RIDING_STYLED_ITEM(' ',(#77),#256,#29) ;
#282=OVER_RIDING_STYLED_ITEM(' ',(#77),#281,#29) ;
#316=OVER_RIDING_STYLED_ITEM(' ',(#77),#315,#29) ;
#350=OVER_RIDING_STYLED_ITEM(' ',(#77),#349,#29) ;
#386=OVER_RIDING_STYLED_ITEM(' ',(#77),#385,#29) ;
#399=OVER_RIDING_STYLED_ITEM(' ',(#77),#398,#29) ;
#431=OVER_RIDING_STYLED_ITEM(' ',(#77),#430,#29) ;
#449=OVER_RIDING_STYLED_ITEM(' ',(#77),#448,#29) ;
#462=OVER_RIDING_STYLED_ITEM(' ',(#77),#461,#29) ;
#475=OVER_RIDING_STYLED_ITEM(' ',(#77),#474,#29) ;
#488=OVER_RIDING_STYLED_ITEM(' ',(#77),#487,#29) ;
#496=OVER_RIDING_STYLED_ITEM(' ',(#77),#495,#29) ;
#509=OVER_RIDING_STYLED_ITEM(' ',(#77),#508,#29) ;
#520=OVER_RIDING_STYLED_ITEM(' ',(#77),#519,#29) ;
#83=CYLINDRICAL_SURFACE('generated cylinder',#82,9.75) ;
#262=CYLINDRICAL_SURFACE('generated cylinder',#261,0.75) ;
#436=CYLINDRICAL_SURFACE('generated cylinder',#435,0.75) ;
#71=DRAUGHTING_PRE_DEFINED_COLOUR('red') ;
#44=EDGE_CURVE('',#41,#43,#39,.T.) ;
#51=EDGE_CURVE('',#50,#41,#48,.T.) ;
#58=EDGE_CURVE('',#57,#50,#55,.T.) ;
#63=EDGE_CURVE('',#57,#43,#62,.T.) ;
#92=EDGE_CURVE('',#89,#91,#87,.F.) ;
#99=EDGE_CURVE('',#98,#89,#96,.T.) ;
#106=EDGE_CURVE('',#98,#105,#103,.T.) ;
#111=EDGE_CURVE('',#105,#41,#110,.F.) ;
#118=EDGE_CURVE('',#117,#43,#115,.T.) ;
#125=EDGE_CURVE('',#124,#117,#122,.T.) ;
#130=EDGE_CURVE('',#91,#124,#129,.F.) ;
#154=EDGE_CURVE('',#105,#153,#151,.T.) ;
#170=EDGE_CURVE('',#153,#169,#155,.T.) ;
#189=EDGE_CURVE('',#169,#188,#171,.T.) ;
#196=EDGE_CURVE('',#188,#195,#193,.T.) ;
#203=EDGE_CURVE('',#202,#195,#200,.T.) ;
#210=EDGE_CURVE('',#202,#209,#207,.T.) ;
#226=EDGE_CURVE('',#209,#225,#211,.T.) ;
#243=EDGE_CURVE('',#225,#50,#227,.T.) ;
#269=EDGE_CURVE('',#268,#225,#266,.F.) ;
#274=EDGE_CURVE('',#268,#57,#273,.F.) ;
#296=EDGE_CURVE('',#293,#295,#291,.T.) ;
#301=EDGE_CURVE('',#293,#117,#300,.T.) ;
#306=EDGE_CURVE('',#295,#268,#305,.T.) ;
#321=EDGE_CURVE('',#293,#202,#320,.T.) ;
#328=EDGE_CURVE('',#195,#327,#325,.F.) ;
#333=EDGE_CURVE('',#89,#327,#332,.T.) ;
#338=EDGE_CURVE('',#124,#91,#337,.F.) ;
#357=EDGE_CURVE('',#98,#356,#354,.T.) ;
#364=EDGE_CURVE('',#363,#327,#361,.T.) ;
#371=EDGE_CURVE('',#370,#363,#368,.T.) ;
#376=EDGE_CURVE('',#356,#370,#375,.T.) ;
#391=EDGE_CURVE('',#356,#153,#390,.T.) ;
#411=EDGE_CURVE('',#124,#410,#408,.F.) ;
#418=EDGE_CURVE('',#417,#410,#415,.F.) ;
#423=EDGE_CURVE('',#417,#91,#422,.T.) ;
#441=EDGE_CURVE('',#169,#370,#440,.T.) ;
#454=EDGE_CURVE('',#363,#188,#453,.F.) ;
#480=EDGE_CURVE('',#295,#209,#479,.T.) ;
#501=EDGE_CURVE('',#410,#417,#500,.F.) ;
#64=EDGE_LOOP('',(#65,#66,#67,#68)) ;
#131=EDGE_LOOP('',(#132,#133,#134,#135,#136,#137,#138,#139)) ;
#244=EDGE_LOOP('',(#245,#246,#247,#248,#249,#250,#251,#252,#253,#254)) ;
#275=EDGE_LOOP('',(#276,#277,#278,#279)) ;
#307=EDGE_LOOP('',(#308,#309,#310,#311,#312,#313)) ;
#339=EDGE_LOOP('',(#340,#341,#342,#343,#344,#345,#346,#347)) ;
#377=EDGE_LOOP('',(#378,#379,#380,#381,#382,#383)) ;
#392=EDGE_LOOP('',(#393,#394,#395,#396)) ;
#424=EDGE_LOOP('',(#425,#426,#427,#428)) ;
#442=EDGE_LOOP('',(#443,#444,#445,#446)) ;
#455=EDGE_LOOP('',(#456,#457,#458,#459)) ;
#468=EDGE_LOOP('',(#469,#470,#471,#472)) ;
#481=EDGE_LOOP('',(#482,#483,#484,#485)) ;
#489=EDGE_LOOP('',(#490,#491,#492,#493)) ;
#502=EDGE_LOOP('',(#503,#504,#505,#506)) ;
#515=EDGE_LOOP('',(#516,#517)) ;
#69=FACE_OUTER_BOUND('',#64,.T.) ;
#140=FACE_OUTER_BOUND('',#131,.T.) ;
#255=FACE_OUTER_BOUND('',#244,.T.) ;
#280=FACE_OUTER_BOUND('',#275,.T.) ;
#314=FACE_OUTER_BOUND('',#307,.T.) ;
#348=FACE_OUTER_BOUND('',#339,.T.) ;
#384=FACE_OUTER_BOUND('',#377,.T.) ;
#397=FACE_OUTER_BOUND('',#392,.T.) ;
#429=FACE_OUTER_BOUND('',#424,.T.) ;
#447=FACE_OUTER_BOUND('',#442,.T.) ;
#460=FACE_OUTER_BOUND('',#455,.T.) ;
#473=FACE_OUTER_BOUND('',#468,.T.) ;
#486=FACE_OUTER_BOUND('',#481,.T.) ;
#494=FACE_OUTER_BOUND('',#489,.T.) ;
#507=FACE_OUTER_BOUND('',#502,.T.) ;
#518=FACE_OUTER_BOUND('',#515,.T.) ;
#39=LINE('Line',#36,#38) ;
#48=LINE('Line',#45,#47) ;
#55=LINE('Line',#52,#54) ;
#62=LINE('Line',#59,#61) ;
#87=LINE('Line',#84,#86) ;
#103=LINE('Line',#100,#102) ;
#122=LINE('Line',#119,#121) ;
#151=LINE('Line',#148,#150) ;
#193=LINE('Line',#190,#192) ;
#207=LINE('Line',#204,#206) ;
#266=LINE('Line',#263,#265) ;
#291=LINE('Line',#288,#290) ;
#320=LINE('Line',#317,#319) ;
#325=LINE('Line',#322,#324) ;
#354=LINE('Line',#351,#353) ;
#361=LINE('Line',#358,#360) ;
#390=LINE('Line',#387,#389) ;
#408=LINE('Line',#405,#407) ;
#422=LINE('Line',#419,#421) ;
#440=LINE('Line',#437,#439) ;
#453=LINE('Line',#450,#452) ;
#479=LINE('Line',#476,#478) ;
#35=PLANE('',#34) ;
#147=PLANE('',#146) ;
#287=PLANE('',#286) ;
#467=PLANE('',#466) ;
#514=PLANE('',#513) ;
#9=PRODUCT_CATEGORY_RELATIONSHIP(' ',' ',#7,#8) ;
#6=PRODUCT_DEFINITION_FORMATION_WITH_SPECIFIED_SOURCE(' ',' ',#5,.NOT_KNOWN.) ;
#20=SHAPE_DEFINITION_REPRESENTATION(#11,#19) ;
#41=VERTEX_POINT('',#40) ;
#43=VERTEX_POINT('',#42) ;
#50=VERTEX_POINT('',#49) ;
#57=VERTEX_POINT('',#56) ;
#89=VERTEX_POINT('',#88) ;
#91=VERTEX_POINT('',#90) ;
#98=VERTEX_POINT('',#97) ;
#105=VERTEX_POINT('',#104) ;
#117=VERTEX_POINT('',#116) ;
#124=VERTEX_POINT('',#123) ;
#153=VERTEX_POINT('',#152) ;
#169=VERTEX_POINT('',#168) ;
#188=VERTEX_POINT('',#187) ;
#195=VERTEX_POINT('',#194) ;
#202=VERTEX_POINT('',#201) ;
#209=VERTEX_POINT('',#208) ;
#225=VERTEX_POINT('',#224) ;
#268=VERTEX_POINT('',#267) ;
#293=VERTEX_POINT('',#292) ;
#295=VERTEX_POINT('',#294) ;
#327=VERTEX_POINT('',#326) ;
#356=VERTEX_POINT('',#355) ;
#363=VERTEX_POINT('',#362) ;
#370=VERTEX_POINT('',#369) ;
#410=VERTEX_POINT('',#409) ;
#417=VERTEX_POINT('',#416) ;
#12=(LENGTH_UNIT()NAMED_UNIT(*)SI_UNIT(.MILLI.,.METRE.)) ;
#13=(NAMED_UNIT(*)PLANE_ANGLE_UNIT()SI_UNIT($,.RADIAN.)) ;
#14=(NAMED_UNIT(*)SI_UNIT($,.STERADIAN.)SOLID_ANGLE_UNIT()) ;
#16=(GEOMETRIC_REPRESENTATION_CONTEXT(3)GLOBAL_UNCERTAINTY_ASSIGNED_CONTEXT((#15))GLOBAL_UNIT_ASSIGNED_CONTEXT((#12,#13,#14))REPRESENTATION_CONTEXT(' ',' ')) ;
ENDSEC;
END-ISO-10303-21;
