ISO-10303-21;
HEADER;
FILE_DESCRIPTION(('CATIA V5R24 STEP','CAx-IF Rec.Pracs.--- Model Styling and Organization---1.2---2011-12-15'),'2;1');

FILE_NAME ('D1463251_0', '2018-02-12T14:45:19+00:00', ('Weidmueller Interface'), ('Weidmueller'), 'CATIA Version 5-6 Release 2014 SP4 HF52', 'CATIA V5 STEP AP214', 'none');

FILE_SCHEMA(('AUTOMOTIVE_DESIGN { 1 0 10303 214 1 1 1 1 }'));

ENDSEC;
DATA;
#5=PRODUCT('ESG 9/26 SCM-I','','<Q-CHECKER_SEAL> Q-Checker Version 2.14.8  \X2\000D\X0\\X2\000A\X0\CATIA-Version         : Catia V5 R20 SP5 Build Date 01-14-2011.22.00\X2\000D\X0\\X2\000A\X0\Model size (in KByte) : 0\X2\000D\X0\\X2\000A\X0\Checking date         : 2014-04-14 10:59:22\X2\000D\X0\\X2\000A\X0\Checking profile      : ADMIN / Release_2D-3D [CATPart]\X2\000D\X0\\X2\000A\X0\Model assessment      : Fehlerhaft\X2\000D\X0\\X2\000A\X0\Total weight sum      : 9\X2\000D\X0\\X2\000A\X0\<CROSS_CHECK_SUM>\X2\000D\X0\\X2\000A\X0\  <CHKSUM_DATE> 1308860014 </CHKSUM_DATE>\X2\000D\X0\\X2\000A\X0\  <CHKSUM_ENTITIES> 1078726873 </CHKSUM_ENTITIES>\X2\000D\X0\\X2\000A\X0\  <CHKSUM_PROFILE> 1594213346 </CHKSUM_PROFILE>\X2\000D\X0\\X2\000A\X0\  <CHKSUM_DIMENSION> -186917087 </CHKSUM_DIMENSION>\X2\000D\X0\\X2\000A\X0\  <CHKSUM_PROJINTERSEC> -896974048 </CHKSUM_PROJINTERSEC>\X2\000D\X0\\X2\000A\X0\  <CHKSUM_IDENTCRV> -896974048 </CHKSUM_IDENTCRV>\X2\000D\X0\\X2\000A\X0\  <CHKSUM_INFINITY> 138018827 </CHKSUM_INFINITY>\X2\000D\X0\\X2\000A\X0\</CROSS_CHECK_SUM>\X2\000D\X0\\X2\000A\X0\</Q-CHECKER_SEAL> \X2\000D\X0\\X2\000A\X0\ \X2\000D\X0\\X2\000A\X0\ \X2\000D\X0\\X2\000A\X0\ \X2\000D\X0\\X2\000A\X0\ \X2\000D\X0\\X2\000A\X0\ \X2\000D\X0\\X2\000A\X0\ \X2\000D\X0\\X2\000A\X0\',(#2)) ;
#2=PRODUCT_CONTEXT(' ',#1,'mechanical') ;
#1=APPLICATION_CONTEXT('automotive design') ;
#10=PRODUCT_DEFINITION('',' ',#6,#3) ;
#3=PRODUCT_DEFINITION_CONTEXT('part definition',#1,' ') ;
#11=PRODUCT_DEFINITION_SHAPE(' ',' ',#10) ;
#457=MECHANICAL_DESIGN_GEOMETRIC_PRESENTATION_REPRESENTATION(' ',(#79,#111,#136,#161,#202,#234,#259,#284,#343,#379,#402,#415,#433,#454,#29),#16) ;
#19=SHAPE_REPRESENTATION(' ',(#18),#16) ;
#18=AXIS2_PLACEMENT_3D(' ',#17,$,$) ;
#35=AXIS2_PLACEMENT_3D('Plane Axis2P3D',#32,#33,#34) ;
#83=AXIS2_PLACEMENT_3D('Plane Axis2P3D',#80,#81,#82) ;
#115=AXIS2_PLACEMENT_3D('Plane Axis2P3D',#112,#113,#114) ;
#140=AXIS2_PLACEMENT_3D('Plane Axis2P3D',#137,#138,#139) ;
#165=AXIS2_PLACEMENT_3D('Plane Axis2P3D',#162,#163,#164) ;
#206=AXIS2_PLACEMENT_3D('Plane Axis2P3D',#203,#204,#205) ;
#238=AXIS2_PLACEMENT_3D('Plane Axis2P3D',#235,#236,#237) ;
#263=AXIS2_PLACEMENT_3D('Plane Axis2P3D',#260,#261,#262) ;
#288=AXIS2_PLACEMENT_3D('Plane Axis2P3D',#285,#286,#287) ;
#383=AXIS2_PLACEMENT_3D('Plane Axis2P3D',#380,#381,#382) ;
#419=AXIS2_PLACEMENT_3D('Plane Axis2P3D',#416,#417,#418) ;
#437=AXIS2_PLACEMENT_3D('Plane Axis2P3D',#434,#435,#436) ;
#17=CARTESIAN_POINT(' ',(0.,0.,0.)) ;
#32=CARTESIAN_POINT('Axis2P3D Location',(12.9,4.5,0.)) ;
#37=CARTESIAN_POINT('Line Origine',(24.5,8.4,-2.38806125834E-016)) ;
#41=CARTESIAN_POINT('Vertex',(25.1,9.,-2.75545529808E-016)) ;
#43=CARTESIAN_POINT('Vertex',(23.9,7.8,-2.02066721859E-016)) ;
#46=CARTESIAN_POINT('Line Origine',(22.1,7.8,-2.02066721859E-016)) ;
#50=CARTESIAN_POINT('Vertex',(20.3,7.8,-2.02066721859E-016)) ;
#53=CARTESIAN_POINT('Line Origine',(19.7,8.4,-2.38806125834E-016)) ;
#57=CARTESIAN_POINT('Vertex',(19.1,9.,-2.75545529808E-016)) ;
#60=CARTESIAN_POINT('Line Origine',(22.1,9.,-2.75545529808E-016)) ;
#80=CARTESIAN_POINT('Axis2P3D Location',(19.1,9.,6.)) ;
#85=CARTESIAN_POINT('Line Origine',(19.7,8.4,6.)) ;
#89=CARTESIAN_POINT('Vertex',(19.1,9.,6.)) ;
#91=CARTESIAN_POINT('Vertex',(20.3,7.8,6.)) ;
#94=CARTESIAN_POINT('Line Origine',(19.1,9.,3.)) ;
#99=CARTESIAN_POINT('Line Origine',(20.3,7.8,3.)) ;
#112=CARTESIAN_POINT('Axis2P3D Location',(5.5,7.8,6.)) ;
#117=CARTESIAN_POINT('Line Origine',(23.9,7.8,3.)) ;
#121=CARTESIAN_POINT('Vertex',(23.9,7.8,6.)) ;
#124=CARTESIAN_POINT('Line Origine',(22.1,7.8,6.)) ;
#137=CARTESIAN_POINT('Axis2P3D Location',(23.9,7.8,6.)) ;
#142=CARTESIAN_POINT('Line Origine',(24.5,8.4,6.)) ;
#146=CARTESIAN_POINT('Vertex',(25.1,9.,6.)) ;
#149=CARTESIAN_POINT('Line Origine',(25.1,9.,3.)) ;
#162=CARTESIAN_POINT('Axis2P3D Location',(-1.7763568394E-015,-8.881784197E-016,7.2)) ;
#167=CARTESIAN_POINT('Line Origine',(12.9,-1.71760042199E-016,6.)) ;
#171=CARTESIAN_POINT('Vertex',(-1.7763568394E-015,-7.8989718545E-016,6.)) ;
#173=CARTESIAN_POINT('Vertex',(25.8,7.8989718545E-016,6.)) ;
#176=CARTESIAN_POINT('Line Origine',(25.8,6.54876547226E-016,6.6)) ;
#180=CARTESIAN_POINT('Vertex',(25.8,7.8989718545E-016,7.2)) ;
#183=CARTESIAN_POINT('Line Origine',(12.9,-9.82812342501E-017,7.2)) ;
#187=CARTESIAN_POINT('Vertex',(-1.7763568394E-015,-7.8989718545E-016,7.2)) ;
#190=CARTESIAN_POINT('Line Origine',(-1.7763568394E-015,-9.24917823675E-016,6.6)) ;
#203=CARTESIAN_POINT('Axis2P3D Location',(0.,-8.881784197E-016,7.2)) ;
#208=CARTESIAN_POINT('Line Origine',(-2.75545529808E-016,4.5,6.)) ;
#212=CARTESIAN_POINT('Vertex',(0.,9.,6.)) ;
#215=CARTESIAN_POINT('Line Origine',(-2.75545529808E-016,4.5,7.2)) ;
#219=CARTESIAN_POINT('Vertex',(0.,9.,7.2)) ;
#222=CARTESIAN_POINT('Line Origine',(-5.51091059616E-016,9.,6.6)) ;
#235=CARTESIAN_POINT('Axis2P3D Location',(12.9,4.5,7.2)) ;
#240=CARTESIAN_POINT('Line Origine',(25.8,4.5,7.2)) ;
#244=CARTESIAN_POINT('Vertex',(25.8,9.,7.2)) ;
#247=CARTESIAN_POINT('Line Origine',(12.9,9.,7.2)) ;
#260=CARTESIAN_POINT('Axis2P3D Location',(25.8,9.,7.2)) ;
#265=CARTESIAN_POINT('Line Origine',(25.8,4.5,6.)) ;
#269=CARTESIAN_POINT('Vertex',(25.8,9.,6.)) ;
#272=CARTESIAN_POINT('Line Origine',(25.8,9.,6.6)) ;
#285=CARTESIAN_POINT('Axis2P3D Location',(12.9,4.5,6.)) ;
#290=CARTESIAN_POINT('Line Origine',(25.45,9.,6.)) ;
#295=CARTESIAN_POINT('Line Origine',(0.35,9.,6.)) ;
#299=CARTESIAN_POINT('Vertex',(0.7,9.,6.)) ;
#302=CARTESIAN_POINT('Line Origine',(1.3,8.4,6.)) ;
#306=CARTESIAN_POINT('Vertex',(1.9,7.8,6.)) ;
#309=CARTESIAN_POINT('Line Origine',(3.7,7.8,6.)) ;
#313=CARTESIAN_POINT('Vertex',(5.5,7.8,6.)) ;
#316=CARTESIAN_POINT('Line Origine',(6.1,8.4,6.)) ;
#320=CARTESIAN_POINT('Vertex',(6.7,9.,6.)) ;
#323=CARTESIAN_POINT('Line Origine',(12.9,9.,6.)) ;
#344=CARTESIAN_POINT('Line Origine',(3.7,9.,-2.75545529808E-016)) ;
#348=CARTESIAN_POINT('Vertex',(0.7,9.,-2.75545529808E-016)) ;
#350=CARTESIAN_POINT('Vertex',(6.7,9.,-2.75545529808E-016)) ;
#353=CARTESIAN_POINT('Line Origine',(6.1,8.4,-2.38806125834E-016)) ;
#357=CARTESIAN_POINT('Vertex',(5.5,7.8,-2.02066721859E-016)) ;
#360=CARTESIAN_POINT('Line Origine',(3.7,7.8,-2.02066721859E-016)) ;
#364=CARTESIAN_POINT('Vertex',(1.9,7.8,-2.02066721859E-016)) ;
#367=CARTESIAN_POINT('Line Origine',(1.3,8.4,-2.38806125834E-016)) ;
#380=CARTESIAN_POINT('Axis2P3D Location',(1.9,7.8,6.)) ;
#385=CARTESIAN_POINT('Line Origine',(0.7,9.,3.)) ;
#390=CARTESIAN_POINT('Line Origine',(1.9,7.8,3.)) ;
#403=CARTESIAN_POINT('Line Origine',(5.5,7.8,3.)) ;
#416=CARTESIAN_POINT('Axis2P3D Location',(6.7,9.,6.)) ;
#421=CARTESIAN_POINT('Line Origine',(6.7,9.,3.)) ;
#434=CARTESIAN_POINT('Axis2P3D Location',(25.8,9.,7.2)) ;
#33=DIRECTION('Axis2P3D Direction',(0.,6.12323399574E-017,1.)) ;
#34=DIRECTION('Axis2P3D XDirection',(-6.12323399574E-017,1.,-6.12323399574E-017)) ;
#38=DIRECTION('Vector Direction',(0.707106781187,0.707106781187,-4.32978028118E-017)) ;
#47=DIRECTION('Vector Direction',(1.,0.,-6.84775091338E-033)) ;
#54=DIRECTION('Vector Direction',(0.707106781187,-0.707106781187,4.32978028118E-017)) ;
#61=DIRECTION('Vector Direction',(-1.,0.,8.21730109605E-033)) ;
#81=DIRECTION('Axis2P3D Direction',(0.707106781187,0.707106781187,-4.32978028118E-017)) ;
#82=DIRECTION('Axis2P3D XDirection',(0.707106781187,-0.707106781187,4.32978028118E-017)) ;
#86=DIRECTION('Vector Direction',(0.707106781187,-0.707106781187,0.)) ;
#95=DIRECTION('Vector Direction',(0.,0.,-1.)) ;
#100=DIRECTION('Vector Direction',(0.,0.,-1.)) ;
#113=DIRECTION('Axis2P3D Direction',(6.12323399574E-017,-1.,6.12323399574E-017)) ;
#114=DIRECTION('Axis2P3D XDirection',(-1.,-6.12323399574E-017,3.74939945665E-033)) ;
#118=DIRECTION('Vector Direction',(0.,0.,-1.)) ;
#125=DIRECTION('Vector Direction',(-1.,0.,0.)) ;
#138=DIRECTION('Axis2P3D Direction',(-0.707106781187,0.707106781187,-4.32978028118E-017)) ;
#139=DIRECTION('Axis2P3D XDirection',(0.707106781187,0.707106781187,-4.32978028118E-017)) ;
#143=DIRECTION('Vector Direction',(-0.707106781187,-0.707106781187,0.)) ;
#150=DIRECTION('Vector Direction',(0.,0.,-1.)) ;
#163=DIRECTION('Axis2P3D Direction',(-6.12323399574E-017,1.,-6.12323399574E-017)) ;
#164=DIRECTION('Axis2P3D XDirection',(1.,6.12323399574E-017,-3.74939945665E-033)) ;
#168=DIRECTION('Vector Direction',(1.,6.12323399574E-017,0.)) ;
#177=DIRECTION('Vector Direction',(0.,-6.12323399574E-017,-1.)) ;
#184=DIRECTION('Vector Direction',(1.,6.12323399574E-017,0.)) ;
#191=DIRECTION('Vector Direction',(0.,-6.12323399574E-017,-1.)) ;
#204=DIRECTION('Axis2P3D Direction',(-1.,-6.12323399574E-017,3.74939945665E-033)) ;
#205=DIRECTION('Axis2P3D XDirection',(-6.12323399574E-017,1.,-6.12323399574E-017)) ;
#209=DIRECTION('Vector Direction',(-6.12323399574E-017,1.,-9.86864910778E-017)) ;
#216=DIRECTION('Vector Direction',(-6.12323399574E-017,1.,-9.86864910778E-017)) ;
#223=DIRECTION('Vector Direction',(0.,0.,-1.)) ;
#236=DIRECTION('Axis2P3D Direction',(0.,6.12323399574E-017,1.)) ;
#237=DIRECTION('Axis2P3D XDirection',(-6.12323399574E-017,1.,-6.12323399574E-017)) ;
#241=DIRECTION('Vector Direction',(0.,-1.,0.)) ;
#248=DIRECTION('Vector Direction',(-1.,0.,0.)) ;
#261=DIRECTION('Axis2P3D Direction',(1.,6.12323399574E-017,-3.74939945665E-033)) ;
#262=DIRECTION('Axis2P3D XDirection',(6.12323399574E-017,-1.,6.12323399574E-017)) ;
#266=DIRECTION('Vector Direction',(0.,-1.,9.86864910778E-017)) ;
#273=DIRECTION('Vector Direction',(0.,0.,-1.)) ;
#286=DIRECTION('Axis2P3D Direction',(0.,6.12323399574E-017,1.)) ;
#287=DIRECTION('Axis2P3D XDirection',(-6.12323399574E-017,1.,-6.12323399574E-017)) ;
#291=DIRECTION('Vector Direction',(-1.,0.,0.)) ;
#296=DIRECTION('Vector Direction',(-1.,0.,0.)) ;
#303=DIRECTION('Vector Direction',(0.707106781187,-0.707106781187,0.)) ;
#310=DIRECTION('Vector Direction',(-1.,0.,0.)) ;
#317=DIRECTION('Vector Direction',(-0.707106781187,-0.707106781187,0.)) ;
#324=DIRECTION('Vector Direction',(-1.,0.,0.)) ;
#345=DIRECTION('Vector Direction',(1.,0.,-8.21730109605E-033)) ;
#354=DIRECTION('Vector Direction',(-0.707106781187,-0.707106781187,4.32978028118E-017)) ;
#361=DIRECTION('Vector Direction',(-1.,0.,6.84775091338E-033)) ;
#368=DIRECTION('Vector Direction',(-0.707106781187,0.707106781187,-4.32978028118E-017)) ;
#381=DIRECTION('Axis2P3D Direction',(-0.707106781187,-0.707106781187,4.32978028118E-017)) ;
#382=DIRECTION('Axis2P3D XDirection',(-0.707106781187,0.707106781187,-4.32978028118E-017)) ;
#386=DIRECTION('Vector Direction',(0.,0.,-1.)) ;
#391=DIRECTION('Vector Direction',(0.,0.,-1.)) ;
#404=DIRECTION('Vector Direction',(0.,0.,-1.)) ;
#417=DIRECTION('Axis2P3D Direction',(0.707106781187,-0.707106781187,4.32978028118E-017)) ;
#418=DIRECTION('Axis2P3D XDirection',(-0.707106781187,-0.707106781187,4.32978028118E-017)) ;
#422=DIRECTION('Vector Direction',(0.,0.,-1.)) ;
#435=DIRECTION('Axis2P3D Direction',(6.12323399574E-017,-1.,6.12323399574E-017)) ;
#436=DIRECTION('Axis2P3D XDirection',(-1.,-6.12323399574E-017,3.74939945665E-033)) ;
#30=PRESENTATION_LAYER_ASSIGNMENT('1',' ',(#21)) ;
#8=PRODUCT_RELATED_PRODUCT_CATEGORY('part',$,(#5)) ;
#7=PRODUCT_CATEGORY('part','specification') ;
#29=STYLED_ITEM(' ',(#28),#21) ;
#28=PRESENTATION_STYLE_ASSIGNMENT((#27)) ;
#78=PRESENTATION_STYLE_ASSIGNMENT((#77)) ;
#27=SURFACE_STYLE_USAGE(.BOTH.,#26) ;
#77=SURFACE_STYLE_USAGE(.BOTH.,#76) ;
#26=SURFACE_SIDE_STYLE(' ',(#25)) ;
#76=SURFACE_SIDE_STYLE(' ',(#75)) ;
#25=SURFACE_STYLE_FILL_AREA(#24) ;
#75=SURFACE_STYLE_FILL_AREA(#74) ;
#24=FILL_AREA_STYLE(' ',(#23)) ;
#74=FILL_AREA_STYLE(' ',(#73)) ;
#23=FILL_AREA_STYLE_COLOUR(' ',#22) ;
#73=FILL_AREA_STYLE_COLOUR(' ',#72) ;
#39=VECTOR('Line Direction',#38,1.) ;
#48=VECTOR('Line Direction',#47,1.) ;
#55=VECTOR('Line Direction',#54,1.) ;
#62=VECTOR('Line Direction',#61,1.) ;
#87=VECTOR('Line Direction',#86,1.) ;
#96=VECTOR('Line Direction',#95,1.) ;
#101=VECTOR('Line Direction',#100,1.) ;
#119=VECTOR('Line Direction',#118,1.) ;
#126=VECTOR('Line Direction',#125,1.) ;
#144=VECTOR('Line Direction',#143,1.) ;
#151=VECTOR('Line Direction',#150,1.) ;
#169=VECTOR('Line Direction',#168,1.) ;
#178=VECTOR('Line Direction',#177,1.) ;
#185=VECTOR('Line Direction',#184,1.) ;
#192=VECTOR('Line Direction',#191,1.) ;
#210=VECTOR('Line Direction',#209,1.) ;
#217=VECTOR('Line Direction',#216,1.) ;
#224=VECTOR('Line Direction',#223,1.) ;
#242=VECTOR('Line Direction',#241,1.) ;
#249=VECTOR('Line Direction',#248,1.) ;
#267=VECTOR('Line Direction',#266,1.) ;
#274=VECTOR('Line Direction',#273,1.) ;
#292=VECTOR('Line Direction',#291,1.) ;
#297=VECTOR('Line Direction',#296,1.) ;
#304=VECTOR('Line Direction',#303,1.) ;
#311=VECTOR('Line Direction',#310,1.) ;
#318=VECTOR('Line Direction',#317,1.) ;
#325=VECTOR('Line Direction',#324,1.) ;
#346=VECTOR('Line Direction',#345,1.) ;
#355=VECTOR('Line Direction',#354,1.) ;
#362=VECTOR('Line Direction',#361,1.) ;
#369=VECTOR('Line Direction',#368,1.) ;
#387=VECTOR('Line Direction',#386,1.) ;
#392=VECTOR('Line Direction',#391,1.) ;
#405=VECTOR('Line Direction',#404,1.) ;
#423=VECTOR('Line Direction',#422,1.) ;
#15=UNCERTAINTY_MEASURE_WITH_UNIT(LENGTH_MEASURE(0.005),#12,'distance_accuracy_value','CONFUSED CURVE UNCERTAINTY') ;
#456=SHAPE_REPRESENTATION_RELATIONSHIP(' ',' ',#19,#455) ;
#66=ORIENTED_EDGE('',*,*,#45,.T.) ;
#67=ORIENTED_EDGE('',*,*,#52,.T.) ;
#68=ORIENTED_EDGE('',*,*,#59,.T.) ;
#69=ORIENTED_EDGE('',*,*,#64,.T.) ;
#105=ORIENTED_EDGE('',*,*,#93,.F.) ;
#106=ORIENTED_EDGE('',*,*,#98,.T.) ;
#107=ORIENTED_EDGE('',*,*,#59,.F.) ;
#108=ORIENTED_EDGE('',*,*,#103,.F.) ;
#130=ORIENTED_EDGE('',*,*,#103,.T.) ;
#131=ORIENTED_EDGE('',*,*,#52,.F.) ;
#132=ORIENTED_EDGE('',*,*,#123,.F.) ;
#133=ORIENTED_EDGE('',*,*,#128,.T.) ;
#155=ORIENTED_EDGE('',*,*,#148,.T.) ;
#156=ORIENTED_EDGE('',*,*,#123,.T.) ;
#157=ORIENTED_EDGE('',*,*,#45,.F.) ;
#158=ORIENTED_EDGE('',*,*,#153,.F.) ;
#196=ORIENTED_EDGE('',*,*,#175,.T.) ;
#197=ORIENTED_EDGE('',*,*,#182,.F.) ;
#198=ORIENTED_EDGE('',*,*,#189,.F.) ;
#199=ORIENTED_EDGE('',*,*,#194,.T.) ;
#228=ORIENTED_EDGE('',*,*,#214,.T.) ;
#229=ORIENTED_EDGE('',*,*,#194,.F.) ;
#230=ORIENTED_EDGE('',*,*,#221,.F.) ;
#231=ORIENTED_EDGE('',*,*,#226,.T.) ;
#253=ORIENTED_EDGE('',*,*,#189,.T.) ;
#254=ORIENTED_EDGE('',*,*,#246,.T.) ;
#255=ORIENTED_EDGE('',*,*,#251,.T.) ;
#256=ORIENTED_EDGE('',*,*,#221,.T.) ;
#278=ORIENTED_EDGE('',*,*,#271,.T.) ;
#279=ORIENTED_EDGE('',*,*,#276,.F.) ;
#280=ORIENTED_EDGE('',*,*,#246,.F.) ;
#281=ORIENTED_EDGE('',*,*,#182,.T.) ;
#329=ORIENTED_EDGE('',*,*,#93,.T.) ;
#330=ORIENTED_EDGE('',*,*,#128,.F.) ;
#331=ORIENTED_EDGE('',*,*,#148,.F.) ;
#332=ORIENTED_EDGE('',*,*,#294,.F.) ;
#333=ORIENTED_EDGE('',*,*,#271,.F.) ;
#334=ORIENTED_EDGE('',*,*,#175,.F.) ;
#335=ORIENTED_EDGE('',*,*,#214,.F.) ;
#336=ORIENTED_EDGE('',*,*,#301,.F.) ;
#337=ORIENTED_EDGE('',*,*,#308,.T.) ;
#338=ORIENTED_EDGE('',*,*,#315,.F.) ;
#339=ORIENTED_EDGE('',*,*,#322,.F.) ;
#340=ORIENTED_EDGE('',*,*,#327,.F.) ;
#373=ORIENTED_EDGE('',*,*,#352,.T.) ;
#374=ORIENTED_EDGE('',*,*,#359,.T.) ;
#375=ORIENTED_EDGE('',*,*,#366,.T.) ;
#376=ORIENTED_EDGE('',*,*,#371,.T.) ;
#396=ORIENTED_EDGE('',*,*,#389,.T.) ;
#397=ORIENTED_EDGE('',*,*,#371,.F.) ;
#398=ORIENTED_EDGE('',*,*,#394,.F.) ;
#399=ORIENTED_EDGE('',*,*,#308,.F.) ;
#409=ORIENTED_EDGE('',*,*,#394,.T.) ;
#410=ORIENTED_EDGE('',*,*,#366,.F.) ;
#411=ORIENTED_EDGE('',*,*,#407,.F.) ;
#412=ORIENTED_EDGE('',*,*,#315,.T.) ;
#427=ORIENTED_EDGE('',*,*,#407,.T.) ;
#428=ORIENTED_EDGE('',*,*,#359,.F.) ;
#429=ORIENTED_EDGE('',*,*,#425,.F.) ;
#430=ORIENTED_EDGE('',*,*,#322,.T.) ;
#440=ORIENTED_EDGE('',*,*,#327,.T.) ;
#441=ORIENTED_EDGE('',*,*,#425,.T.) ;
#442=ORIENTED_EDGE('',*,*,#352,.F.) ;
#443=ORIENTED_EDGE('',*,*,#389,.F.) ;
#444=ORIENTED_EDGE('',*,*,#301,.T.) ;
#445=ORIENTED_EDGE('',*,*,#226,.F.) ;
#446=ORIENTED_EDGE('',*,*,#251,.F.) ;
#447=ORIENTED_EDGE('',*,*,#276,.T.) ;
#448=ORIENTED_EDGE('',*,*,#294,.T.) ;
#449=ORIENTED_EDGE('',*,*,#153,.T.) ;
#450=ORIENTED_EDGE('',*,*,#64,.F.) ;
#451=ORIENTED_EDGE('',*,*,#98,.F.) ;
#31=CLOSED_SHELL('Closed Shell',(#71,#110,#135,#160,#201,#233,#258,#283,#342,#378,#401,#414,#432,#453)) ;
#455=ADVANCED_BREP_SHAPE_REPRESENTATION('NONE',(#21),#16) ;
#71=ADVANCED_FACE('S3D-gedreht',(#70),#36,.F.) ;
#110=ADVANCED_FACE('S3D-gedreht',(#109),#84,.F.) ;
#135=ADVANCED_FACE('S3D-gedreht',(#134),#116,.T.) ;
#160=ADVANCED_FACE('S3D-gedreht',(#159),#141,.F.) ;
#201=ADVANCED_FACE('S3D-gedreht',(#200),#166,.F.) ;
#233=ADVANCED_FACE('S3D-gedreht',(#232),#207,.T.) ;
#258=ADVANCED_FACE('S3D-gedreht',(#257),#239,.T.) ;
#283=ADVANCED_FACE('S3D-gedreht',(#282),#264,.T.) ;
#342=ADVANCED_FACE('S3D-gedreht',(#341),#289,.F.) ;
#378=ADVANCED_FACE('S3D-gedreht',(#377),#36,.F.) ;
#401=ADVANCED_FACE('S3D-gedreht',(#400),#384,.T.) ;
#414=ADVANCED_FACE('S3D-gedreht',(#413),#116,.T.) ;
#432=ADVANCED_FACE('S3D-gedreht',(#431),#420,.T.) ;
#453=ADVANCED_FACE('S3D-gedreht',(#452),#438,.F.) ;
#4=APPLICATION_PROTOCOL_DEFINITION('international standard','automotive_design',2001,#1) ;
#21=MANIFOLD_SOLID_BREP('S3D-gedreht',#31) ;
#22=COLOUR_RGB('Colour',0.823529411765,0.823529411765,1.) ;
#79=OVER_RIDING_STYLED_ITEM(' ',(#78),#71,#29) ;
#111=OVER_RIDING_STYLED_ITEM(' ',(#78),#110,#29) ;
#136=OVER_RIDING_STYLED_ITEM(' ',(#78),#135,#29) ;
#161=OVER_RIDING_STYLED_ITEM(' ',(#78),#160,#29) ;
#202=OVER_RIDING_STYLED_ITEM(' ',(#78),#201,#29) ;
#234=OVER_RIDING_STYLED_ITEM(' ',(#78),#233,#29) ;
#259=OVER_RIDING_STYLED_ITEM(' ',(#78),#258,#29) ;
#284=OVER_RIDING_STYLED_ITEM(' ',(#78),#283,#29) ;
#343=OVER_RIDING_STYLED_ITEM(' ',(#78),#342,#29) ;
#379=OVER_RIDING_STYLED_ITEM(' ',(#78),#378,#29) ;
#402=OVER_RIDING_STYLED_ITEM(' ',(#78),#401,#29) ;
#415=OVER_RIDING_STYLED_ITEM(' ',(#78),#414,#29) ;
#433=OVER_RIDING_STYLED_ITEM(' ',(#78),#432,#29) ;
#454=OVER_RIDING_STYLED_ITEM(' ',(#78),#453,#29) ;
#72=DRAUGHTING_PRE_DEFINED_COLOUR('white') ;
#45=EDGE_CURVE('',#42,#44,#40,.F.) ;
#52=EDGE_CURVE('',#44,#51,#49,.F.) ;
#59=EDGE_CURVE('',#51,#58,#56,.F.) ;
#64=EDGE_CURVE('',#58,#42,#63,.F.) ;
#93=EDGE_CURVE('',#90,#92,#88,.T.) ;
#98=EDGE_CURVE('',#90,#58,#97,.T.) ;
#103=EDGE_CURVE('',#92,#51,#102,.T.) ;
#123=EDGE_CURVE('',#122,#44,#120,.T.) ;
#128=EDGE_CURVE('',#122,#92,#127,.T.) ;
#148=EDGE_CURVE('',#147,#122,#145,.T.) ;
#153=EDGE_CURVE('',#147,#42,#152,.T.) ;
#175=EDGE_CURVE('',#172,#174,#170,.T.) ;
#182=EDGE_CURVE('',#181,#174,#179,.T.) ;
#189=EDGE_CURVE('',#188,#181,#186,.T.) ;
#194=EDGE_CURVE('',#188,#172,#193,.T.) ;
#214=EDGE_CURVE('',#213,#172,#211,.F.) ;
#221=EDGE_CURVE('',#220,#188,#218,.F.) ;
#226=EDGE_CURVE('',#220,#213,#225,.T.) ;
#246=EDGE_CURVE('',#181,#245,#243,.F.) ;
#251=EDGE_CURVE('',#245,#220,#250,.T.) ;
#271=EDGE_CURVE('',#174,#270,#268,.F.) ;
#276=EDGE_CURVE('',#245,#270,#275,.T.) ;
#294=EDGE_CURVE('',#270,#147,#293,.T.) ;
#301=EDGE_CURVE('',#300,#213,#298,.T.) ;
#308=EDGE_CURVE('',#300,#307,#305,.T.) ;
#315=EDGE_CURVE('',#314,#307,#312,.T.) ;
#322=EDGE_CURVE('',#321,#314,#319,.T.) ;
#327=EDGE_CURVE('',#90,#321,#326,.T.) ;
#352=EDGE_CURVE('',#349,#351,#347,.T.) ;
#359=EDGE_CURVE('',#351,#358,#356,.T.) ;
#366=EDGE_CURVE('',#358,#365,#363,.T.) ;
#371=EDGE_CURVE('',#365,#349,#370,.T.) ;
#389=EDGE_CURVE('',#300,#349,#388,.T.) ;
#394=EDGE_CURVE('',#307,#365,#393,.T.) ;
#407=EDGE_CURVE('',#314,#358,#406,.T.) ;
#425=EDGE_CURVE('',#321,#351,#424,.T.) ;
#65=EDGE_LOOP('',(#66,#67,#68,#69)) ;
#104=EDGE_LOOP('',(#105,#106,#107,#108)) ;
#129=EDGE_LOOP('',(#130,#131,#132,#133)) ;
#154=EDGE_LOOP('',(#155,#156,#157,#158)) ;
#195=EDGE_LOOP('',(#196,#197,#198,#199)) ;
#227=EDGE_LOOP('',(#228,#229,#230,#231)) ;
#252=EDGE_LOOP('',(#253,#254,#255,#256)) ;
#277=EDGE_LOOP('',(#278,#279,#280,#281)) ;
#328=EDGE_LOOP('',(#329,#330,#331,#332,#333,#334,#335,#336,#337,#338,#339,#340)) ;
#372=EDGE_LOOP('',(#373,#374,#375,#376)) ;
#395=EDGE_LOOP('',(#396,#397,#398,#399)) ;
#408=EDGE_LOOP('',(#409,#410,#411,#412)) ;
#426=EDGE_LOOP('',(#427,#428,#429,#430)) ;
#439=EDGE_LOOP('',(#440,#441,#442,#443,#444,#445,#446,#447,#448,#449,#450,#451)) ;
#70=FACE_OUTER_BOUND('',#65,.T.) ;
#109=FACE_OUTER_BOUND('',#104,.T.) ;
#134=FACE_OUTER_BOUND('',#129,.T.) ;
#159=FACE_OUTER_BOUND('',#154,.T.) ;
#200=FACE_OUTER_BOUND('',#195,.T.) ;
#232=FACE_OUTER_BOUND('',#227,.T.) ;
#257=FACE_OUTER_BOUND('',#252,.T.) ;
#282=FACE_OUTER_BOUND('',#277,.T.) ;
#341=FACE_OUTER_BOUND('',#328,.T.) ;
#377=FACE_OUTER_BOUND('',#372,.T.) ;
#400=FACE_OUTER_BOUND('',#395,.T.) ;
#413=FACE_OUTER_BOUND('',#408,.T.) ;
#431=FACE_OUTER_BOUND('',#426,.T.) ;
#452=FACE_OUTER_BOUND('',#439,.T.) ;
#40=LINE('Line',#37,#39) ;
#49=LINE('Line',#46,#48) ;
#56=LINE('Line',#53,#55) ;
#63=LINE('Line',#60,#62) ;
#88=LINE('Line',#85,#87) ;
#97=LINE('Line',#94,#96) ;
#102=LINE('Line',#99,#101) ;
#120=LINE('Line',#117,#119) ;
#127=LINE('Line',#124,#126) ;
#145=LINE('Line',#142,#144) ;
#152=LINE('Line',#149,#151) ;
#170=LINE('Line',#167,#169) ;
#179=LINE('Line',#176,#178) ;
#186=LINE('Line',#183,#185) ;
#193=LINE('Line',#190,#192) ;
#211=LINE('Line',#208,#210) ;
#218=LINE('Line',#215,#217) ;
#225=LINE('Line',#222,#224) ;
#243=LINE('Line',#240,#242) ;
#250=LINE('Line',#247,#249) ;
#268=LINE('Line',#265,#267) ;
#275=LINE('Line',#272,#274) ;
#293=LINE('Line',#290,#292) ;
#298=LINE('Line',#295,#297) ;
#305=LINE('Line',#302,#304) ;
#312=LINE('Line',#309,#311) ;
#319=LINE('Line',#316,#318) ;
#326=LINE('Line',#323,#325) ;
#347=LINE('Line',#344,#346) ;
#356=LINE('Line',#353,#355) ;
#363=LINE('Line',#360,#362) ;
#370=LINE('Line',#367,#369) ;
#388=LINE('Line',#385,#387) ;
#393=LINE('Line',#390,#392) ;
#406=LINE('Line',#403,#405) ;
#424=LINE('Line',#421,#423) ;
#36=PLANE('',#35) ;
#84=PLANE('',#83) ;
#116=PLANE('',#115) ;
#141=PLANE('',#140) ;
#166=PLANE('',#165) ;
#207=PLANE('',#206) ;
#239=PLANE('',#238) ;
#264=PLANE('',#263) ;
#289=PLANE('',#288) ;
#384=PLANE('',#383) ;
#420=PLANE('',#419) ;
#438=PLANE('',#437) ;
#9=PRODUCT_CATEGORY_RELATIONSHIP(' ',' ',#7,#8) ;
#6=PRODUCT_DEFINITION_FORMATION_WITH_SPECIFIED_SOURCE('',' ',#5,.NOT_KNOWN.) ;
#20=SHAPE_DEFINITION_REPRESENTATION(#11,#19) ;
#42=VERTEX_POINT('',#41) ;
#44=VERTEX_POINT('',#43) ;
#51=VERTEX_POINT('',#50) ;
#58=VERTEX_POINT('',#57) ;
#90=VERTEX_POINT('',#89) ;
#92=VERTEX_POINT('',#91) ;
#122=VERTEX_POINT('',#121) ;
#147=VERTEX_POINT('',#146) ;
#172=VERTEX_POINT('',#171) ;
#174=VERTEX_POINT('',#173) ;
#181=VERTEX_POINT('',#180) ;
#188=VERTEX_POINT('',#187) ;
#213=VERTEX_POINT('',#212) ;
#220=VERTEX_POINT('',#219) ;
#245=VERTEX_POINT('',#244) ;
#270=VERTEX_POINT('',#269) ;
#300=VERTEX_POINT('',#299) ;
#307=VERTEX_POINT('',#306) ;
#314=VERTEX_POINT('',#313) ;
#321=VERTEX_POINT('',#320) ;
#349=VERTEX_POINT('',#348) ;
#351=VERTEX_POINT('',#350) ;
#358=VERTEX_POINT('',#357) ;
#365=VERTEX_POINT('',#364) ;
#12=(LENGTH_UNIT()NAMED_UNIT(*)SI_UNIT(.MILLI.,.METRE.)) ;
#13=(NAMED_UNIT(*)PLANE_ANGLE_UNIT()SI_UNIT($,.RADIAN.)) ;
#14=(NAMED_UNIT(*)SI_UNIT($,.STERADIAN.)SOLID_ANGLE_UNIT()) ;
#16=(GEOMETRIC_REPRESENTATION_CONTEXT(3)GLOBAL_UNCERTAINTY_ASSIGNED_CONTEXT((#15))GLOBAL_UNIT_ASSIGNED_CONTEXT((#12,#13,#14))REPRESENTATION_CONTEXT(' ',' ')) ;
ENDSEC;
END-ISO-10303-21;
