ISO-10303-21;
HEADER;
FILE_DESCRIPTION(('CATIA V5R24 STEP','CAx-IF Rec.Pracs.--- Model Styling and Organization---1.2---2011-12-15'),'2;1');

FILE_NAME ('D1445604_0', '2017-02-27T07:30:55+00:00', ('Weidmueller Interface'), ('Weidmueller'), 'CATIA Version 5-6 Release 2014 SP4 HF52', 'CATIA V5 STEP AP214', 'none');

FILE_SCHEMA(('AUTOMOTIVE_DESIGN { 1 0 10303 214 1 1 1 1 }'));

ENDSEC;
DATA;
#5=PRODUCT('v5-standard_part','','',(#2)) ;
#2=PRODUCT_CONTEXT(' ',#1,'mechanical') ;
#1=APPLICATION_CONTEXT('automotive design') ;
#10=PRODUCT_DEFINITION('',' ',#6,#3) ;
#3=PRODUCT_DEFINITION_CONTEXT('part definition',#1,' ') ;
#11=PRODUCT_DEFINITION_SHAPE(' ',' ',#10) ;
#599=MECHANICAL_DESIGN_GEOMETRIC_PRESENTATION_REPRESENTATION(' ',(#46),#16) ;
#19=SHAPE_REPRESENTATION(' ',(#18),#16) ;
#18=AXIS2_PLACEMENT_3D(' ',#17,$,$) ;
#24=AXIS2_PLACEMENT_3D('Plane Axis2P3D',#21,#22,#23) ;
#31=AXIS2_PLACEMENT_3D('Plane Axis2P3D',#28,#29,#30) ;
#36=AXIS2_PLACEMENT_3D('Plane Axis2P3D',#33,#34,#35) ;
#52=AXIS2_PLACEMENT_3D('Plane Axis2P3D',#49,#50,#51) ;
#92=AXIS2_PLACEMENT_3D('Plane Axis2P3D',#89,#90,#91) ;
#123=AXIS2_PLACEMENT_3D('Plane Axis2P3D',#120,#121,#122) ;
#147=AXIS2_PLACEMENT_3D('Plane Axis2P3D',#144,#145,#146) ;
#171=AXIS2_PLACEMENT_3D('Plane Axis2P3D',#168,#169,#170) ;
#188=AXIS2_PLACEMENT_3D('Cylinder Axis2P3D',#185,#186,#187) ;
#192=AXIS2_PLACEMENT_3D('Circle Axis2P3D',#190,#191,$) ;
#199=AXIS2_PLACEMENT_3D('Circle Axis2P3D',#197,#198,$) ;
#219=AXIS2_PLACEMENT_3D('Plane Axis2P3D',#216,#217,#218) ;
#223=AXIS2_PLACEMENT_3D('Circle Axis2P3D',#221,#222,$) ;
#243=AXIS2_PLACEMENT_3D('Cylinder Axis2P3D',#240,#241,#242) ;
#254=AXIS2_PLACEMENT_3D('Circle Axis2P3D',#252,#253,$) ;
#267=AXIS2_PLACEMENT_3D('Plane Axis2P3D',#264,#265,#266) ;
#284=AXIS2_PLACEMENT_3D('Plane Axis2P3D',#281,#282,#283) ;
#315=AXIS2_PLACEMENT_3D('Plane Axis2P3D',#312,#313,#314) ;
#346=AXIS2_PLACEMENT_3D('Plane Axis2P3D',#343,#344,#345) ;
#377=AXIS2_PLACEMENT_3D('Plane Axis2P3D',#374,#375,#376) ;
#408=AXIS2_PLACEMENT_3D('Plane Axis2P3D',#405,#406,#407) ;
#439=AXIS2_PLACEMENT_3D('Plane Axis2P3D',#436,#437,#438) ;
#470=AXIS2_PLACEMENT_3D('Plane Axis2P3D',#467,#468,#469) ;
#492=AXIS2_PLACEMENT_3D('Plane Axis2P3D',#489,#490,#491) ;
#506=AXIS2_PLACEMENT_3D('Circle Axis2P3D',#504,#505,$) ;
#515=AXIS2_PLACEMENT_3D('Circle Axis2P3D',#513,#514,$) ;
#526=AXIS2_PLACEMENT_3D('Cylinder Axis2P3D',#523,#524,#525) ;
#537=AXIS2_PLACEMENT_3D('Circle Axis2P3D',#535,#536,$) ;
#557=AXIS2_PLACEMENT_3D('Plane Axis2P3D',#554,#555,#556) ;
#588=AXIS2_PLACEMENT_3D('Cylinder Axis2P3D',#585,#586,#587) ;
#17=CARTESIAN_POINT(' ',(0.,0.,0.)) ;
#21=CARTESIAN_POINT('Axis2P3D Location',(0.,0.,0.)) ;
#28=CARTESIAN_POINT('Axis2P3D Location',(0.,0.,0.)) ;
#33=CARTESIAN_POINT('Axis2P3D Location',(0.,0.,0.)) ;
#49=CARTESIAN_POINT('Axis2P3D Location',(12.5,5.,7.7)) ;
#54=CARTESIAN_POINT('Line Origine',(12.5,5.,7.7)) ;
#58=CARTESIAN_POINT('Vertex',(12.5,7.67082039325,7.70000000004)) ;
#60=CARTESIAN_POINT('Vertex',(12.5,2.32917960675,7.70000000002)) ;
#63=CARTESIAN_POINT('Line Origine',(11.7,7.67082039325,7.7)) ;
#67=CARTESIAN_POINT('Vertex',(10.9,7.67082039325,7.7)) ;
#70=CARTESIAN_POINT('Line Origine',(10.9,5.,7.7)) ;
#74=CARTESIAN_POINT('Vertex',(10.9,2.32917960675,7.7)) ;
#77=CARTESIAN_POINT('Line Origine',(11.7,2.32917960675,7.7)) ;
#89=CARTESIAN_POINT('Axis2P3D Location',(12.5,2.32917960675,4.89999999993)) ;
#94=CARTESIAN_POINT('Line Origine',(12.5,2.32917960675,4.89999999998)) ;
#98=CARTESIAN_POINT('Vertex',(12.5,2.32917960675,2.1)) ;
#101=CARTESIAN_POINT('Line Origine',(10.9,2.32917960675,4.9)) ;
#105=CARTESIAN_POINT('Vertex',(10.9,2.32917960675,2.09999999994)) ;
#108=CARTESIAN_POINT('Line Origine',(11.7,2.32917960675,2.09999999994)) ;
#120=CARTESIAN_POINT('Axis2P3D Location',(12.5,5.,2.1)) ;
#125=CARTESIAN_POINT('Line Origine',(12.5,5.,2.1)) ;
#129=CARTESIAN_POINT('Vertex',(12.5,7.67082039325,2.1)) ;
#132=CARTESIAN_POINT('Line Origine',(12.5,7.67082039325,4.9)) ;
#144=CARTESIAN_POINT('Axis2P3D Location',(12.5,7.67082039325,4.89999999993)) ;
#149=CARTESIAN_POINT('Line Origine',(11.7,7.67082039325,2.09999999994)) ;
#153=CARTESIAN_POINT('Vertex',(10.9,7.67082039325,2.1)) ;
#156=CARTESIAN_POINT('Line Origine',(10.9,7.67082039325,4.9)) ;
#168=CARTESIAN_POINT('Axis2P3D Location',(10.9,5.,2.1)) ;
#173=CARTESIAN_POINT('Line Origine',(10.9,5.,2.1)) ;
#185=CARTESIAN_POINT('Axis2P3D Location',(10.4,5.,2.1)) ;
#190=CARTESIAN_POINT('Axis2P3D Location',(10.4,2.32917960675,2.1)) ;
#194=CARTESIAN_POINT('Vertex',(10.4,2.32917960675,1.6)) ;
#197=CARTESIAN_POINT('Axis2P3D Location',(10.4,7.67082039325,2.1)) ;
#201=CARTESIAN_POINT('Vertex',(10.4,7.67082039325,1.6)) ;
#204=CARTESIAN_POINT('Line Origine',(10.4,5.,1.6)) ;
#216=CARTESIAN_POINT('Axis2P3D Location',(12.5,7.67082039325,2.1)) ;
#221=CARTESIAN_POINT('Axis2P3D Location',(10.4,7.67082039325,2.1)) ;
#225=CARTESIAN_POINT('Vertex',(10.4,7.67082039325,0.)) ;
#228=CARTESIAN_POINT('Line Origine',(10.4,7.67082039325,0.8)) ;
#240=CARTESIAN_POINT('Axis2P3D Location',(10.4,5.,2.1)) ;
#245=CARTESIAN_POINT('Line Origine',(10.4,5.,0.)) ;
#249=CARTESIAN_POINT('Vertex',(10.4,2.32917960675,0.)) ;
#252=CARTESIAN_POINT('Axis2P3D Location',(10.4,2.32917960675,2.1)) ;
#264=CARTESIAN_POINT('Axis2P3D Location',(12.5,2.32917960675,2.1)) ;
#269=CARTESIAN_POINT('Line Origine',(10.4,2.32917960675,0.8)) ;
#281=CARTESIAN_POINT('Axis2P3D Location',(10.5,2.32917960675,0.)) ;
#286=CARTESIAN_POINT('Line Origine',(10.45,2.32917960675,0.)) ;
#290=CARTESIAN_POINT('Vertex',(10.5,2.32917960675,0.)) ;
#293=CARTESIAN_POINT('Line Origine',(10.45,2.32917960675,1.6)) ;
#297=CARTESIAN_POINT('Vertex',(10.5,2.32917960675,1.6)) ;
#300=CARTESIAN_POINT('Line Origine',(10.5,2.32917960675,0.8)) ;
#312=CARTESIAN_POINT('Axis2P3D Location',(10.5,0.,0.)) ;
#317=CARTESIAN_POINT('Line Origine',(10.5,1.16458980338,0.)) ;
#321=CARTESIAN_POINT('Vertex',(10.5,0.,0.)) ;
#324=CARTESIAN_POINT('Line Origine',(10.5,1.16458980338,1.6)) ;
#328=CARTESIAN_POINT('Vertex',(10.5,0.,1.6)) ;
#331=CARTESIAN_POINT('Line Origine',(10.5,0.,0.8)) ;
#343=CARTESIAN_POINT('Axis2P3D Location',(0.,0.,0.)) ;
#348=CARTESIAN_POINT('Line Origine',(5.25,0.,0.)) ;
#352=CARTESIAN_POINT('Vertex',(0.,0.,0.)) ;
#355=CARTESIAN_POINT('Line Origine',(5.25,0.,1.6)) ;
#359=CARTESIAN_POINT('Vertex',(0.,0.,1.6)) ;
#362=CARTESIAN_POINT('Line Origine',(0.,0.,0.8)) ;
#374=CARTESIAN_POINT('Axis2P3D Location',(0.,10.,0.)) ;
#379=CARTESIAN_POINT('Line Origine',(0.,5.,0.)) ;
#383=CARTESIAN_POINT('Vertex',(0.,10.,0.)) ;
#386=CARTESIAN_POINT('Line Origine',(0.,5.,1.6)) ;
#390=CARTESIAN_POINT('Vertex',(0.,10.,1.6)) ;
#393=CARTESIAN_POINT('Line Origine',(0.,10.,0.8)) ;
#405=CARTESIAN_POINT('Axis2P3D Location',(10.5,10.,0.)) ;
#410=CARTESIAN_POINT('Line Origine',(5.25,10.,0.)) ;
#414=CARTESIAN_POINT('Vertex',(10.5,10.,0.)) ;
#417=CARTESIAN_POINT('Line Origine',(5.25,10.,1.6)) ;
#421=CARTESIAN_POINT('Vertex',(10.5,10.,1.6)) ;
#424=CARTESIAN_POINT('Line Origine',(10.5,10.,0.8)) ;
#436=CARTESIAN_POINT('Axis2P3D Location',(10.5,7.67082039325,0.)) ;
#441=CARTESIAN_POINT('Line Origine',(10.5,8.83541019662,0.)) ;
#445=CARTESIAN_POINT('Vertex',(10.5,7.67082039325,0.)) ;
#448=CARTESIAN_POINT('Line Origine',(10.5,8.83541019662,1.6)) ;
#452=CARTESIAN_POINT('Vertex',(10.5,7.67082039325,1.6)) ;
#455=CARTESIAN_POINT('Line Origine',(10.5,7.67082039325,0.8)) ;
#467=CARTESIAN_POINT('Axis2P3D Location',(10.4,7.67082039325,0.)) ;
#472=CARTESIAN_POINT('Line Origine',(10.45,7.67082039325,1.6)) ;
#477=CARTESIAN_POINT('Line Origine',(10.45,7.67082039325,-1.71624467468E-027)) ;
#489=CARTESIAN_POINT('Axis2P3D Location',(0.,0.,0.)) ;
#504=CARTESIAN_POINT('Axis2P3D Location',(5.2,5.,0.)) ;
#508=CARTESIAN_POINT('Vertex',(8.2,5.,0.)) ;
#510=CARTESIAN_POINT('Vertex',(2.2,5.,0.)) ;
#513=CARTESIAN_POINT('Axis2P3D Location',(5.2,5.,0.)) ;
#523=CARTESIAN_POINT('Axis2P3D Location',(5.2,5.,0.)) ;
#528=CARTESIAN_POINT('Line Origine',(2.2,5.,0.8)) ;
#532=CARTESIAN_POINT('Vertex',(2.2,5.,1.6)) ;
#535=CARTESIAN_POINT('Axis2P3D Location',(5.2,5.,1.6)) ;
#539=CARTESIAN_POINT('Vertex',(8.2,5.,1.6)) ;
#542=CARTESIAN_POINT('Line Origine',(8.2,5.,0.8)) ;
#554=CARTESIAN_POINT('Axis2P3D Location',(0.,0.,1.6)) ;
#570=CARTESIAN_POINT('Control Point',(8.2,5.,1.6)) ;
#571=CARTESIAN_POINT('Control Point',(8.2,5.94247779608,1.6)) ;
#572=CARTESIAN_POINT('Control Point',(7.82988983496,6.88495559215,1.6)) ;
#573=CARTESIAN_POINT('Control Point',(7.08495559215,7.62988983496,1.6)) ;
#574=CARTESIAN_POINT('Control Point',(5.2,8.37011016504,1.6)) ;
#575=CARTESIAN_POINT('Control Point',(3.31504440785,7.62988983496,1.6)) ;
#576=CARTESIAN_POINT('Control Point',(2.57011016504,6.88495559215,1.6)) ;
#577=CARTESIAN_POINT('Control Point',(2.2,5.94247779608,1.6)) ;
#578=CARTESIAN_POINT('Control Point',(2.2,5.,1.6)) ;
#585=CARTESIAN_POINT('Axis2P3D Location',(5.2,5.,0.)) ;
#22=DIRECTION('Axis2P3D Direction',(0.,0.,1.)) ;
#23=DIRECTION('Axis2P3D XDirection',(1.,0.,0.)) ;
#29=DIRECTION('Axis2P3D Direction',(1.,0.,0.)) ;
#30=DIRECTION('Axis2P3D XDirection',(0.,1.,0.)) ;
#34=DIRECTION('Axis2P3D Direction',(0.,1.,0.)) ;
#35=DIRECTION('Axis2P3D XDirection',(0.,0.,1.)) ;
#50=DIRECTION('Axis2P3D Direction',(2.2569225968E-012,0.,-1.)) ;
#51=DIRECTION('Axis2P3D XDirection',(1.,0.,2.2569225968E-012)) ;
#55=DIRECTION('Vector Direction',(0.,-1.,0.)) ;
#64=DIRECTION('Vector Direction',(1.,0.,2.25708340906E-012)) ;
#71=DIRECTION('Vector Direction',(0.,-1.,0.)) ;
#78=DIRECTION('Vector Direction',(1.,0.,2.25708340906E-012)) ;
#90=DIRECTION('Axis2P3D Direction',(4.29474933173E-031,1.,-1.90292273994E-019)) ;
#91=DIRECTION('Axis2P3D XDirection',(1.,-4.29474933173E-031,8.17257616568E-050)) ;
#95=DIRECTION('Vector Direction',(2.25692480576E-012,0.,-1.)) ;
#102=DIRECTION('Vector Direction',(2.25692480578E-012,0.,-1.)) ;
#109=DIRECTION('Vector Direction',(1.,0.,2.25708340906E-012)) ;
#121=DIRECTION('Axis2P3D Direction',(1.,-0.,2.2569225968E-012)) ;
#122=DIRECTION('Axis2P3D XDirection',(0.,1.,0.)) ;
#126=DIRECTION('Vector Direction',(0.,-1.,0.)) ;
#133=DIRECTION('Vector Direction',(2.25692480574E-012,0.,-1.)) ;
#145=DIRECTION('Axis2P3D Direction',(-4.29976070784E-031,1.,1.90514318654E-019)) ;
#146=DIRECTION('Axis2P3D XDirection',(1.,4.29976070784E-031,8.19165981631E-050)) ;
#150=DIRECTION('Vector Direction',(1.,0.,2.25708340906E-012)) ;
#157=DIRECTION('Vector Direction',(2.2566075992E-012,0.,-1.)) ;
#169=DIRECTION('Axis2P3D Direction',(1.,-0.,2.2569225968E-012)) ;
#170=DIRECTION('Axis2P3D XDirection',(0.,1.,0.)) ;
#174=DIRECTION('Vector Direction',(0.,1.,0.)) ;
#186=DIRECTION('Axis2P3D Direction',(0.,-1.,0.)) ;
#187=DIRECTION('Axis2P3D XDirection',(-0.707106781187,-0.,0.707106781186)) ;
#191=DIRECTION('Axis2P3D Direction',(0.,-1.,0.)) ;
#198=DIRECTION('Axis2P3D Direction',(0.,-1.,0.)) ;
#205=DIRECTION('Vector Direction',(0.,-1.,0.)) ;
#217=DIRECTION('Axis2P3D Direction',(0.,1.,0.)) ;
#218=DIRECTION('Axis2P3D XDirection',(-0.382683432364,0.,-0.923879532512)) ;
#222=DIRECTION('Axis2P3D Direction',(0.,1.,0.)) ;
#229=DIRECTION('Vector Direction',(0.,0.,1.)) ;
#241=DIRECTION('Axis2P3D Direction',(0.,-1.,0.)) ;
#242=DIRECTION('Axis2P3D XDirection',(0.,0.,-1.)) ;
#246=DIRECTION('Vector Direction',(0.,-1.,0.)) ;
#253=DIRECTION('Axis2P3D Direction',(0.,-1.,0.)) ;
#265=DIRECTION('Axis2P3D Direction',(0.,1.,0.)) ;
#266=DIRECTION('Axis2P3D XDirection',(-0.382683432364,0.,-0.923879532512)) ;
#270=DIRECTION('Vector Direction',(0.,0.,1.)) ;
#282=DIRECTION('Axis2P3D Direction',(0.,1.,-0.)) ;
#283=DIRECTION('Axis2P3D XDirection',(-1.,0.,0.)) ;
#287=DIRECTION('Vector Direction',(-1.,0.,0.)) ;
#294=DIRECTION('Vector Direction',(-1.,0.,0.)) ;
#301=DIRECTION('Vector Direction',(0.,0.,-1.)) ;
#313=DIRECTION('Axis2P3D Direction',(1.,0.,0.)) ;
#314=DIRECTION('Axis2P3D XDirection',(0.,1.,0.)) ;
#318=DIRECTION('Vector Direction',(0.,1.,0.)) ;
#325=DIRECTION('Vector Direction',(0.,1.,0.)) ;
#332=DIRECTION('Vector Direction',(0.,0.,-1.)) ;
#344=DIRECTION('Axis2P3D Direction',(0.,-1.,0.)) ;
#345=DIRECTION('Axis2P3D XDirection',(1.,0.,0.)) ;
#349=DIRECTION('Vector Direction',(-1.,0.,0.)) ;
#356=DIRECTION('Vector Direction',(-1.,0.,0.)) ;
#363=DIRECTION('Vector Direction',(0.,0.,-1.)) ;
#375=DIRECTION('Axis2P3D Direction',(-1.,0.,0.)) ;
#376=DIRECTION('Axis2P3D XDirection',(0.,-1.,0.)) ;
#380=DIRECTION('Vector Direction',(0.,1.,0.)) ;
#387=DIRECTION('Vector Direction',(0.,1.,0.)) ;
#394=DIRECTION('Vector Direction',(0.,0.,-1.)) ;
#406=DIRECTION('Axis2P3D Direction',(0.,1.,-0.)) ;
#407=DIRECTION('Axis2P3D XDirection',(-1.,0.,0.)) ;
#411=DIRECTION('Vector Direction',(1.,0.,0.)) ;
#418=DIRECTION('Vector Direction',(1.,0.,0.)) ;
#425=DIRECTION('Vector Direction',(0.,0.,-1.)) ;
#437=DIRECTION('Axis2P3D Direction',(1.,0.,0.)) ;
#438=DIRECTION('Axis2P3D XDirection',(0.,1.,0.)) ;
#442=DIRECTION('Vector Direction',(0.,-1.,0.)) ;
#449=DIRECTION('Vector Direction',(0.,-1.,0.)) ;
#456=DIRECTION('Vector Direction',(0.,0.,-1.)) ;
#468=DIRECTION('Axis2P3D Direction',(0.,-1.,0.)) ;
#469=DIRECTION('Axis2P3D XDirection',(1.,0.,0.)) ;
#473=DIRECTION('Vector Direction',(1.,0.,0.)) ;
#478=DIRECTION('Vector Direction',(1.,0.,0.)) ;
#490=DIRECTION('Axis2P3D Direction',(0.,0.,1.)) ;
#491=DIRECTION('Axis2P3D XDirection',(1.,0.,0.)) ;
#505=DIRECTION('Axis2P3D Direction',(0.,0.,1.)) ;
#514=DIRECTION('Axis2P3D Direction',(0.,0.,1.)) ;
#524=DIRECTION('Axis2P3D Direction',(0.,0.,1.)) ;
#525=DIRECTION('Axis2P3D XDirection',(1.,0.,0.)) ;
#529=DIRECTION('Vector Direction',(0.,0.,1.)) ;
#536=DIRECTION('Axis2P3D Direction',(0.,0.,1.)) ;
#543=DIRECTION('Vector Direction',(0.,0.,1.)) ;
#555=DIRECTION('Axis2P3D Direction',(0.,0.,1.)) ;
#556=DIRECTION('Axis2P3D XDirection',(1.,0.,0.)) ;
#586=DIRECTION('Axis2P3D Direction',(0.,0.,1.)) ;
#587=DIRECTION('Axis2P3D XDirection',(1.,0.,0.)) ;
#47=PRESENTATION_LAYER_ASSIGNMENT('1',' ',(#38)) ;
#8=PRODUCT_RELATED_PRODUCT_CATEGORY('part',$,(#5)) ;
#7=PRODUCT_CATEGORY('part','specification') ;
#46=STYLED_ITEM(' ',(#45),#38) ;
#45=PRESENTATION_STYLE_ASSIGNMENT((#44)) ;
#44=SURFACE_STYLE_USAGE(.BOTH.,#43) ;
#43=SURFACE_SIDE_STYLE(' ',(#42)) ;
#42=SURFACE_STYLE_FILL_AREA(#41) ;
#41=FILL_AREA_STYLE(' ',(#40)) ;
#40=FILL_AREA_STYLE_COLOUR(' ',#39) ;
#56=VECTOR('Line Direction',#55,1.) ;
#65=VECTOR('Line Direction',#64,1.) ;
#72=VECTOR('Line Direction',#71,1.) ;
#79=VECTOR('Line Direction',#78,1.) ;
#96=VECTOR('Line Direction',#95,1.) ;
#103=VECTOR('Line Direction',#102,1.) ;
#110=VECTOR('Line Direction',#109,1.) ;
#127=VECTOR('Line Direction',#126,1.) ;
#134=VECTOR('Line Direction',#133,1.) ;
#151=VECTOR('Line Direction',#150,1.) ;
#158=VECTOR('Line Direction',#157,1.) ;
#175=VECTOR('Line Direction',#174,1.) ;
#206=VECTOR('Line Direction',#205,1.) ;
#230=VECTOR('Line Direction',#229,1.) ;
#247=VECTOR('Line Direction',#246,1.) ;
#271=VECTOR('Line Direction',#270,1.) ;
#288=VECTOR('Line Direction',#287,1.) ;
#295=VECTOR('Line Direction',#294,1.) ;
#302=VECTOR('Line Direction',#301,1.) ;
#319=VECTOR('Line Direction',#318,1.) ;
#326=VECTOR('Line Direction',#325,1.) ;
#333=VECTOR('Line Direction',#332,1.) ;
#350=VECTOR('Line Direction',#349,1.) ;
#357=VECTOR('Line Direction',#356,1.) ;
#364=VECTOR('Line Direction',#363,1.) ;
#381=VECTOR('Line Direction',#380,1.) ;
#388=VECTOR('Line Direction',#387,1.) ;
#395=VECTOR('Line Direction',#394,1.) ;
#412=VECTOR('Line Direction',#411,1.) ;
#419=VECTOR('Line Direction',#418,1.) ;
#426=VECTOR('Line Direction',#425,1.) ;
#443=VECTOR('Line Direction',#442,1.) ;
#450=VECTOR('Line Direction',#449,1.) ;
#457=VECTOR('Line Direction',#456,1.) ;
#474=VECTOR('Line Direction',#473,1.) ;
#479=VECTOR('Line Direction',#478,1.) ;
#530=VECTOR('Line Direction',#529,1.) ;
#544=VECTOR('Line Direction',#543,1.) ;
#15=UNCERTAINTY_MEASURE_WITH_UNIT(LENGTH_MEASURE(0.005),#12,'distance_accuracy_value','CONFUSED CURVE UNCERTAINTY') ;
#598=SHAPE_REPRESENTATION_RELATIONSHIP(' ',' ',#19,#597) ;
#83=ORIENTED_EDGE('',*,*,#62,.F.) ;
#84=ORIENTED_EDGE('',*,*,#69,.F.) ;
#85=ORIENTED_EDGE('',*,*,#76,.T.) ;
#86=ORIENTED_EDGE('',*,*,#81,.T.) ;
#114=ORIENTED_EDGE('',*,*,#100,.F.) ;
#115=ORIENTED_EDGE('',*,*,#81,.F.) ;
#116=ORIENTED_EDGE('',*,*,#107,.T.) ;
#117=ORIENTED_EDGE('',*,*,#112,.T.) ;
#138=ORIENTED_EDGE('',*,*,#131,.T.) ;
#139=ORIENTED_EDGE('',*,*,#136,.F.) ;
#140=ORIENTED_EDGE('',*,*,#62,.T.) ;
#141=ORIENTED_EDGE('',*,*,#100,.T.) ;
#162=ORIENTED_EDGE('',*,*,#155,.F.) ;
#163=ORIENTED_EDGE('',*,*,#160,.F.) ;
#164=ORIENTED_EDGE('',*,*,#69,.T.) ;
#165=ORIENTED_EDGE('',*,*,#136,.T.) ;
#179=ORIENTED_EDGE('',*,*,#107,.F.) ;
#180=ORIENTED_EDGE('',*,*,#76,.F.) ;
#181=ORIENTED_EDGE('',*,*,#160,.T.) ;
#182=ORIENTED_EDGE('',*,*,#177,.T.) ;
#210=ORIENTED_EDGE('',*,*,#196,.T.) ;
#211=ORIENTED_EDGE('',*,*,#177,.F.) ;
#212=ORIENTED_EDGE('',*,*,#203,.F.) ;
#213=ORIENTED_EDGE('',*,*,#208,.F.) ;
#234=ORIENTED_EDGE('',*,*,#227,.F.) ;
#235=ORIENTED_EDGE('',*,*,#232,.T.) ;
#236=ORIENTED_EDGE('',*,*,#203,.T.) ;
#237=ORIENTED_EDGE('',*,*,#155,.T.) ;
#258=ORIENTED_EDGE('',*,*,#251,.T.) ;
#259=ORIENTED_EDGE('',*,*,#227,.T.) ;
#260=ORIENTED_EDGE('',*,*,#131,.F.) ;
#261=ORIENTED_EDGE('',*,*,#256,.F.) ;
#275=ORIENTED_EDGE('',*,*,#112,.F.) ;
#276=ORIENTED_EDGE('',*,*,#196,.F.) ;
#277=ORIENTED_EDGE('',*,*,#273,.F.) ;
#278=ORIENTED_EDGE('',*,*,#256,.T.) ;
#306=ORIENTED_EDGE('',*,*,#292,.T.) ;
#307=ORIENTED_EDGE('',*,*,#273,.T.) ;
#308=ORIENTED_EDGE('',*,*,#299,.F.) ;
#309=ORIENTED_EDGE('',*,*,#304,.F.) ;
#337=ORIENTED_EDGE('',*,*,#323,.T.) ;
#338=ORIENTED_EDGE('',*,*,#304,.T.) ;
#339=ORIENTED_EDGE('',*,*,#330,.F.) ;
#340=ORIENTED_EDGE('',*,*,#335,.T.) ;
#368=ORIENTED_EDGE('',*,*,#354,.T.) ;
#369=ORIENTED_EDGE('',*,*,#335,.F.) ;
#370=ORIENTED_EDGE('',*,*,#361,.T.) ;
#371=ORIENTED_EDGE('',*,*,#366,.F.) ;
#399=ORIENTED_EDGE('',*,*,#385,.T.) ;
#400=ORIENTED_EDGE('',*,*,#366,.T.) ;
#401=ORIENTED_EDGE('',*,*,#392,.T.) ;
#402=ORIENTED_EDGE('',*,*,#397,.F.) ;
#430=ORIENTED_EDGE('',*,*,#416,.T.) ;
#431=ORIENTED_EDGE('',*,*,#397,.T.) ;
#432=ORIENTED_EDGE('',*,*,#423,.T.) ;
#433=ORIENTED_EDGE('',*,*,#428,.F.) ;
#461=ORIENTED_EDGE('',*,*,#447,.T.) ;
#462=ORIENTED_EDGE('',*,*,#428,.T.) ;
#463=ORIENTED_EDGE('',*,*,#454,.T.) ;
#464=ORIENTED_EDGE('',*,*,#459,.F.) ;
#483=ORIENTED_EDGE('',*,*,#459,.T.) ;
#484=ORIENTED_EDGE('',*,*,#476,.F.) ;
#485=ORIENTED_EDGE('',*,*,#232,.F.) ;
#486=ORIENTED_EDGE('',*,*,#481,.T.) ;
#495=ORIENTED_EDGE('',*,*,#292,.F.) ;
#496=ORIENTED_EDGE('',*,*,#323,.F.) ;
#497=ORIENTED_EDGE('',*,*,#354,.F.) ;
#498=ORIENTED_EDGE('',*,*,#385,.F.) ;
#499=ORIENTED_EDGE('',*,*,#416,.F.) ;
#500=ORIENTED_EDGE('',*,*,#447,.F.) ;
#501=ORIENTED_EDGE('',*,*,#481,.F.) ;
#502=ORIENTED_EDGE('',*,*,#251,.F.) ;
#519=ORIENTED_EDGE('',*,*,#512,.T.) ;
#520=ORIENTED_EDGE('',*,*,#517,.T.) ;
#548=ORIENTED_EDGE('',*,*,#517,.F.) ;
#549=ORIENTED_EDGE('',*,*,#534,.F.) ;
#550=ORIENTED_EDGE('',*,*,#541,.T.) ;
#551=ORIENTED_EDGE('',*,*,#546,.F.) ;
#560=ORIENTED_EDGE('',*,*,#208,.T.) ;
#561=ORIENTED_EDGE('',*,*,#476,.T.) ;
#562=ORIENTED_EDGE('',*,*,#454,.F.) ;
#563=ORIENTED_EDGE('',*,*,#423,.F.) ;
#564=ORIENTED_EDGE('',*,*,#392,.F.) ;
#565=ORIENTED_EDGE('',*,*,#361,.F.) ;
#566=ORIENTED_EDGE('',*,*,#330,.T.) ;
#567=ORIENTED_EDGE('',*,*,#299,.T.) ;
#581=ORIENTED_EDGE('',*,*,#579,.F.) ;
#582=ORIENTED_EDGE('',*,*,#541,.F.) ;
#591=ORIENTED_EDGE('',*,*,#512,.F.) ;
#592=ORIENTED_EDGE('',*,*,#546,.T.) ;
#593=ORIENTED_EDGE('',*,*,#579,.T.) ;
#594=ORIENTED_EDGE('',*,*,#534,.T.) ;
#521=FACE_BOUND('',#518,.T.) ;
#583=FACE_BOUND('',#580,.T.) ;
#48=CLOSED_SHELL('Closed Shell',(#88,#119,#143,#167,#184,#215,#239,#263,#280,#311,#342,#373,#404,#435,#466,#488,#522,#553,#584,#596)) ;
#597=ADVANCED_BREP_SHAPE_REPRESENTATION('NONE',(#38),#16) ;
#88=ADVANCED_FACE('V1',(#87),#53,.F.) ;
#119=ADVANCED_FACE('V1',(#118),#93,.F.) ;
#143=ADVANCED_FACE('V1',(#142),#124,.T.) ;
#167=ADVANCED_FACE('V1',(#166),#148,.T.) ;
#184=ADVANCED_FACE('V1',(#183),#172,.F.) ;
#215=ADVANCED_FACE('V1',(#214),#189,.F.) ;
#239=ADVANCED_FACE('V1',(#238),#220,.T.) ;
#263=ADVANCED_FACE('V1',(#262),#244,.T.) ;
#280=ADVANCED_FACE('V1',(#279),#268,.F.) ;
#311=ADVANCED_FACE('V1',(#310),#285,.T.) ;
#342=ADVANCED_FACE('V1',(#341),#316,.T.) ;
#373=ADVANCED_FACE('V1',(#372),#347,.T.) ;
#404=ADVANCED_FACE('V1',(#403),#378,.T.) ;
#435=ADVANCED_FACE('V1',(#434),#409,.T.) ;
#466=ADVANCED_FACE('V1',(#465),#440,.T.) ;
#488=ADVANCED_FACE('V1',(#487),#471,.T.) ;
#522=ADVANCED_FACE('V1',(#503,#521),#493,.F.) ;
#553=ADVANCED_FACE('V1',(#552),#527,.F.) ;
#584=ADVANCED_FACE('V1',(#568,#583),#558,.T.) ;
#596=ADVANCED_FACE('V1',(#595),#589,.F.) ;
#4=APPLICATION_PROTOCOL_DEFINITION('international standard','automotive_design',2001,#1) ;
#569=B_SPLINE_CURVE_WITH_KNOTS('',5,(#570,#571,#572,#573,#574,#575,#576,#577,#578),.UNSPECIFIED.,.F.,.U.,(6,3,6),(0.,4.71238898038,9.42477796077),.UNSPECIFIED.) ;
#38=MANIFOLD_SOLID_BREP('V1',#48) ;
#193=CIRCLE('generated circle',#192,0.5) ;
#200=CIRCLE('generated circle',#199,0.5) ;
#224=CIRCLE('generated circle',#223,2.1) ;
#255=CIRCLE('generated circle',#254,2.1) ;
#507=CIRCLE('generated circle',#506,3.) ;
#516=CIRCLE('generated circle',#515,3.) ;
#538=CIRCLE('generated circle',#537,3.) ;
#39=COLOUR_RGB('Colour',0.823529411765,0.823529411765,1.) ;
#26=CONSTRUCTIVE_GEOMETRY_REPRESENTATION('supplemental geometry',(#25,#32,#37),#16) ;
#27=CONSTRUCTIVE_GEOMETRY_REPRESENTATION_RELATIONSHIP('supplemental geometry','',#19,#26) ;
#189=CYLINDRICAL_SURFACE('generated cylinder',#188,0.5) ;
#244=CYLINDRICAL_SURFACE('generated cylinder',#243,2.1) ;
#527=CYLINDRICAL_SURFACE('generated cylinder',#526,3.) ;
#589=CYLINDRICAL_SURFACE('generated cylinder',#588,3.) ;
#62=EDGE_CURVE('',#59,#61,#57,.T.) ;
#69=EDGE_CURVE('',#68,#59,#66,.T.) ;
#76=EDGE_CURVE('',#68,#75,#73,.T.) ;
#81=EDGE_CURVE('',#75,#61,#80,.T.) ;
#100=EDGE_CURVE('',#61,#99,#97,.T.) ;
#107=EDGE_CURVE('',#75,#106,#104,.T.) ;
#112=EDGE_CURVE('',#106,#99,#111,.T.) ;
#131=EDGE_CURVE('',#99,#130,#128,.F.) ;
#136=EDGE_CURVE('',#59,#130,#135,.T.) ;
#155=EDGE_CURVE('',#154,#130,#152,.T.) ;
#160=EDGE_CURVE('',#68,#154,#159,.T.) ;
#177=EDGE_CURVE('',#154,#106,#176,.F.) ;
#196=EDGE_CURVE('',#195,#106,#193,.T.) ;
#203=EDGE_CURVE('',#202,#154,#200,.T.) ;
#208=EDGE_CURVE('',#195,#202,#207,.F.) ;
#227=EDGE_CURVE('',#226,#130,#224,.F.) ;
#232=EDGE_CURVE('',#226,#202,#231,.T.) ;
#251=EDGE_CURVE('',#250,#226,#248,.F.) ;
#256=EDGE_CURVE('',#250,#99,#255,.T.) ;
#273=EDGE_CURVE('',#250,#195,#272,.T.) ;
#292=EDGE_CURVE('',#291,#250,#289,.T.) ;
#299=EDGE_CURVE('',#298,#195,#296,.T.) ;
#304=EDGE_CURVE('',#291,#298,#303,.F.) ;
#323=EDGE_CURVE('',#322,#291,#320,.T.) ;
#330=EDGE_CURVE('',#329,#298,#327,.T.) ;
#335=EDGE_CURVE('',#329,#322,#334,.T.) ;
#354=EDGE_CURVE('',#353,#322,#351,.F.) ;
#361=EDGE_CURVE('',#329,#360,#358,.T.) ;
#366=EDGE_CURVE('',#353,#360,#365,.F.) ;
#385=EDGE_CURVE('',#384,#353,#382,.F.) ;
#392=EDGE_CURVE('',#360,#391,#389,.T.) ;
#397=EDGE_CURVE('',#384,#391,#396,.F.) ;
#416=EDGE_CURVE('',#415,#384,#413,.F.) ;
#423=EDGE_CURVE('',#391,#422,#420,.T.) ;
#428=EDGE_CURVE('',#415,#422,#427,.F.) ;
#447=EDGE_CURVE('',#446,#415,#444,.F.) ;
#454=EDGE_CURVE('',#422,#453,#451,.T.) ;
#459=EDGE_CURVE('',#446,#453,#458,.F.) ;
#476=EDGE_CURVE('',#202,#453,#475,.T.) ;
#481=EDGE_CURVE('',#226,#446,#480,.T.) ;
#512=EDGE_CURVE('',#509,#511,#507,.T.) ;
#517=EDGE_CURVE('',#511,#509,#516,.T.) ;
#534=EDGE_CURVE('',#533,#511,#531,.F.) ;
#541=EDGE_CURVE('',#533,#540,#538,.T.) ;
#546=EDGE_CURVE('',#509,#540,#545,.T.) ;
#579=EDGE_CURVE('',#540,#533,#569,.T.) ;
#82=EDGE_LOOP('',(#83,#84,#85,#86)) ;
#113=EDGE_LOOP('',(#114,#115,#116,#117)) ;
#137=EDGE_LOOP('',(#138,#139,#140,#141)) ;
#161=EDGE_LOOP('',(#162,#163,#164,#165)) ;
#178=EDGE_LOOP('',(#179,#180,#181,#182)) ;
#209=EDGE_LOOP('',(#210,#211,#212,#213)) ;
#233=EDGE_LOOP('',(#234,#235,#236,#237)) ;
#257=EDGE_LOOP('',(#258,#259,#260,#261)) ;
#274=EDGE_LOOP('',(#275,#276,#277,#278)) ;
#305=EDGE_LOOP('',(#306,#307,#308,#309)) ;
#336=EDGE_LOOP('',(#337,#338,#339,#340)) ;
#367=EDGE_LOOP('',(#368,#369,#370,#371)) ;
#398=EDGE_LOOP('',(#399,#400,#401,#402)) ;
#429=EDGE_LOOP('',(#430,#431,#432,#433)) ;
#460=EDGE_LOOP('',(#461,#462,#463,#464)) ;
#482=EDGE_LOOP('',(#483,#484,#485,#486)) ;
#494=EDGE_LOOP('',(#495,#496,#497,#498,#499,#500,#501,#502)) ;
#518=EDGE_LOOP('',(#519,#520)) ;
#547=EDGE_LOOP('',(#548,#549,#550,#551)) ;
#559=EDGE_LOOP('',(#560,#561,#562,#563,#564,#565,#566,#567)) ;
#580=EDGE_LOOP('',(#581,#582)) ;
#590=EDGE_LOOP('',(#591,#592,#593,#594)) ;
#87=FACE_OUTER_BOUND('',#82,.T.) ;
#118=FACE_OUTER_BOUND('',#113,.T.) ;
#142=FACE_OUTER_BOUND('',#137,.T.) ;
#166=FACE_OUTER_BOUND('',#161,.T.) ;
#183=FACE_OUTER_BOUND('',#178,.T.) ;
#214=FACE_OUTER_BOUND('',#209,.T.) ;
#238=FACE_OUTER_BOUND('',#233,.T.) ;
#262=FACE_OUTER_BOUND('',#257,.T.) ;
#279=FACE_OUTER_BOUND('',#274,.T.) ;
#310=FACE_OUTER_BOUND('',#305,.T.) ;
#341=FACE_OUTER_BOUND('',#336,.T.) ;
#372=FACE_OUTER_BOUND('',#367,.T.) ;
#403=FACE_OUTER_BOUND('',#398,.T.) ;
#434=FACE_OUTER_BOUND('',#429,.T.) ;
#465=FACE_OUTER_BOUND('',#460,.T.) ;
#487=FACE_OUTER_BOUND('',#482,.T.) ;
#503=FACE_OUTER_BOUND('',#494,.T.) ;
#552=FACE_OUTER_BOUND('',#547,.T.) ;
#568=FACE_OUTER_BOUND('',#559,.T.) ;
#595=FACE_OUTER_BOUND('',#590,.T.) ;
#57=LINE('Line',#54,#56) ;
#66=LINE('Line',#63,#65) ;
#73=LINE('Line',#70,#72) ;
#80=LINE('Line',#77,#79) ;
#97=LINE('Line',#94,#96) ;
#104=LINE('Line',#101,#103) ;
#111=LINE('Line',#108,#110) ;
#128=LINE('Line',#125,#127) ;
#135=LINE('Line',#132,#134) ;
#152=LINE('Line',#149,#151) ;
#159=LINE('Line',#156,#158) ;
#176=LINE('Line',#173,#175) ;
#207=LINE('Line',#204,#206) ;
#231=LINE('Line',#228,#230) ;
#248=LINE('Line',#245,#247) ;
#272=LINE('Line',#269,#271) ;
#289=LINE('Line',#286,#288) ;
#296=LINE('Line',#293,#295) ;
#303=LINE('Line',#300,#302) ;
#320=LINE('Line',#317,#319) ;
#327=LINE('Line',#324,#326) ;
#334=LINE('Line',#331,#333) ;
#351=LINE('Line',#348,#350) ;
#358=LINE('Line',#355,#357) ;
#365=LINE('Line',#362,#364) ;
#382=LINE('Line',#379,#381) ;
#389=LINE('Line',#386,#388) ;
#396=LINE('Line',#393,#395) ;
#413=LINE('Line',#410,#412) ;
#420=LINE('Line',#417,#419) ;
#427=LINE('Line',#424,#426) ;
#444=LINE('Line',#441,#443) ;
#451=LINE('Line',#448,#450) ;
#458=LINE('Line',#455,#457) ;
#475=LINE('Line',#472,#474) ;
#480=LINE('Line',#477,#479) ;
#531=LINE('Line',#528,#530) ;
#545=LINE('Line',#542,#544) ;
#25=PLANE('Referenz_xy',#24) ;
#32=PLANE('Referenz_yz',#31) ;
#37=PLANE('Referenz_xz',#36) ;
#53=PLANE('',#52) ;
#93=PLANE('',#92) ;
#124=PLANE('',#123) ;
#148=PLANE('',#147) ;
#172=PLANE('',#171) ;
#220=PLANE('',#219) ;
#268=PLANE('',#267) ;
#285=PLANE('',#284) ;
#316=PLANE('',#315) ;
#347=PLANE('',#346) ;
#378=PLANE('',#377) ;
#409=PLANE('',#408) ;
#440=PLANE('',#439) ;
#471=PLANE('',#470) ;
#493=PLANE('',#492) ;
#558=PLANE('',#557) ;
#9=PRODUCT_CATEGORY_RELATIONSHIP(' ',' ',#7,#8) ;
#6=PRODUCT_DEFINITION_FORMATION_WITH_SPECIFIED_SOURCE('',' ',#5,.NOT_KNOWN.) ;
#20=SHAPE_DEFINITION_REPRESENTATION(#11,#19) ;
#59=VERTEX_POINT('',#58) ;
#61=VERTEX_POINT('',#60) ;
#68=VERTEX_POINT('',#67) ;
#75=VERTEX_POINT('',#74) ;
#99=VERTEX_POINT('',#98) ;
#106=VERTEX_POINT('',#105) ;
#130=VERTEX_POINT('',#129) ;
#154=VERTEX_POINT('',#153) ;
#195=VERTEX_POINT('',#194) ;
#202=VERTEX_POINT('',#201) ;
#226=VERTEX_POINT('',#225) ;
#250=VERTEX_POINT('',#249) ;
#291=VERTEX_POINT('',#290) ;
#298=VERTEX_POINT('',#297) ;
#322=VERTEX_POINT('',#321) ;
#329=VERTEX_POINT('',#328) ;
#353=VERTEX_POINT('',#352) ;
#360=VERTEX_POINT('',#359) ;
#384=VERTEX_POINT('',#383) ;
#391=VERTEX_POINT('',#390) ;
#415=VERTEX_POINT('',#414) ;
#422=VERTEX_POINT('',#421) ;
#446=VERTEX_POINT('',#445) ;
#453=VERTEX_POINT('',#452) ;
#509=VERTEX_POINT('',#508) ;
#511=VERTEX_POINT('',#510) ;
#533=VERTEX_POINT('',#532) ;
#540=VERTEX_POINT('',#539) ;
#12=(LENGTH_UNIT()NAMED_UNIT(*)SI_UNIT(.MILLI.,.METRE.)) ;
#13=(NAMED_UNIT(*)PLANE_ANGLE_UNIT()SI_UNIT($,.RADIAN.)) ;
#14=(NAMED_UNIT(*)SI_UNIT($,.STERADIAN.)SOLID_ANGLE_UNIT()) ;
#16=(GEOMETRIC_REPRESENTATION_CONTEXT(3)GLOBAL_UNCERTAINTY_ASSIGNED_CONTEXT((#15))GLOBAL_UNIT_ASSIGNED_CONTEXT((#12,#13,#14))REPRESENTATION_CONTEXT(' ',' ')) ;
ENDSEC;
END-ISO-10303-21;
