ISO-10303-21;
HEADER;
FILE_DESCRIPTION(('CATIA V5 STEP Exchange','CAx-IF Rec.Pracs.--- Model Styling and Organization---1.4--- 2014-01-23'),'2;1');

FILE_NAME ('001693-2_1_0285100000_0285100000.stp','2021-12-06T08:26:36+00:00',('none'),('Weidmueller'),'CATIA Version 5-6 Release 2016 SP3 HF44','CATIA V5 STEP AP214','none');

FILE_SCHEMA(('AUTOMOTIVE_DESIGN { 1 0 10303 214 1 1 1 1 }'));

ENDSEC;
DATA;
#5=PRODUCT('VH 19/5/3.5 SAK4-16','','',(#2)) ;
#2=PRODUCT_CONTEXT(' ',#1,'mechanical') ;
#1=APPLICATION_CONTEXT('automotive design') ;
#10=PRODUCT_DEFINITION('',' ',#6,#3) ;
#3=PRODUCT_DEFINITION_CONTEXT('part definition',#1,' ') ;
#11=PRODUCT_DEFINITION_SHAPE(' ',' ',#10) ;
#176=MECHANICAL_DESIGN_GEOMETRIC_PRESENTATION_REPRESENTATION(' ',(#29),#16) ;
#19=SHAPE_REPRESENTATION(' ',(#18),#16) ;
#18=AXIS2_PLACEMENT_3D(' ',#17,$,$) ;
#35=AXIS2_PLACEMENT_3D('Cylinder Axis2P3D',#32,#33,#34) ;
#48=AXIS2_PLACEMENT_3D('Circle Axis2P3D',#46,#47,$) ;
#62=AXIS2_PLACEMENT_3D('Circle Axis2P3D',#60,#61,$) ;
#74=AXIS2_PLACEMENT_3D('Circle Axis2P3D',#72,#73,$) ;
#79=AXIS2_PLACEMENT_3D('Circle Axis2P3D',#77,#78,$) ;
#92=AXIS2_PLACEMENT_3D('Cylinder Axis2P3D',#89,#90,#91) ;
#105=AXIS2_PLACEMENT_3D('Circle Axis2P3D',#103,#104,$) ;
#119=AXIS2_PLACEMENT_3D('Circle Axis2P3D',#117,#118,$) ;
#131=AXIS2_PLACEMENT_3D('Circle Axis2P3D',#129,#130,$) ;
#136=AXIS2_PLACEMENT_3D('Circle Axis2P3D',#134,#135,$) ;
#149=AXIS2_PLACEMENT_3D('Plane Axis2P3D',#146,#147,#148) ;
#163=AXIS2_PLACEMENT_3D('Plane Axis2P3D',#160,#161,#162) ;
#17=CARTESIAN_POINT(' ',(0.,0.,0.)) ;
#32=CARTESIAN_POINT('Axis2P3D Location',(2.5,2.5,9.5)) ;
#37=CARTESIAN_POINT('Line Origine',(0.306043595274,1.30143615349,9.5)) ;
#41=CARTESIAN_POINT('Vertex',(0.306043595274,1.30143615349,1.84974770831E-015)) ;
#43=CARTESIAN_POINT('Vertex',(0.306043595274,1.30143615349,19.)) ;
#46=CARTESIAN_POINT('Axis2P3D Location',(2.5,2.5,19.)) ;
#50=CARTESIAN_POINT('Vertex',(4.69395640473,3.69856384651,19.)) ;
#53=CARTESIAN_POINT('Line Origine',(4.69395640473,3.69856384651,9.5)) ;
#57=CARTESIAN_POINT('Vertex',(4.69395640473,3.69856384651,1.70296597049E-015)) ;
#60=CARTESIAN_POINT('Axis2P3D Location',(2.5,2.5,1.7763568394E-015)) ;
#72=CARTESIAN_POINT('Axis2P3D Location',(2.5,2.5,19.)) ;
#77=CARTESIAN_POINT('Axis2P3D Location',(2.5,2.5,1.7763568394E-015)) ;
#89=CARTESIAN_POINT('Axis2P3D Location',(2.5,2.5,9.5)) ;
#94=CARTESIAN_POINT('Line Origine',(0.964230516692,1.66100530744,9.5)) ;
#98=CARTESIAN_POINT('Vertex',(0.964230516692,1.66100530744,19.)) ;
#100=CARTESIAN_POINT('Vertex',(0.964230516692,1.66100530744,3.60408728704E-015)) ;
#103=CARTESIAN_POINT('Axis2P3D Location',(2.5,2.5,1.7763568394E-015)) ;
#107=CARTESIAN_POINT('Vertex',(4.03576948331,3.33899469256,3.50134007056E-015)) ;
#110=CARTESIAN_POINT('Line Origine',(4.03576948331,3.33899469256,9.5)) ;
#114=CARTESIAN_POINT('Vertex',(4.03576948331,3.33899469256,19.)) ;
#117=CARTESIAN_POINT('Axis2P3D Location',(2.5,2.5,19.)) ;
#129=CARTESIAN_POINT('Axis2P3D Location',(2.5,2.5,1.7763568394E-015)) ;
#134=CARTESIAN_POINT('Axis2P3D Location',(2.5,2.5,19.)) ;
#146=CARTESIAN_POINT('Axis2P3D Location',(5.,2.5,19.)) ;
#160=CARTESIAN_POINT('Axis2P3D Location',(4.25,2.5,0.)) ;
#33=DIRECTION('Axis2P3D Direction',(-0.,6.12323399574E-017,1.)) ;
#34=DIRECTION('Axis2P3D XDirection',(0.87758256189,0.479425538604,-2.93563475641E-017)) ;
#38=DIRECTION('Vector Direction',(0.,4.67462326158E-017,1.)) ;
#47=DIRECTION('Axis2P3D Direction',(-0.,6.12323399574E-017,1.)) ;
#54=DIRECTION('Vector Direction',(0.,4.67462326158E-017,1.)) ;
#61=DIRECTION('Axis2P3D Direction',(-0.,6.12323399574E-017,1.)) ;
#73=DIRECTION('Axis2P3D Direction',(-0.,6.12323399574E-017,1.)) ;
#78=DIRECTION('Axis2P3D Direction',(-0.,6.12323399574E-017,1.)) ;
#90=DIRECTION('Axis2P3D Direction',(-0.,6.12323399574E-017,1.)) ;
#91=DIRECTION('Axis2P3D XDirection',(0.87758256189,0.479425538604,-2.93563475641E-017)) ;
#95=DIRECTION('Vector Direction',(0.,4.67462326158E-017,1.)) ;
#104=DIRECTION('Axis2P3D Direction',(-0.,6.12323399574E-017,1.)) ;
#111=DIRECTION('Vector Direction',(0.,4.67462326158E-017,1.)) ;
#118=DIRECTION('Axis2P3D Direction',(-0.,6.12323399574E-017,1.)) ;
#130=DIRECTION('Axis2P3D Direction',(-0.,6.12323399574E-017,1.)) ;
#135=DIRECTION('Axis2P3D Direction',(-0.,6.12323399574E-017,1.)) ;
#147=DIRECTION('Axis2P3D Direction',(-0.,6.12323399574E-017,1.)) ;
#148=DIRECTION('Axis2P3D XDirection',(1.,0.,0.)) ;
#161=DIRECTION('Axis2P3D Direction',(-0.,6.12323399574E-017,1.)) ;
#162=DIRECTION('Axis2P3D XDirection',(1.,0.,0.)) ;
#30=PRESENTATION_LAYER_ASSIGNMENT('1',' ',(#21)) ;
#8=PRODUCT_RELATED_PRODUCT_CATEGORY('part',$,(#5)) ;
#7=PRODUCT_CATEGORY('part','specification') ;
#29=STYLED_ITEM(' ',(#28),#21) ;
#28=PRESENTATION_STYLE_ASSIGNMENT((#27)) ;
#27=SURFACE_STYLE_USAGE(.BOTH.,#26) ;
#26=SURFACE_SIDE_STYLE(' ',(#25)) ;
#25=SURFACE_STYLE_FILL_AREA(#24) ;
#24=FILL_AREA_STYLE(' ',(#23)) ;
#23=FILL_AREA_STYLE_COLOUR(' ',#22) ;
#39=VECTOR('Line Direction',#38,1.) ;
#55=VECTOR('Line Direction',#54,1.) ;
#96=VECTOR('Line Direction',#95,1.) ;
#112=VECTOR('Line Direction',#111,1.) ;
#15=UNCERTAINTY_MEASURE_WITH_UNIT(LENGTH_MEASURE(0.005),#12,'distance_accuracy_value','CONFUSED CURVE UNCERTAINTY') ;
#175=SHAPE_REPRESENTATION_RELATIONSHIP(' ',' ',#19,#174) ;
#66=ORIENTED_EDGE('',*,*,#45,.T.) ;
#67=ORIENTED_EDGE('',*,*,#52,.F.) ;
#68=ORIENTED_EDGE('',*,*,#59,.F.) ;
#69=ORIENTED_EDGE('',*,*,#64,.T.) ;
#83=ORIENTED_EDGE('',*,*,#59,.T.) ;
#84=ORIENTED_EDGE('',*,*,#76,.F.) ;
#85=ORIENTED_EDGE('',*,*,#45,.F.) ;
#86=ORIENTED_EDGE('',*,*,#81,.T.) ;
#123=ORIENTED_EDGE('',*,*,#102,.T.) ;
#124=ORIENTED_EDGE('',*,*,#109,.F.) ;
#125=ORIENTED_EDGE('',*,*,#116,.F.) ;
#126=ORIENTED_EDGE('',*,*,#121,.T.) ;
#140=ORIENTED_EDGE('',*,*,#116,.T.) ;
#141=ORIENTED_EDGE('',*,*,#133,.F.) ;
#142=ORIENTED_EDGE('',*,*,#102,.F.) ;
#143=ORIENTED_EDGE('',*,*,#138,.T.) ;
#152=ORIENTED_EDGE('',*,*,#76,.T.) ;
#153=ORIENTED_EDGE('',*,*,#52,.T.) ;
#156=ORIENTED_EDGE('',*,*,#121,.F.) ;
#157=ORIENTED_EDGE('',*,*,#138,.F.) ;
#166=ORIENTED_EDGE('',*,*,#64,.F.) ;
#167=ORIENTED_EDGE('',*,*,#81,.F.) ;
#170=ORIENTED_EDGE('',*,*,#133,.T.) ;
#171=ORIENTED_EDGE('',*,*,#109,.T.) ;
#158=FACE_BOUND('',#155,.T.) ;
#172=FACE_BOUND('',#169,.T.) ;
#31=CLOSED_SHELL('Closed Shell',(#71,#88,#128,#145,#159,#173)) ;
#174=ADVANCED_BREP_SHAPE_REPRESENTATION('NONE',(#21),#16) ;
#71=ADVANCED_FACE('K\X2\00F6\X0\rper.3',(#70),#36,.T.) ;
#88=ADVANCED_FACE('K\X2\00F6\X0\rper.3',(#87),#36,.T.) ;
#128=ADVANCED_FACE('K\X2\00F6\X0\rper.3',(#127),#93,.F.) ;
#145=ADVANCED_FACE('K\X2\00F6\X0\rper.3',(#144),#93,.F.) ;
#159=ADVANCED_FACE('K\X2\00F6\X0\rper.3',(#154,#158),#150,.T.) ;
#173=ADVANCED_FACE('K\X2\00F6\X0\rper.3',(#168,#172),#164,.F.) ;
#4=APPLICATION_PROTOCOL_DEFINITION('international standard','automotive_design',2001,#1) ;
#21=MANIFOLD_SOLID_BREP('K\X2\00F6\X0\rper.3',#31) ;
#49=CIRCLE('generated circle',#48,2.5) ;
#63=CIRCLE('generated circle',#62,2.5) ;
#75=CIRCLE('generated circle',#74,2.5) ;
#80=CIRCLE('generated circle',#79,2.5) ;
#106=CIRCLE('generated circle',#105,1.75) ;
#120=CIRCLE('generated circle',#119,1.75) ;
#132=CIRCLE('generated circle',#131,1.75) ;
#137=CIRCLE('generated circle',#136,1.75) ;
#22=COLOUR_RGB('Colour',0.823529411765,0.823529411765,1.) ;
#36=CYLINDRICAL_SURFACE('generated cylinder',#35,2.5) ;
#93=CYLINDRICAL_SURFACE('generated cylinder',#92,1.75) ;
#45=EDGE_CURVE('',#42,#44,#40,.T.) ;
#52=EDGE_CURVE('',#51,#44,#49,.T.) ;
#59=EDGE_CURVE('',#58,#51,#56,.T.) ;
#64=EDGE_CURVE('',#58,#42,#63,.T.) ;
#76=EDGE_CURVE('',#44,#51,#75,.T.) ;
#81=EDGE_CURVE('',#42,#58,#80,.T.) ;
#102=EDGE_CURVE('',#99,#101,#97,.F.) ;
#109=EDGE_CURVE('',#108,#101,#106,.T.) ;
#116=EDGE_CURVE('',#115,#108,#113,.F.) ;
#121=EDGE_CURVE('',#115,#99,#120,.T.) ;
#133=EDGE_CURVE('',#101,#108,#132,.T.) ;
#138=EDGE_CURVE('',#99,#115,#137,.T.) ;
#65=EDGE_LOOP('',(#66,#67,#68,#69)) ;
#82=EDGE_LOOP('',(#83,#84,#85,#86)) ;
#122=EDGE_LOOP('',(#123,#124,#125,#126)) ;
#139=EDGE_LOOP('',(#140,#141,#142,#143)) ;
#151=EDGE_LOOP('',(#152,#153)) ;
#155=EDGE_LOOP('',(#156,#157)) ;
#165=EDGE_LOOP('',(#166,#167)) ;
#169=EDGE_LOOP('',(#170,#171)) ;
#70=FACE_OUTER_BOUND('',#65,.T.) ;
#87=FACE_OUTER_BOUND('',#82,.T.) ;
#127=FACE_OUTER_BOUND('',#122,.T.) ;
#144=FACE_OUTER_BOUND('',#139,.T.) ;
#154=FACE_OUTER_BOUND('',#151,.T.) ;
#168=FACE_OUTER_BOUND('',#165,.T.) ;
#40=LINE('Line',#37,#39) ;
#56=LINE('Line',#53,#55) ;
#97=LINE('Line',#94,#96) ;
#113=LINE('Line',#110,#112) ;
#150=PLANE('',#149) ;
#164=PLANE('',#163) ;
#9=PRODUCT_CATEGORY_RELATIONSHIP(' ',' ',#7,#8) ;
#6=PRODUCT_DEFINITION_FORMATION_WITH_SPECIFIED_SOURCE('',' ',#5,.NOT_KNOWN.) ;
#20=SHAPE_DEFINITION_REPRESENTATION(#11,#19) ;
#42=VERTEX_POINT('',#41) ;
#44=VERTEX_POINT('',#43) ;
#51=VERTEX_POINT('',#50) ;
#58=VERTEX_POINT('',#57) ;
#99=VERTEX_POINT('',#98) ;
#101=VERTEX_POINT('',#100) ;
#108=VERTEX_POINT('',#107) ;
#115=VERTEX_POINT('',#114) ;
#12=(LENGTH_UNIT()NAMED_UNIT(*)SI_UNIT(.MILLI.,.METRE.)) ;
#13=(NAMED_UNIT(*)PLANE_ANGLE_UNIT()SI_UNIT($,.RADIAN.)) ;
#14=(NAMED_UNIT(*)SI_UNIT($,.STERADIAN.)SOLID_ANGLE_UNIT()) ;
#16=(GEOMETRIC_REPRESENTATION_CONTEXT(3)GLOBAL_UNCERTAINTY_ASSIGNED_CONTEXT((#15))GLOBAL_UNIT_ASSIGNED_CONTEXT((#12,#13,#14))REPRESENTATION_CONTEXT(' ',' ')) ;
ENDSEC;
END-ISO-10303-21;
