ISO-10303-21;
HEADER;
FILE_DESCRIPTION(('CATIA V5R19 STEP'),'2;1');

FILE_NAME ('D1458893_0_1907520000_1907520000.stp','2014-11-26T13:34:50+00:00',('none'),('Weidmueller'),'CATIA Version 5 Release 20 SP 5 (IN-10)','CATIA V5 STEP AP214','none');

FILE_SCHEMA(('AUTOMOTIVE_DESIGN { 1 0 10303 214 1 1 1 1 }'));

ENDSEC;
/* file written by CATIA V5R20 */
DATA;
#5=PRODUCT('DEK 5/5 PLUS','','<Q-CHECKER_SEAL> Q-Checker Version 2.14.8  \X2\000A\X0\CATIA-Version         : Catia V5 R20 SP5 Build Date 01-14-2011.22.00\X2\000A\X0\Model size (in KByte) : 0\X2\000A\X0\Checking date         : 2012-03-08 13:40:22\X2\000A\X0\Checking profile      : ADMIN / Release_2D-3D [CATPart]\X2\000A\X0\Model assessment      : In Ordnung (IO)\X2\000A\X0\Total weight sum      : 0\X2\000A\X0\<CROSS_CHECK_SUM>\X2\000A\X0\  <CHKSUM_DATE> 1612138398 </CHKSUM_DATE>\X2\000A\X0\  <CHKSUM_ENTITIES> 841455538 </CHKSUM_ENTITIES>\X2\000A\X0\  <CHKSUM_PROFILE> 1594213346 </CHKSUM_PROFILE>\X2\000A\X0\  <CHKSUM_DIMENSION> -186917087 </CHKSUM_DIMENSION>\X2\000A\X0\  <CHKSUM_PROJINTERSEC> -896974048 </CHKSUM_PROJINTERSEC>\X2\000A\X0\  <CHKSUM_IDENTCRV> -896974048 </CHKSUM_IDENTCRV>\X2\000A\X0\  <CHKSUM_INFINITY> 138018827 </CHKSUM_INFINITY>\X2\000A\X0\</CROSS_CHECK_SUM>\X2\000A\X0\</Q-CHECKER_SEAL> \X2\000A\X0\ \X2\000A\X0\ \X2\000A\X0\',(#2)) ;
#2=PRODUCT_CONTEXT(' ',#1,'mechanical') ;
#1=APPLICATION_CONTEXT('automotive design') ;
#10=PRODUCT_DEFINITION('',' ',#6,#3) ;
#3=PRODUCT_DEFINITION_CONTEXT('part definition',#1,' ') ;
#11=PRODUCT_DEFINITION_SHAPE(' ',' ',#10) ;
#451=MECHANICAL_DESIGN_GEOMETRIC_PRESENTATION_REPRESENTATION(' ',(#30),#17) ;
#20=SHAPE_REPRESENTATION(' ',(#19),#17) ;
#19=AXIS2_PLACEMENT_3D(' ',#18,$,$) ;
#35=AXIS2_PLACEMENT_3D('Plane Axis2P3D',#32,#33,#34) ;
#75=AXIS2_PLACEMENT_3D('Plane Axis2P3D',#72,#73,#74) ;
#106=AXIS2_PLACEMENT_3D('Plane Axis2P3D',#103,#104,#105) ;
#130=AXIS2_PLACEMENT_3D('Plane Axis2P3D',#127,#128,#129) ;
#154=AXIS2_PLACEMENT_3D('Plane Axis2P3D',#151,#152,#153) ;
#171=AXIS2_PLACEMENT_3D('Plane Axis2P3D',#168,#169,#170) ;
#275=AXIS2_PLACEMENT_3D('Plane Axis2P3D',#272,#273,#274) ;
#292=AXIS2_PLACEMENT_3D('Plane Axis2P3D',#289,#290,#291) ;
#344=AXIS2_PLACEMENT_3D('Plane Axis2P3D',#341,#342,#343) ;
#375=AXIS2_PLACEMENT_3D('Plane Axis2P3D',#372,#373,#374) ;
#406=AXIS2_PLACEMENT_3D('Plane Axis2P3D',#403,#404,#405) ;
#428=AXIS2_PLACEMENT_3D('Plane Axis2P3D',#425,#426,#427) ;
#440=AXIS2_PLACEMENT_3D('Plane Axis2P3D',#437,#438,#439) ;
#18=CARTESIAN_POINT(' ',(0.,0.,0.)) ;
#32=CARTESIAN_POINT('Axis2P3D Location',(2.55,0.385,1.785)) ;
#37=CARTESIAN_POINT('Line Origine',(2.55,0.385,1.785)) ;
#41=CARTESIAN_POINT('Vertex',(0.55,0.385,1.785)) ;
#43=CARTESIAN_POINT('Vertex',(4.55,0.385,1.785)) ;
#46=CARTESIAN_POINT('Line Origine',(0.55,0.385,0.8925)) ;
#50=CARTESIAN_POINT('Vertex',(0.55,0.385,0.)) ;
#53=CARTESIAN_POINT('Line Origine',(2.55,0.385,0.)) ;
#57=CARTESIAN_POINT('Vertex',(4.55,0.385,0.)) ;
#60=CARTESIAN_POINT('Line Origine',(4.55,0.385,0.8925)) ;
#72=CARTESIAN_POINT('Axis2P3D Location',(0.55,2.6,2.585)) ;
#77=CARTESIAN_POINT('Line Origine',(0.55,0.946135687999,1.785)) ;
#81=CARTESIAN_POINT('Vertex',(0.55,1.507271376,1.785)) ;
#84=CARTESIAN_POINT('Line Origine',(0.55,1.25303606318,0.8925)) ;
#88=CARTESIAN_POINT('Vertex',(0.55,0.998800750362,0.)) ;
#91=CARTESIAN_POINT('Line Origine',(0.55,0.691900375181,0.)) ;
#103=CARTESIAN_POINT('Axis2P3D Location',(2.55,0.385,0.)) ;
#108=CARTESIAN_POINT('Line Origine',(2.55,0.998800750362,0.)) ;
#112=CARTESIAN_POINT('Vertex',(4.55,0.998800750362,0.)) ;
#115=CARTESIAN_POINT('Line Origine',(4.55,0.691900375181,1.22464679915E-016)) ;
#127=CARTESIAN_POINT('Axis2P3D Location',(4.55,2.6,2.585)) ;
#132=CARTESIAN_POINT('Line Origine',(4.55,1.25303606318,0.8925)) ;
#136=CARTESIAN_POINT('Vertex',(4.55,1.507271376,1.785)) ;
#139=CARTESIAN_POINT('Line Origine',(4.55,0.946135687999,1.785)) ;
#151=CARTESIAN_POINT('Axis2P3D Location',(2.55,0.998800750362,0.)) ;
#156=CARTESIAN_POINT('Line Origine',(2.55,1.507271376,1.785)) ;
#168=CARTESIAN_POINT('Axis2P3D Location',(2.55,4.20119924964,0.)) ;
#173=CARTESIAN_POINT('Line Origine',(4.55,3.94696393682,0.8925)) ;
#177=CARTESIAN_POINT('Vertex',(4.55,4.20119924964,0.)) ;
#179=CARTESIAN_POINT('Vertex',(4.55,3.692728624,1.785)) ;
#182=CARTESIAN_POINT('Line Origine',(2.55,3.692728624,1.785)) ;
#186=CARTESIAN_POINT('Vertex',(0.55,3.692728624,1.785)) ;
#189=CARTESIAN_POINT('Line Origine',(0.55,3.94696393682,0.8925)) ;
#193=CARTESIAN_POINT('Vertex',(0.55,4.20119924964,0.)) ;
#196=CARTESIAN_POINT('Line Origine',(2.55,4.20119924964,0.)) ;
#208=CARTESIAN_POINT('Line Origine',(4.55,4.50809962482,1.22464679915E-016)) ;
#212=CARTESIAN_POINT('Vertex',(4.55,4.815,0.)) ;
#215=CARTESIAN_POINT('Line Origine',(0.55,4.50809962482,-1.22464679915E-016)) ;
#219=CARTESIAN_POINT('Vertex',(0.55,4.815,0.)) ;
#222=CARTESIAN_POINT('Line Origine',(2.55,4.815,0.)) ;
#234=CARTESIAN_POINT('Line Origine',(0.55,4.253864312,1.785)) ;
#238=CARTESIAN_POINT('Vertex',(0.55,4.815,1.785)) ;
#241=CARTESIAN_POINT('Line Origine',(0.55,4.815,0.8925)) ;
#253=CARTESIAN_POINT('Line Origine',(4.55,4.815,0.8925)) ;
#257=CARTESIAN_POINT('Vertex',(4.55,4.815,1.785)) ;
#260=CARTESIAN_POINT('Line Origine',(4.55,4.253864312,1.785)) ;
#272=CARTESIAN_POINT('Axis2P3D Location',(2.55,4.815,1.785)) ;
#277=CARTESIAN_POINT('Line Origine',(2.55,4.815,1.785)) ;
#289=CARTESIAN_POINT('Axis2P3D Location',(2.55,0.,1.785)) ;
#294=CARTESIAN_POINT('Line Origine',(5.,2.6,1.785)) ;
#298=CARTESIAN_POINT('Vertex',(5.,5.2,1.785)) ;
#300=CARTESIAN_POINT('Vertex',(5.,-2.99951956532E-033,1.785)) ;
#303=CARTESIAN_POINT('Line Origine',(2.55,0.,1.785)) ;
#307=CARTESIAN_POINT('Vertex',(0.1,-2.99951956532E-033,1.785)) ;
#310=CARTESIAN_POINT('Line Origine',(0.1,2.6,1.785)) ;
#314=CARTESIAN_POINT('Vertex',(0.1,5.2,1.785)) ;
#317=CARTESIAN_POINT('Line Origine',(2.55,5.2,1.785)) ;
#341=CARTESIAN_POINT('Axis2P3D Location',(5.,2.6,2.585)) ;
#346=CARTESIAN_POINT('Line Origine',(5.,-1.49975978266E-033,2.185)) ;
#350=CARTESIAN_POINT('Vertex',(5.,0.,2.585)) ;
#353=CARTESIAN_POINT('Line Origine',(5.,5.2,2.185)) ;
#357=CARTESIAN_POINT('Vertex',(5.,5.2,2.585)) ;
#360=CARTESIAN_POINT('Line Origine',(5.,2.6,2.585)) ;
#372=CARTESIAN_POINT('Axis2P3D Location',(0.1,2.6,2.585)) ;
#377=CARTESIAN_POINT('Line Origine',(0.1,2.6,2.585)) ;
#381=CARTESIAN_POINT('Vertex',(0.1,0.,2.585)) ;
#383=CARTESIAN_POINT('Vertex',(0.1,5.2,2.585)) ;
#386=CARTESIAN_POINT('Line Origine',(0.1,5.2,2.185)) ;
#391=CARTESIAN_POINT('Line Origine',(0.1,-1.49975978266E-033,2.185)) ;
#403=CARTESIAN_POINT('Axis2P3D Location',(2.55,0.,2.585)) ;
#408=CARTESIAN_POINT('Line Origine',(2.55,5.2,2.585)) ;
#413=CARTESIAN_POINT('Line Origine',(2.55,0.,2.585)) ;
#425=CARTESIAN_POINT('Axis2P3D Location',(2.55,5.2,1.785)) ;
#437=CARTESIAN_POINT('Axis2P3D Location',(2.55,0.,2.585)) ;
#33=DIRECTION('Axis2P3D Direction',(-6.12323399574E-017,-1.,0.)) ;
#34=DIRECTION('Axis2P3D XDirection',(6.12323399574E-017,-3.74939945665E-033,-1.)) ;
#38=DIRECTION('Vector Direction',(1.,-5.55111512313E-017,1.11022302463E-016)) ;
#47=DIRECTION('Vector Direction',(0.,0.,-1.)) ;
#54=DIRECTION('Vector Direction',(1.,-5.55111512313E-017,6.12323399574E-017)) ;
#61=DIRECTION('Vector Direction',(0.,0.,-1.)) ;
#73=DIRECTION('Axis2P3D Direction',(1.,-6.12323399574E-017,6.12323399574E-017)) ;
#74=DIRECTION('Axis2P3D XDirection',(6.12323399574E-017,1.,0.)) ;
#78=DIRECTION('Vector Direction',(0.,-1.,-1.97852863108E-016)) ;
#85=DIRECTION('Vector Direction',(-5.98177784647E-017,0.273959218692,0.961741309549)) ;
#92=DIRECTION('Vector Direction',(0.,1.,0.)) ;
#104=DIRECTION('Axis2P3D Direction',(6.12323399574E-017,-3.74939945665E-033,-1.)) ;
#105=DIRECTION('Axis2P3D XDirection',(6.12323399574E-017,1.,0.)) ;
#109=DIRECTION('Vector Direction',(1.,-5.55111512313E-017,6.12323399574E-017)) ;
#116=DIRECTION('Vector Direction',(0.,1.,0.)) ;
#128=DIRECTION('Axis2P3D Direction',(1.,-6.12323399574E-017,6.12323399574E-017)) ;
#129=DIRECTION('Axis2P3D XDirection',(6.12323399574E-017,1.,0.)) ;
#133=DIRECTION('Vector Direction',(0.,0.273959218692,0.961741309549)) ;
#140=DIRECTION('Vector Direction',(0.,-1.,-1.97852863108E-016)) ;
#152=DIRECTION('Axis2P3D Direction',(7.56648348308E-017,0.961741309549,-0.273959218692)) ;
#153=DIRECTION('Axis2P3D XDirection',(-4.21145068039E-017,0.273959218692,0.961741309549)) ;
#157=DIRECTION('Vector Direction',(1.,-1.11022302463E-016,1.11022302463E-016)) ;
#169=DIRECTION('Axis2P3D Direction',(4.21145068039E-017,0.961741309549,0.273959218692)) ;
#170=DIRECTION('Axis2P3D XDirection',(-7.56648348308E-017,-0.273959218692,0.961741309549)) ;
#174=DIRECTION('Vector Direction',(0.,-0.273959218692,0.961741309549)) ;
#183=DIRECTION('Vector Direction',(1.,0.,1.11022302463E-016)) ;
#190=DIRECTION('Vector Direction',(0.,-0.273959218692,0.961741309549)) ;
#197=DIRECTION('Vector Direction',(1.,0.,6.12323399574E-017)) ;
#209=DIRECTION('Vector Direction',(0.,-1.,0.)) ;
#216=DIRECTION('Vector Direction',(0.,-1.,0.)) ;
#223=DIRECTION('Vector Direction',(1.,0.,6.12323399574E-017)) ;
#235=DIRECTION('Vector Direction',(0.,1.,0.)) ;
#242=DIRECTION('Vector Direction',(6.21973683263E-017,0.,-1.)) ;
#254=DIRECTION('Vector Direction',(0.,0.,-1.)) ;
#261=DIRECTION('Vector Direction',(0.,1.,0.)) ;
#273=DIRECTION('Axis2P3D Direction',(-6.12323399574E-017,-1.,0.)) ;
#274=DIRECTION('Axis2P3D XDirection',(6.12323399574E-017,-3.74939945665E-033,-1.)) ;
#278=DIRECTION('Vector Direction',(1.,0.,1.11022302463E-016)) ;
#290=DIRECTION('Axis2P3D Direction',(6.12323399574E-017,-3.74939945665E-033,-1.)) ;
#291=DIRECTION('Axis2P3D XDirection',(6.12323399574E-017,1.,0.)) ;
#295=DIRECTION('Vector Direction',(0.,1.,0.)) ;
#304=DIRECTION('Vector Direction',(1.,-6.12323399574E-017,9.06304509898E-017)) ;
#311=DIRECTION('Vector Direction',(8.5401771125E-017,1.,0.)) ;
#318=DIRECTION('Vector Direction',(1.,0.,9.06304509898E-017)) ;
#342=DIRECTION('Axis2P3D Direction',(1.,-6.12323399574E-017,6.12323399574E-017)) ;
#343=DIRECTION('Axis2P3D XDirection',(6.12323399574E-017,1.,0.)) ;
#347=DIRECTION('Vector Direction',(0.,-3.74939945665E-033,-1.)) ;
#354=DIRECTION('Vector Direction',(0.,0.,1.)) ;
#361=DIRECTION('Vector Direction',(0.,1.,0.)) ;
#373=DIRECTION('Axis2P3D Direction',(1.,-6.12323399574E-017,6.12323399574E-017)) ;
#374=DIRECTION('Axis2P3D XDirection',(6.12323399574E-017,1.,0.)) ;
#378=DIRECTION('Vector Direction',(5.87137176484E-017,1.,0.)) ;
#387=DIRECTION('Vector Direction',(-6.93889390391E-017,0.,1.)) ;
#392=DIRECTION('Vector Direction',(6.93889390391E-017,-3.74939945665E-033,-1.)) ;
#404=DIRECTION('Axis2P3D Direction',(6.12323399574E-017,-3.74939945665E-033,-1.)) ;
#405=DIRECTION('Axis2P3D XDirection',(6.12323399574E-017,1.,0.)) ;
#409=DIRECTION('Vector Direction',(1.,0.,0.)) ;
#414=DIRECTION('Vector Direction',(1.,-6.12323399574E-017,0.)) ;
#426=DIRECTION('Axis2P3D Direction',(6.12323399574E-017,1.,0.)) ;
#427=DIRECTION('Axis2P3D XDirection',(-6.12323399574E-017,3.74939945665E-033,1.)) ;
#438=DIRECTION('Axis2P3D Direction',(-6.12323399574E-017,-1.,0.)) ;
#439=DIRECTION('Axis2P3D XDirection',(6.12323399574E-017,-3.74939945665E-033,-1.)) ;
#8=PRODUCT_RELATED_PRODUCT_CATEGORY('part',$,(#5)) ;
#7=PRODUCT_CATEGORY('part','specification') ;
#30=STYLED_ITEM(' ',(#29),#22) ;
#29=PRESENTATION_STYLE_ASSIGNMENT((#28)) ;
#28=SURFACE_STYLE_USAGE(.BOTH.,#27) ;
#27=SURFACE_SIDE_STYLE(' ',(#26)) ;
#26=SURFACE_STYLE_FILL_AREA(#25) ;
#25=FILL_AREA_STYLE(' ',(#24)) ;
#24=FILL_AREA_STYLE_COLOUR(' ',#23) ;
#39=VECTOR('Line Direction',#38,1.) ;
#48=VECTOR('Line Direction',#47,1.) ;
#55=VECTOR('Line Direction',#54,1.) ;
#62=VECTOR('Line Direction',#61,1.) ;
#79=VECTOR('Line Direction',#78,1.) ;
#86=VECTOR('Line Direction',#85,1.) ;
#93=VECTOR('Line Direction',#92,1.) ;
#110=VECTOR('Line Direction',#109,1.) ;
#117=VECTOR('Line Direction',#116,1.) ;
#134=VECTOR('Line Direction',#133,1.) ;
#141=VECTOR('Line Direction',#140,1.) ;
#158=VECTOR('Line Direction',#157,1.) ;
#175=VECTOR('Line Direction',#174,1.) ;
#184=VECTOR('Line Direction',#183,1.) ;
#191=VECTOR('Line Direction',#190,1.) ;
#198=VECTOR('Line Direction',#197,1.) ;
#210=VECTOR('Line Direction',#209,1.) ;
#217=VECTOR('Line Direction',#216,1.) ;
#224=VECTOR('Line Direction',#223,1.) ;
#236=VECTOR('Line Direction',#235,1.) ;
#243=VECTOR('Line Direction',#242,1.) ;
#255=VECTOR('Line Direction',#254,1.) ;
#262=VECTOR('Line Direction',#261,1.) ;
#279=VECTOR('Line Direction',#278,1.) ;
#296=VECTOR('Line Direction',#295,1.) ;
#305=VECTOR('Line Direction',#304,1.) ;
#312=VECTOR('Line Direction',#311,1.) ;
#319=VECTOR('Line Direction',#318,1.) ;
#348=VECTOR('Line Direction',#347,1.) ;
#355=VECTOR('Line Direction',#354,1.) ;
#362=VECTOR('Line Direction',#361,1.) ;
#379=VECTOR('Line Direction',#378,1.) ;
#388=VECTOR('Line Direction',#387,1.) ;
#393=VECTOR('Line Direction',#392,1.) ;
#410=VECTOR('Line Direction',#409,1.) ;
#415=VECTOR('Line Direction',#414,1.) ;
#16=UNCERTAINTY_MEASURE_WITH_UNIT(LENGTH_MEASURE(0.005),#12,'distance_accuracy_value','CONFUSED CURVE UNCERTAINTY') ;
#450=SHAPE_REPRESENTATION_RELATIONSHIP(' ',' ',#20,#449) ;
#66=ORIENTED_EDGE('',*,*,#45,.F.) ;
#67=ORIENTED_EDGE('',*,*,#52,.T.) ;
#68=ORIENTED_EDGE('',*,*,#59,.T.) ;
#69=ORIENTED_EDGE('',*,*,#64,.F.) ;
#97=ORIENTED_EDGE('',*,*,#83,.F.) ;
#98=ORIENTED_EDGE('',*,*,#90,.F.) ;
#99=ORIENTED_EDGE('',*,*,#95,.F.) ;
#100=ORIENTED_EDGE('',*,*,#52,.F.) ;
#121=ORIENTED_EDGE('',*,*,#59,.F.) ;
#122=ORIENTED_EDGE('',*,*,#95,.T.) ;
#123=ORIENTED_EDGE('',*,*,#114,.T.) ;
#124=ORIENTED_EDGE('',*,*,#119,.F.) ;
#145=ORIENTED_EDGE('',*,*,#64,.T.) ;
#146=ORIENTED_EDGE('',*,*,#119,.T.) ;
#147=ORIENTED_EDGE('',*,*,#138,.T.) ;
#148=ORIENTED_EDGE('',*,*,#143,.T.) ;
#162=ORIENTED_EDGE('',*,*,#114,.F.) ;
#163=ORIENTED_EDGE('',*,*,#90,.T.) ;
#164=ORIENTED_EDGE('',*,*,#160,.T.) ;
#165=ORIENTED_EDGE('',*,*,#138,.F.) ;
#202=ORIENTED_EDGE('',*,*,#181,.T.) ;
#203=ORIENTED_EDGE('',*,*,#188,.F.) ;
#204=ORIENTED_EDGE('',*,*,#195,.F.) ;
#205=ORIENTED_EDGE('',*,*,#200,.T.) ;
#228=ORIENTED_EDGE('',*,*,#214,.T.) ;
#229=ORIENTED_EDGE('',*,*,#200,.F.) ;
#230=ORIENTED_EDGE('',*,*,#221,.F.) ;
#231=ORIENTED_EDGE('',*,*,#226,.T.) ;
#247=ORIENTED_EDGE('',*,*,#240,.T.) ;
#248=ORIENTED_EDGE('',*,*,#245,.T.) ;
#249=ORIENTED_EDGE('',*,*,#221,.T.) ;
#250=ORIENTED_EDGE('',*,*,#195,.T.) ;
#266=ORIENTED_EDGE('',*,*,#181,.F.) ;
#267=ORIENTED_EDGE('',*,*,#214,.F.) ;
#268=ORIENTED_EDGE('',*,*,#259,.F.) ;
#269=ORIENTED_EDGE('',*,*,#264,.F.) ;
#283=ORIENTED_EDGE('',*,*,#259,.T.) ;
#284=ORIENTED_EDGE('',*,*,#226,.F.) ;
#285=ORIENTED_EDGE('',*,*,#245,.F.) ;
#286=ORIENTED_EDGE('',*,*,#281,.T.) ;
#323=ORIENTED_EDGE('',*,*,#302,.T.) ;
#324=ORIENTED_EDGE('',*,*,#309,.F.) ;
#325=ORIENTED_EDGE('',*,*,#316,.F.) ;
#326=ORIENTED_EDGE('',*,*,#321,.T.) ;
#329=ORIENTED_EDGE('',*,*,#143,.F.) ;
#330=ORIENTED_EDGE('',*,*,#160,.F.) ;
#331=ORIENTED_EDGE('',*,*,#83,.T.) ;
#332=ORIENTED_EDGE('',*,*,#45,.T.) ;
#335=ORIENTED_EDGE('',*,*,#281,.F.) ;
#336=ORIENTED_EDGE('',*,*,#240,.F.) ;
#337=ORIENTED_EDGE('',*,*,#188,.T.) ;
#338=ORIENTED_EDGE('',*,*,#264,.T.) ;
#366=ORIENTED_EDGE('',*,*,#352,.F.) ;
#367=ORIENTED_EDGE('',*,*,#302,.F.) ;
#368=ORIENTED_EDGE('',*,*,#359,.F.) ;
#369=ORIENTED_EDGE('',*,*,#364,.F.) ;
#397=ORIENTED_EDGE('',*,*,#385,.T.) ;
#398=ORIENTED_EDGE('',*,*,#390,.T.) ;
#399=ORIENTED_EDGE('',*,*,#316,.T.) ;
#400=ORIENTED_EDGE('',*,*,#395,.T.) ;
#419=ORIENTED_EDGE('',*,*,#364,.T.) ;
#420=ORIENTED_EDGE('',*,*,#412,.F.) ;
#421=ORIENTED_EDGE('',*,*,#385,.F.) ;
#422=ORIENTED_EDGE('',*,*,#417,.T.) ;
#431=ORIENTED_EDGE('',*,*,#359,.T.) ;
#432=ORIENTED_EDGE('',*,*,#321,.F.) ;
#433=ORIENTED_EDGE('',*,*,#390,.F.) ;
#434=ORIENTED_EDGE('',*,*,#412,.T.) ;
#443=ORIENTED_EDGE('',*,*,#352,.T.) ;
#444=ORIENTED_EDGE('',*,*,#417,.F.) ;
#445=ORIENTED_EDGE('',*,*,#395,.F.) ;
#446=ORIENTED_EDGE('',*,*,#309,.T.) ;
#333=FACE_BOUND('',#328,.T.) ;
#339=FACE_BOUND('',#334,.T.) ;
#31=CLOSED_SHELL('Closed Shell',(#71,#102,#126,#150,#167,#207,#233,#252,#271,#288,#340,#371,#402,#424,#436,#448)) ;
#449=ADVANCED_BREP_SHAPE_REPRESENTATION('NONE',(#22),#17) ;
#71=ADVANCED_FACE('S3D - gedreht',(#70),#36,.T.) ;
#102=ADVANCED_FACE('S3D - gedreht',(#101),#76,.F.) ;
#126=ADVANCED_FACE('S3D - gedreht',(#125),#107,.T.) ;
#150=ADVANCED_FACE('S3D - gedreht',(#149),#131,.T.) ;
#167=ADVANCED_FACE('S3D - gedreht',(#166),#155,.T.) ;
#207=ADVANCED_FACE('S3D - gedreht',(#206),#172,.F.) ;
#233=ADVANCED_FACE('S3D - gedreht',(#232),#107,.T.) ;
#252=ADVANCED_FACE('S3D - gedreht',(#251),#76,.F.) ;
#271=ADVANCED_FACE('S3D - gedreht',(#270),#131,.T.) ;
#288=ADVANCED_FACE('S3D - gedreht',(#287),#276,.F.) ;
#340=ADVANCED_FACE('S3D - gedreht',(#327,#333,#339),#293,.T.) ;
#371=ADVANCED_FACE('S3D - gedreht',(#370),#345,.T.) ;
#402=ADVANCED_FACE('S3D - gedreht',(#401),#376,.F.) ;
#424=ADVANCED_FACE('S3D - gedreht',(#423),#407,.F.) ;
#436=ADVANCED_FACE('S3D - gedreht',(#435),#429,.T.) ;
#448=ADVANCED_FACE('S3D - gedreht',(#447),#441,.T.) ;
#4=APPLICATION_PROTOCOL_DEFINITION('international standard','automotive_design',2001,#1) ;
#22=MANIFOLD_SOLID_BREP('S3D - gedreht',#31) ;
#23=DRAUGHTING_PRE_DEFINED_COLOUR('yellow') ;
#45=EDGE_CURVE('',#42,#44,#40,.T.) ;
#52=EDGE_CURVE('',#42,#51,#49,.T.) ;
#59=EDGE_CURVE('',#51,#58,#56,.T.) ;
#64=EDGE_CURVE('',#44,#58,#63,.T.) ;
#83=EDGE_CURVE('',#82,#42,#80,.T.) ;
#90=EDGE_CURVE('',#89,#82,#87,.T.) ;
#95=EDGE_CURVE('',#51,#89,#94,.T.) ;
#114=EDGE_CURVE('',#89,#113,#111,.T.) ;
#119=EDGE_CURVE('',#58,#113,#118,.T.) ;
#138=EDGE_CURVE('',#113,#137,#135,.T.) ;
#143=EDGE_CURVE('',#137,#44,#142,.T.) ;
#160=EDGE_CURVE('',#82,#137,#159,.T.) ;
#181=EDGE_CURVE('',#178,#180,#176,.T.) ;
#188=EDGE_CURVE('',#187,#180,#185,.T.) ;
#195=EDGE_CURVE('',#194,#187,#192,.T.) ;
#200=EDGE_CURVE('',#194,#178,#199,.T.) ;
#214=EDGE_CURVE('',#213,#178,#211,.T.) ;
#221=EDGE_CURVE('',#220,#194,#218,.T.) ;
#226=EDGE_CURVE('',#220,#213,#225,.T.) ;
#240=EDGE_CURVE('',#187,#239,#237,.T.) ;
#245=EDGE_CURVE('',#239,#220,#244,.T.) ;
#259=EDGE_CURVE('',#258,#213,#256,.T.) ;
#264=EDGE_CURVE('',#180,#258,#263,.T.) ;
#281=EDGE_CURVE('',#239,#258,#280,.T.) ;
#302=EDGE_CURVE('',#299,#301,#297,.F.) ;
#309=EDGE_CURVE('',#308,#301,#306,.T.) ;
#316=EDGE_CURVE('',#315,#308,#313,.F.) ;
#321=EDGE_CURVE('',#315,#299,#320,.T.) ;
#352=EDGE_CURVE('',#301,#351,#349,.F.) ;
#359=EDGE_CURVE('',#358,#299,#356,.F.) ;
#364=EDGE_CURVE('',#351,#358,#363,.T.) ;
#385=EDGE_CURVE('',#382,#384,#380,.T.) ;
#390=EDGE_CURVE('',#384,#315,#389,.F.) ;
#395=EDGE_CURVE('',#308,#382,#394,.F.) ;
#412=EDGE_CURVE('',#384,#358,#411,.T.) ;
#417=EDGE_CURVE('',#382,#351,#416,.T.) ;
#65=EDGE_LOOP('',(#66,#67,#68,#69)) ;
#96=EDGE_LOOP('',(#97,#98,#99,#100)) ;
#120=EDGE_LOOP('',(#121,#122,#123,#124)) ;
#144=EDGE_LOOP('',(#145,#146,#147,#148)) ;
#161=EDGE_LOOP('',(#162,#163,#164,#165)) ;
#201=EDGE_LOOP('',(#202,#203,#204,#205)) ;
#227=EDGE_LOOP('',(#228,#229,#230,#231)) ;
#246=EDGE_LOOP('',(#247,#248,#249,#250)) ;
#265=EDGE_LOOP('',(#266,#267,#268,#269)) ;
#282=EDGE_LOOP('',(#283,#284,#285,#286)) ;
#322=EDGE_LOOP('',(#323,#324,#325,#326)) ;
#328=EDGE_LOOP('',(#329,#330,#331,#332)) ;
#334=EDGE_LOOP('',(#335,#336,#337,#338)) ;
#365=EDGE_LOOP('',(#366,#367,#368,#369)) ;
#396=EDGE_LOOP('',(#397,#398,#399,#400)) ;
#418=EDGE_LOOP('',(#419,#420,#421,#422)) ;
#430=EDGE_LOOP('',(#431,#432,#433,#434)) ;
#442=EDGE_LOOP('',(#443,#444,#445,#446)) ;
#70=FACE_OUTER_BOUND('',#65,.T.) ;
#101=FACE_OUTER_BOUND('',#96,.T.) ;
#125=FACE_OUTER_BOUND('',#120,.T.) ;
#149=FACE_OUTER_BOUND('',#144,.T.) ;
#166=FACE_OUTER_BOUND('',#161,.T.) ;
#206=FACE_OUTER_BOUND('',#201,.T.) ;
#232=FACE_OUTER_BOUND('',#227,.T.) ;
#251=FACE_OUTER_BOUND('',#246,.T.) ;
#270=FACE_OUTER_BOUND('',#265,.T.) ;
#287=FACE_OUTER_BOUND('',#282,.T.) ;
#327=FACE_OUTER_BOUND('',#322,.T.) ;
#370=FACE_OUTER_BOUND('',#365,.T.) ;
#401=FACE_OUTER_BOUND('',#396,.T.) ;
#423=FACE_OUTER_BOUND('',#418,.T.) ;
#435=FACE_OUTER_BOUND('',#430,.T.) ;
#447=FACE_OUTER_BOUND('',#442,.T.) ;
#40=LINE('Line',#37,#39) ;
#49=LINE('Line',#46,#48) ;
#56=LINE('Line',#53,#55) ;
#63=LINE('Line',#60,#62) ;
#80=LINE('Line',#77,#79) ;
#87=LINE('Line',#84,#86) ;
#94=LINE('Line',#91,#93) ;
#111=LINE('Line',#108,#110) ;
#118=LINE('Line',#115,#117) ;
#135=LINE('Line',#132,#134) ;
#142=LINE('Line',#139,#141) ;
#159=LINE('Line',#156,#158) ;
#176=LINE('Line',#173,#175) ;
#185=LINE('Line',#182,#184) ;
#192=LINE('Line',#189,#191) ;
#199=LINE('Line',#196,#198) ;
#211=LINE('Line',#208,#210) ;
#218=LINE('Line',#215,#217) ;
#225=LINE('Line',#222,#224) ;
#237=LINE('Line',#234,#236) ;
#244=LINE('Line',#241,#243) ;
#256=LINE('Line',#253,#255) ;
#263=LINE('Line',#260,#262) ;
#280=LINE('Line',#277,#279) ;
#297=LINE('Line',#294,#296) ;
#306=LINE('Line',#303,#305) ;
#313=LINE('Line',#310,#312) ;
#320=LINE('Line',#317,#319) ;
#349=LINE('Line',#346,#348) ;
#356=LINE('Line',#353,#355) ;
#363=LINE('Line',#360,#362) ;
#380=LINE('Line',#377,#379) ;
#389=LINE('Line',#386,#388) ;
#394=LINE('Line',#391,#393) ;
#411=LINE('Line',#408,#410) ;
#416=LINE('Line',#413,#415) ;
#36=PLANE('',#35) ;
#76=PLANE('',#75) ;
#107=PLANE('',#106) ;
#131=PLANE('',#130) ;
#155=PLANE('',#154) ;
#172=PLANE('',#171) ;
#276=PLANE('',#275) ;
#293=PLANE('',#292) ;
#345=PLANE('',#344) ;
#376=PLANE('',#375) ;
#407=PLANE('',#406) ;
#429=PLANE('',#428) ;
#441=PLANE('',#440) ;
#14=PLANE_ANGLE_MEASURE_WITH_UNIT(PLANE_ANGLE_MEASURE(0.0174532925199),#13) ;
#9=PRODUCT_CATEGORY_RELATIONSHIP(' ',' ',#7,#8) ;
#6=PRODUCT_DEFINITION_FORMATION_WITH_SPECIFIED_SOURCE('',' ',#5,.NOT_KNOWN.) ;
#21=SHAPE_DEFINITION_REPRESENTATION(#11,#20) ;
#42=VERTEX_POINT('',#41) ;
#44=VERTEX_POINT('',#43) ;
#51=VERTEX_POINT('',#50) ;
#58=VERTEX_POINT('',#57) ;
#82=VERTEX_POINT('',#81) ;
#89=VERTEX_POINT('',#88) ;
#113=VERTEX_POINT('',#112) ;
#137=VERTEX_POINT('',#136) ;
#178=VERTEX_POINT('',#177) ;
#180=VERTEX_POINT('',#179) ;
#187=VERTEX_POINT('',#186) ;
#194=VERTEX_POINT('',#193) ;
#213=VERTEX_POINT('',#212) ;
#220=VERTEX_POINT('',#219) ;
#239=VERTEX_POINT('',#238) ;
#258=VERTEX_POINT('',#257) ;
#299=VERTEX_POINT('',#298) ;
#301=VERTEX_POINT('',#300) ;
#308=VERTEX_POINT('',#307) ;
#315=VERTEX_POINT('',#314) ;
#351=VERTEX_POINT('',#350) ;
#358=VERTEX_POINT('',#357) ;
#382=VERTEX_POINT('',#381) ;
#384=VERTEX_POINT('',#383) ;
#12=(LENGTH_UNIT()NAMED_UNIT(*)SI_UNIT(.MILLI.,.METRE.)) ;
#13=(NAMED_UNIT(*)PLANE_ANGLE_UNIT()SI_UNIT($,.RADIAN.)) ;
#15=(NAMED_UNIT(*)SI_UNIT($,.STERADIAN.)SOLID_ANGLE_UNIT()) ;
#17=(GEOMETRIC_REPRESENTATION_CONTEXT(3)GLOBAL_UNCERTAINTY_ASSIGNED_CONTEXT((#16))GLOBAL_UNIT_ASSIGNED_CONTEXT((#12,#13,#15))REPRESENTATION_CONTEXT(' ',' ')) ;
ENDSEC;
END-ISO-10303-21;
