ISO-10303-21;
HEADER;
FILE_DESCRIPTION(('CATIA V5R24 STEP','CAx-IF Rec.Pracs.--- Model Styling and Organization---1.2---2011-12-15'),'2;1');

FILE_NAME ('D1464885_0', '2016-12-21T08:29:23+00:00', ('Weidmueller Interface'), ('Weidmueller'), 'CATIA Version 5-6 Release 2014 SP4 HF52', 'CATIA V5 STEP AP214', 'none');

FILE_SCHEMA(('AUTOMOTIVE_DESIGN { 1 0 10303 214 1 1 1 1 }'));

ENDSEC;
DATA;
#5=PRODUCT('v5-standard_part','','',(#2)) ;
#2=PRODUCT_CONTEXT(' ',#1,'mechanical') ;
#1=APPLICATION_CONTEXT('automotive design') ;
#10=PRODUCT_DEFINITION('',' ',#6,#3) ;
#3=PRODUCT_DEFINITION_CONTEXT('part definition',#1,' ') ;
#11=PRODUCT_DEFINITION_SHAPE(' ',' ',#10) ;
#193=MECHANICAL_DESIGN_GEOMETRIC_PRESENTATION_REPRESENTATION(' ',(#46),#16) ;
#19=SHAPE_REPRESENTATION(' ',(#18),#16) ;
#18=AXIS2_PLACEMENT_3D(' ',#17,$,$) ;
#24=AXIS2_PLACEMENT_3D('Plane Axis2P3D',#21,#22,#23) ;
#31=AXIS2_PLACEMENT_3D('Plane Axis2P3D',#28,#29,#30) ;
#36=AXIS2_PLACEMENT_3D('Plane Axis2P3D',#33,#34,#35) ;
#52=AXIS2_PLACEMENT_3D('Cylinder Axis2P3D',#49,#50,#51) ;
#56=AXIS2_PLACEMENT_3D('Circle Axis2P3D',#54,#55,$) ;
#72=AXIS2_PLACEMENT_3D('Circle Axis2P3D',#70,#71,$) ;
#91=AXIS2_PLACEMENT_3D('Circle Axis2P3D',#89,#90,$) ;
#96=AXIS2_PLACEMENT_3D('Circle Axis2P3D',#94,#95,$) ;
#109=AXIS2_PLACEMENT_3D('Cylinder Axis2P3D',#106,#107,#108) ;
#113=AXIS2_PLACEMENT_3D('Circle Axis2P3D',#111,#112,$) ;
#129=AXIS2_PLACEMENT_3D('Circle Axis2P3D',#127,#128,$) ;
#148=AXIS2_PLACEMENT_3D('Circle Axis2P3D',#146,#147,$) ;
#153=AXIS2_PLACEMENT_3D('Circle Axis2P3D',#151,#152,$) ;
#166=AXIS2_PLACEMENT_3D('Plane Axis2P3D',#163,#164,#165) ;
#180=AXIS2_PLACEMENT_3D('Plane Axis2P3D',#177,#178,#179) ;
#17=CARTESIAN_POINT(' ',(0.,0.,0.)) ;
#21=CARTESIAN_POINT('Axis2P3D Location',(0.,0.,0.)) ;
#28=CARTESIAN_POINT('Axis2P3D Location',(0.,0.,0.)) ;
#33=CARTESIAN_POINT('Axis2P3D Location',(0.,0.,0.)) ;
#49=CARTESIAN_POINT('Axis2P3D Location',(3.,3.,6.25)) ;
#54=CARTESIAN_POINT('Axis2P3D Location',(3.,3.,12.5)) ;
#58=CARTESIAN_POINT('Vertex',(5.63274768567,4.43827661581,12.5)) ;
#60=CARTESIAN_POINT('Vertex',(0.367252314329,1.56172338419,12.5)) ;
#63=CARTESIAN_POINT('Line Origine',(5.63274768567,4.43827661581,6.25)) ;
#67=CARTESIAN_POINT('Vertex',(5.63274768567,4.43827661581,8.80690426922E-017)) ;
#70=CARTESIAN_POINT('Axis2P3D Location',(3.,3.,0.)) ;
#74=CARTESIAN_POINT('Vertex',(0.367252314329,1.56172338419,-8.80690426922E-017)) ;
#77=CARTESIAN_POINT('Line Origine',(0.367252314329,1.56172338419,6.25)) ;
#89=CARTESIAN_POINT('Axis2P3D Location',(3.,3.,12.5)) ;
#94=CARTESIAN_POINT('Axis2P3D Location',(3.,3.,0.)) ;
#106=CARTESIAN_POINT('Axis2P3D Location',(3.,3.,6.25)) ;
#111=CARTESIAN_POINT('Axis2P3D Location',(3.,3.,0.)) ;
#115=CARTESIAN_POINT('Vertex',(4.53576948331,3.83899469256,9.39552027937E-016)) ;
#117=CARTESIAN_POINT('Vertex',(1.46423051669,2.16100530744,8.36804811463E-016)) ;
#120=CARTESIAN_POINT('Line Origine',(4.53576948331,3.83899469256,6.25)) ;
#124=CARTESIAN_POINT('Vertex',(4.53576948331,3.83899469256,12.5)) ;
#127=CARTESIAN_POINT('Axis2P3D Location',(3.,3.,12.5)) ;
#131=CARTESIAN_POINT('Vertex',(1.46423051669,2.16100530744,12.5)) ;
#134=CARTESIAN_POINT('Line Origine',(1.46423051669,2.16100530744,6.25)) ;
#146=CARTESIAN_POINT('Axis2P3D Location',(3.,3.,0.)) ;
#151=CARTESIAN_POINT('Axis2P3D Location',(3.,3.,12.5)) ;
#163=CARTESIAN_POINT('Axis2P3D Location',(4.75,3.,12.5)) ;
#177=CARTESIAN_POINT('Axis2P3D Location',(6.,3.,0.)) ;
#22=DIRECTION('Axis2P3D Direction',(0.,0.,1.)) ;
#23=DIRECTION('Axis2P3D XDirection',(1.,0.,0.)) ;
#29=DIRECTION('Axis2P3D Direction',(1.,0.,0.)) ;
#30=DIRECTION('Axis2P3D XDirection',(0.,1.,0.)) ;
#34=DIRECTION('Axis2P3D Direction',(0.,1.,0.)) ;
#35=DIRECTION('Axis2P3D XDirection',(0.,0.,1.)) ;
#50=DIRECTION('Axis2P3D Direction',(0.,-6.12323399574E-017,1.)) ;
#51=DIRECTION('Axis2P3D XDirection',(0.87758256189,0.479425538604,2.93563475641E-017)) ;
#55=DIRECTION('Axis2P3D Direction',(0.,-6.12323399574E-017,1.)) ;
#64=DIRECTION('Vector Direction',(0.,-1.42108547152E-016,1.)) ;
#71=DIRECTION('Axis2P3D Direction',(0.,-6.12323399574E-017,1.)) ;
#78=DIRECTION('Vector Direction',(0.,-7.1054273576E-017,1.)) ;
#90=DIRECTION('Axis2P3D Direction',(0.,-6.12323399574E-017,1.)) ;
#95=DIRECTION('Axis2P3D Direction',(0.,-6.12323399574E-017,1.)) ;
#107=DIRECTION('Axis2P3D Direction',(0.,-6.12323399574E-017,1.)) ;
#108=DIRECTION('Axis2P3D XDirection',(0.87758256189,0.479425538604,2.93563475641E-017)) ;
#112=DIRECTION('Axis2P3D Direction',(0.,-6.12323399574E-017,1.)) ;
#121=DIRECTION('Vector Direction',(0.,-7.1054273576E-017,1.)) ;
#128=DIRECTION('Axis2P3D Direction',(0.,-6.12323399574E-017,1.)) ;
#135=DIRECTION('Vector Direction',(0.,-7.1054273576E-017,1.)) ;
#147=DIRECTION('Axis2P3D Direction',(0.,-6.12323399574E-017,1.)) ;
#152=DIRECTION('Axis2P3D Direction',(0.,-6.12323399574E-017,1.)) ;
#164=DIRECTION('Axis2P3D Direction',(0.,-6.12323399574E-017,1.)) ;
#165=DIRECTION('Axis2P3D XDirection',(1.,0.,0.)) ;
#178=DIRECTION('Axis2P3D Direction',(0.,-6.12323399574E-017,1.)) ;
#179=DIRECTION('Axis2P3D XDirection',(1.,0.,0.)) ;
#47=PRESENTATION_LAYER_ASSIGNMENT('1',' ',(#38)) ;
#8=PRODUCT_RELATED_PRODUCT_CATEGORY('part',$,(#5)) ;
#7=PRODUCT_CATEGORY('part','specification') ;
#46=STYLED_ITEM(' ',(#45),#38) ;
#45=PRESENTATION_STYLE_ASSIGNMENT((#44)) ;
#44=SURFACE_STYLE_USAGE(.BOTH.,#43) ;
#43=SURFACE_SIDE_STYLE(' ',(#42)) ;
#42=SURFACE_STYLE_FILL_AREA(#41) ;
#41=FILL_AREA_STYLE(' ',(#40)) ;
#40=FILL_AREA_STYLE_COLOUR(' ',#39) ;
#65=VECTOR('Line Direction',#64,1.) ;
#79=VECTOR('Line Direction',#78,1.) ;
#122=VECTOR('Line Direction',#121,1.) ;
#136=VECTOR('Line Direction',#135,1.) ;
#15=UNCERTAINTY_MEASURE_WITH_UNIT(LENGTH_MEASURE(0.005),#12,'distance_accuracy_value','CONFUSED CURVE UNCERTAINTY') ;
#192=SHAPE_REPRESENTATION_RELATIONSHIP(' ',' ',#19,#191) ;
#83=ORIENTED_EDGE('',*,*,#62,.F.) ;
#84=ORIENTED_EDGE('',*,*,#69,.T.) ;
#85=ORIENTED_EDGE('',*,*,#76,.T.) ;
#86=ORIENTED_EDGE('',*,*,#81,.F.) ;
#100=ORIENTED_EDGE('',*,*,#93,.F.) ;
#101=ORIENTED_EDGE('',*,*,#81,.T.) ;
#102=ORIENTED_EDGE('',*,*,#98,.T.) ;
#103=ORIENTED_EDGE('',*,*,#69,.F.) ;
#140=ORIENTED_EDGE('',*,*,#119,.F.) ;
#141=ORIENTED_EDGE('',*,*,#126,.T.) ;
#142=ORIENTED_EDGE('',*,*,#133,.T.) ;
#143=ORIENTED_EDGE('',*,*,#138,.F.) ;
#157=ORIENTED_EDGE('',*,*,#150,.F.) ;
#158=ORIENTED_EDGE('',*,*,#138,.T.) ;
#159=ORIENTED_EDGE('',*,*,#155,.T.) ;
#160=ORIENTED_EDGE('',*,*,#126,.F.) ;
#169=ORIENTED_EDGE('',*,*,#93,.T.) ;
#170=ORIENTED_EDGE('',*,*,#62,.T.) ;
#173=ORIENTED_EDGE('',*,*,#133,.F.) ;
#174=ORIENTED_EDGE('',*,*,#155,.F.) ;
#183=ORIENTED_EDGE('',*,*,#76,.F.) ;
#184=ORIENTED_EDGE('',*,*,#98,.F.) ;
#187=ORIENTED_EDGE('',*,*,#150,.T.) ;
#188=ORIENTED_EDGE('',*,*,#119,.T.) ;
#175=FACE_BOUND('',#172,.T.) ;
#189=FACE_BOUND('',#186,.T.) ;
#48=CLOSED_SHELL('Closed Shell',(#88,#105,#145,#162,#176,#190)) ;
#191=ADVANCED_BREP_SHAPE_REPRESENTATION('NONE',(#38),#16) ;
#88=ADVANCED_FACE('V1',(#87),#53,.T.) ;
#105=ADVANCED_FACE('V1',(#104),#53,.T.) ;
#145=ADVANCED_FACE('V1',(#144),#110,.F.) ;
#162=ADVANCED_FACE('V1',(#161),#110,.F.) ;
#176=ADVANCED_FACE('V1',(#171,#175),#167,.T.) ;
#190=ADVANCED_FACE('V1',(#185,#189),#181,.F.) ;
#4=APPLICATION_PROTOCOL_DEFINITION('international standard','automotive_design',2001,#1) ;
#38=MANIFOLD_SOLID_BREP('V1',#48) ;
#57=CIRCLE('generated circle',#56,3.) ;
#73=CIRCLE('generated circle',#72,3.) ;
#92=CIRCLE('generated circle',#91,3.) ;
#97=CIRCLE('generated circle',#96,3.) ;
#114=CIRCLE('generated circle',#113,1.75) ;
#130=CIRCLE('generated circle',#129,1.75) ;
#149=CIRCLE('generated circle',#148,1.75) ;
#154=CIRCLE('generated circle',#153,1.75) ;
#39=COLOUR_RGB('Colour',0.823529411765,0.823529411765,1.) ;
#26=CONSTRUCTIVE_GEOMETRY_REPRESENTATION('supplemental geometry',(#25,#32,#37),#16) ;
#27=CONSTRUCTIVE_GEOMETRY_REPRESENTATION_RELATIONSHIP('supplemental geometry','',#19,#26) ;
#53=CYLINDRICAL_SURFACE('generated cylinder',#52,3.) ;
#110=CYLINDRICAL_SURFACE('generated cylinder',#109,1.75) ;
#62=EDGE_CURVE('',#59,#61,#57,.T.) ;
#69=EDGE_CURVE('',#59,#68,#66,.F.) ;
#76=EDGE_CURVE('',#68,#75,#73,.T.) ;
#81=EDGE_CURVE('',#61,#75,#80,.F.) ;
#93=EDGE_CURVE('',#61,#59,#92,.T.) ;
#98=EDGE_CURVE('',#75,#68,#97,.T.) ;
#119=EDGE_CURVE('',#116,#118,#114,.T.) ;
#126=EDGE_CURVE('',#116,#125,#123,.T.) ;
#133=EDGE_CURVE('',#125,#132,#130,.T.) ;
#138=EDGE_CURVE('',#118,#132,#137,.T.) ;
#150=EDGE_CURVE('',#118,#116,#149,.T.) ;
#155=EDGE_CURVE('',#132,#125,#154,.T.) ;
#82=EDGE_LOOP('',(#83,#84,#85,#86)) ;
#99=EDGE_LOOP('',(#100,#101,#102,#103)) ;
#139=EDGE_LOOP('',(#140,#141,#142,#143)) ;
#156=EDGE_LOOP('',(#157,#158,#159,#160)) ;
#168=EDGE_LOOP('',(#169,#170)) ;
#172=EDGE_LOOP('',(#173,#174)) ;
#182=EDGE_LOOP('',(#183,#184)) ;
#186=EDGE_LOOP('',(#187,#188)) ;
#87=FACE_OUTER_BOUND('',#82,.T.) ;
#104=FACE_OUTER_BOUND('',#99,.T.) ;
#144=FACE_OUTER_BOUND('',#139,.T.) ;
#161=FACE_OUTER_BOUND('',#156,.T.) ;
#171=FACE_OUTER_BOUND('',#168,.T.) ;
#185=FACE_OUTER_BOUND('',#182,.T.) ;
#66=LINE('Line',#63,#65) ;
#80=LINE('Line',#77,#79) ;
#123=LINE('Line',#120,#122) ;
#137=LINE('Line',#134,#136) ;
#25=PLANE('Referenz_xy',#24) ;
#32=PLANE('Referenz_yz',#31) ;
#37=PLANE('Referenz_xz',#36) ;
#167=PLANE('',#166) ;
#181=PLANE('',#180) ;
#9=PRODUCT_CATEGORY_RELATIONSHIP(' ',' ',#7,#8) ;
#6=PRODUCT_DEFINITION_FORMATION_WITH_SPECIFIED_SOURCE('',' ',#5,.NOT_KNOWN.) ;
#20=SHAPE_DEFINITION_REPRESENTATION(#11,#19) ;
#59=VERTEX_POINT('',#58) ;
#61=VERTEX_POINT('',#60) ;
#68=VERTEX_POINT('',#67) ;
#75=VERTEX_POINT('',#74) ;
#116=VERTEX_POINT('',#115) ;
#118=VERTEX_POINT('',#117) ;
#125=VERTEX_POINT('',#124) ;
#132=VERTEX_POINT('',#131) ;
#12=(LENGTH_UNIT()NAMED_UNIT(*)SI_UNIT(.MILLI.,.METRE.)) ;
#13=(NAMED_UNIT(*)PLANE_ANGLE_UNIT()SI_UNIT($,.RADIAN.)) ;
#14=(NAMED_UNIT(*)SI_UNIT($,.STERADIAN.)SOLID_ANGLE_UNIT()) ;
#16=(GEOMETRIC_REPRESENTATION_CONTEXT(3)GLOBAL_UNCERTAINTY_ASSIGNED_CONTEXT((#15))GLOBAL_UNIT_ASSIGNED_CONTEXT((#12,#13,#14))REPRESENTATION_CONTEXT(' ',' ')) ;
ENDSEC;
END-ISO-10303-21;
