ISO-10303-21;
HEADER;
FILE_DESCRIPTION(('CATIA V5 STEP Exchange','CAx-IF Rec.Pracs.--- Model Styling and Organization---1.2---2011-12-15'),'2;1');

FILE_NAME ('003020-3_1', '2018-08-24T16:18:52+00:00', ('none'), ('Weidmueller'), 'CATIA Version 5-6 Release 2014', 'CATIA V5 STEP AP214', 'none');

FILE_SCHEMA(('AUTOMOTIVE_DESIGN { 1 0 10303 214 1 1 1 1 }'));

ENDSEC;
DATA;
#5=PRODUCT('1003240000','','',(#2)) ;
#2=PRODUCT_CONTEXT(' ',#1,'mechanical') ;
#1=APPLICATION_CONTEXT('automotive design') ;
#10=PRODUCT_DEFINITION('',' ',#6,#3) ;
#3=PRODUCT_DEFINITION_CONTEXT('part definition',#1,' ') ;
#11=PRODUCT_DEFINITION_SHAPE(' ',' ',#10) ;
#459=MECHANICAL_DESIGN_GEOMETRIC_PRESENTATION_REPRESENTATION(' ',(#36),#16) ;
#19=SHAPE_REPRESENTATION(' ',(#18),#16) ;
#18=AXIS2_PLACEMENT_3D(' ',#17,$,$) ;
#24=AXIS2_PLACEMENT_3D('Plane Axis2P3D',#21,#22,#23) ;
#42=AXIS2_PLACEMENT_3D('Cone Axis2P3D',#39,#40,#41) ;
#46=AXIS2_PLACEMENT_3D('Circle Axis2P3D',#44,#45,$) ;
#62=AXIS2_PLACEMENT_3D('Circle Axis2P3D',#60,#61,$) ;
#81=AXIS2_PLACEMENT_3D('Circle Axis2P3D',#79,#80,$) ;
#86=AXIS2_PLACEMENT_3D('Circle Axis2P3D',#84,#85,$) ;
#99=AXIS2_PLACEMENT_3D('Cylinder Axis2P3D',#96,#97,#98) ;
#110=AXIS2_PLACEMENT_3D('Circle Axis2P3D',#108,#109,$) ;
#129=AXIS2_PLACEMENT_3D('Circle Axis2P3D',#127,#128,$) ;
#142=AXIS2_PLACEMENT_3D('Cylinder Axis2P3D',#139,#140,#141) ;
#146=AXIS2_PLACEMENT_3D('Circle Axis2P3D',#144,#145,$) ;
#162=AXIS2_PLACEMENT_3D('Circle Axis2P3D',#160,#161,$) ;
#181=AXIS2_PLACEMENT_3D('Circle Axis2P3D',#179,#180,$) ;
#186=AXIS2_PLACEMENT_3D('Circle Axis2P3D',#184,#185,$) ;
#198=AXIS2_PLACEMENT_3D('Circle Axis2P3D',#196,#197,$) ;
#214=AXIS2_PLACEMENT_3D('Circle Axis2P3D',#212,#213,$) ;
#233=AXIS2_PLACEMENT_3D('Circle Axis2P3D',#231,#232,$) ;
#238=AXIS2_PLACEMENT_3D('Circle Axis2P3D',#236,#237,$) ;
#251=AXIS2_PLACEMENT_3D('Cone Axis2P3D',#248,#249,#250) ;
#262=AXIS2_PLACEMENT_3D('Circle Axis2P3D',#260,#261,$) ;
#281=AXIS2_PLACEMENT_3D('Circle Axis2P3D',#279,#280,$) ;
#294=AXIS2_PLACEMENT_3D('Cylinder Axis2P3D',#291,#292,#293) ;
#298=AXIS2_PLACEMENT_3D('Circle Axis2P3D',#296,#297,$) ;
#314=AXIS2_PLACEMENT_3D('Circle Axis2P3D',#312,#313,$) ;
#333=AXIS2_PLACEMENT_3D('Circle Axis2P3D',#331,#332,$) ;
#338=AXIS2_PLACEMENT_3D('Circle Axis2P3D',#336,#337,$) ;
#351=AXIS2_PLACEMENT_3D('Cone Axis2P3D',#348,#349,#350) ;
#362=AXIS2_PLACEMENT_3D('Circle Axis2P3D',#360,#361,$) ;
#381=AXIS2_PLACEMENT_3D('Circle Axis2P3D',#379,#380,$) ;
#394=AXIS2_PLACEMENT_3D('Plane Axis2P3D',#391,#392,#393) ;
#408=AXIS2_PLACEMENT_3D('Plane Axis2P3D',#405,#406,#407) ;
#422=AXIS2_PLACEMENT_3D('Plane Axis2P3D',#419,#420,#421) ;
#436=AXIS2_PLACEMENT_3D('Plane Axis2P3D',#433,#434,#435) ;
#446=AXIS2_PLACEMENT_3D('Plane Axis2P3D',#443,#444,#445) ;
#458=AXIS2_PLACEMENT_3D('Axis System.3',#455,#456,#457) ;
#17=CARTESIAN_POINT(' ',(0.,0.,0.)) ;
#21=CARTESIAN_POINT('Axis2P3D Location',(2.25,0.,0.)) ;
#39=CARTESIAN_POINT('Axis2P3D Location',(2.25,2.25,24.)) ;
#44=CARTESIAN_POINT('Axis2P3D Location',(2.25,2.25,24.)) ;
#48=CARTESIAN_POINT('Vertex',(1.36306275358,3.8735277395,24.)) ;
#50=CARTESIAN_POINT('Vertex',(3.13693724642,0.626472260503,24.)) ;
#53=CARTESIAN_POINT('Line Origine',(1.26717764586,4.04904425188,23.8)) ;
#57=CARTESIAN_POINT('Vertex',(1.17129253814,4.22456076425,23.6)) ;
#60=CARTESIAN_POINT('Axis2P3D Location',(2.25,2.25,23.6)) ;
#64=CARTESIAN_POINT('Vertex',(3.32870746186,0.275439235747,23.6)) ;
#67=CARTESIAN_POINT('Line Origine',(3.23282235414,0.450955748125,23.8)) ;
#79=CARTESIAN_POINT('Axis2P3D Location',(2.25,2.25,24.)) ;
#84=CARTESIAN_POINT('Axis2P3D Location',(2.25,2.25,23.6)) ;
#96=CARTESIAN_POINT('Axis2P3D Location',(2.25,2.25,12.)) ;
#101=CARTESIAN_POINT('Line Origine',(1.17129253814,4.22456076425,12.9999999998)) ;
#105=CARTESIAN_POINT('Vertex',(1.17129253814,4.22456076425,21.0999999996)) ;
#108=CARTESIAN_POINT('Axis2P3D Location',(2.25,2.25,21.0999999996)) ;
#112=CARTESIAN_POINT('Vertex',(3.32870746186,0.275439235747,21.0999999996)) ;
#115=CARTESIAN_POINT('Line Origine',(3.32870746186,0.275439235747,12.9999999998)) ;
#127=CARTESIAN_POINT('Axis2P3D Location',(2.25,2.25,21.0999999996)) ;
#139=CARTESIAN_POINT('Axis2P3D Location',(2.25,2.25,12.)) ;
#144=CARTESIAN_POINT('Axis2P3D Location',(2.25,2.25,21.0999999996)) ;
#148=CARTESIAN_POINT('Vertex',(1.53086169209,3.56637384284,21.0999999996)) ;
#150=CARTESIAN_POINT('Vertex',(2.96913830791,0.933626157164,21.0999999996)) ;
#153=CARTESIAN_POINT('Line Origine',(1.53086169209,3.56637384284,19.0999999996)) ;
#157=CARTESIAN_POINT('Vertex',(1.53086169209,3.56637384284,17.0999999996)) ;
#160=CARTESIAN_POINT('Axis2P3D Location',(2.25,2.25,17.0999999996)) ;
#164=CARTESIAN_POINT('Vertex',(2.96913830791,0.933626157164,17.0999999996)) ;
#167=CARTESIAN_POINT('Line Origine',(2.96913830791,0.933626157164,19.0999999996)) ;
#179=CARTESIAN_POINT('Axis2P3D Location',(2.25,2.25,21.0999999996)) ;
#184=CARTESIAN_POINT('Axis2P3D Location',(2.25,2.25,17.0999999996)) ;
#196=CARTESIAN_POINT('Axis2P3D Location',(2.25,2.25,17.0999999996)) ;
#200=CARTESIAN_POINT('Vertex',(1.17129253814,4.22456076425,17.0999999996)) ;
#202=CARTESIAN_POINT('Vertex',(3.32870746186,0.275439235747,17.0999999996)) ;
#205=CARTESIAN_POINT('Line Origine',(1.17129253814,4.22456076425,12.9999999998)) ;
#209=CARTESIAN_POINT('Vertex',(1.17129253814,4.22456076425,2.4)) ;
#212=CARTESIAN_POINT('Axis2P3D Location',(2.25,2.25,2.4)) ;
#216=CARTESIAN_POINT('Vertex',(3.32870746186,0.275439235747,2.4)) ;
#219=CARTESIAN_POINT('Line Origine',(3.32870746186,0.275439235747,12.9999999998)) ;
#231=CARTESIAN_POINT('Axis2P3D Location',(2.25,2.25,17.0999999996)) ;
#236=CARTESIAN_POINT('Axis2P3D Location',(2.25,2.25,2.4)) ;
#248=CARTESIAN_POINT('Axis2P3D Location',(2.25,2.25,2.)) ;
#253=CARTESIAN_POINT('Line Origine',(1.26717764586,4.04904425188,2.2)) ;
#257=CARTESIAN_POINT('Vertex',(1.36306275358,3.8735277395,2.)) ;
#260=CARTESIAN_POINT('Axis2P3D Location',(2.25,2.25,2.)) ;
#264=CARTESIAN_POINT('Vertex',(3.13693724642,0.626472260503,2.)) ;
#267=CARTESIAN_POINT('Line Origine',(3.23282235414,0.450955748125,2.2)) ;
#279=CARTESIAN_POINT('Axis2P3D Location',(2.25,2.25,2.)) ;
#291=CARTESIAN_POINT('Axis2P3D Location',(2.25,2.25,12.)) ;
#296=CARTESIAN_POINT('Axis2P3D Location',(2.25,2.25,2.)) ;
#300=CARTESIAN_POINT('Vertex',(1.62674679981,3.39085733046,2.)) ;
#302=CARTESIAN_POINT('Vertex',(2.87325320019,1.10914266954,2.)) ;
#305=CARTESIAN_POINT('Line Origine',(1.62674679981,3.39085733046,1.15000000037)) ;
#309=CARTESIAN_POINT('Vertex',(1.62674679981,3.39085733046,0.300000000745)) ;
#312=CARTESIAN_POINT('Axis2P3D Location',(2.25,2.25,0.300000000745)) ;
#316=CARTESIAN_POINT('Vertex',(2.87325320019,1.10914266954,0.300000000745)) ;
#319=CARTESIAN_POINT('Line Origine',(2.87325320019,1.10914266954,1.15000000037)) ;
#331=CARTESIAN_POINT('Axis2P3D Location',(2.25,2.25,2.)) ;
#336=CARTESIAN_POINT('Axis2P3D Location',(2.25,2.25,0.300000000745)) ;
#348=CARTESIAN_POINT('Axis2P3D Location',(2.25,2.25,0.)) ;
#353=CARTESIAN_POINT('Line Origine',(1.69866063061,3.25921994617,0.15)) ;
#357=CARTESIAN_POINT('Vertex',(1.7705744614,3.12758256189,1.6238539437E-017)) ;
#360=CARTESIAN_POINT('Axis2P3D Location',(2.25,2.25,0.)) ;
#364=CARTESIAN_POINT('Vertex',(2.7294255386,1.37241743811,-1.6238539437E-017)) ;
#367=CARTESIAN_POINT('Line Origine',(2.80133936939,1.24078005383,0.15)) ;
#379=CARTESIAN_POINT('Axis2P3D Location',(2.25,2.25,0.)) ;
#391=CARTESIAN_POINT('Axis2P3D Location',(2.25,4.5,21.0999999996)) ;
#405=CARTESIAN_POINT('Axis2P3D Location',(2.25,4.5,17.0999999996)) ;
#419=CARTESIAN_POINT('Axis2P3D Location',(2.25,4.1,2.)) ;
#433=CARTESIAN_POINT('Axis2P3D Location',(2.25,3.25,-4.40619762898E-016)) ;
#443=CARTESIAN_POINT('Axis2P3D Location',(2.25,4.09999999963,24.)) ;
#455=CARTESIAN_POINT('Axis2P3D Location',(0.,0.,0.)) ;
#22=DIRECTION('Axis2P3D Direction',(1.,0.,0.)) ;
#23=DIRECTION('Axis2P3D XDirection',(0.,1.,0.)) ;
#40=DIRECTION('Axis2P3D Direction',(-0.,1.85037170771E-017,-1.)) ;
#41=DIRECTION('Axis2P3D XDirection',(-0.479425538604,0.87758256189,0.)) ;
#45=DIRECTION('Axis2P3D Direction',(0.,1.85037170771E-017,-1.)) ;
#54=DIRECTION('Vector Direction',(-0.339005049421,0.620544580564,-0.707106781187)) ;
#61=DIRECTION('Axis2P3D Direction',(0.,1.85037170771E-017,-1.)) ;
#68=DIRECTION('Vector Direction',(0.339005049421,-0.620544580564,-0.707106781187)) ;
#80=DIRECTION('Axis2P3D Direction',(0.,1.85037170771E-017,-1.)) ;
#85=DIRECTION('Axis2P3D Direction',(0.,1.85037170771E-017,-1.)) ;
#97=DIRECTION('Axis2P3D Direction',(0.,-1.85037170771E-017,1.)) ;
#98=DIRECTION('Axis2P3D XDirection',(-0.479425538604,0.87758256189,1.6238539437E-017)) ;
#102=DIRECTION('Vector Direction',(0.,0.,1.)) ;
#109=DIRECTION('Axis2P3D Direction',(0.,-1.85037170771E-017,1.)) ;
#116=DIRECTION('Vector Direction',(0.,0.,1.)) ;
#128=DIRECTION('Axis2P3D Direction',(0.,-1.85037170771E-017,1.)) ;
#140=DIRECTION('Axis2P3D Direction',(0.,-1.85037170771E-017,1.)) ;
#141=DIRECTION('Axis2P3D XDirection',(-0.479425538604,0.87758256189,1.6238539437E-017)) ;
#145=DIRECTION('Axis2P3D Direction',(0.,-1.85037170771E-017,1.)) ;
#154=DIRECTION('Vector Direction',(0.,0.,1.)) ;
#161=DIRECTION('Axis2P3D Direction',(0.,-1.85037170771E-017,1.)) ;
#168=DIRECTION('Vector Direction',(0.,0.,1.)) ;
#180=DIRECTION('Axis2P3D Direction',(0.,-1.85037170771E-017,1.)) ;
#185=DIRECTION('Axis2P3D Direction',(0.,-1.85037170771E-017,1.)) ;
#197=DIRECTION('Axis2P3D Direction',(0.,-1.85037170771E-017,1.)) ;
#206=DIRECTION('Vector Direction',(0.,0.,1.)) ;
#213=DIRECTION('Axis2P3D Direction',(0.,-1.85037170771E-017,1.)) ;
#220=DIRECTION('Vector Direction',(0.,0.,1.)) ;
#232=DIRECTION('Axis2P3D Direction',(0.,-1.85037170771E-017,1.)) ;
#237=DIRECTION('Axis2P3D Direction',(0.,-1.85037170771E-017,1.)) ;
#249=DIRECTION('Axis2P3D Direction',(0.,-1.85037170771E-017,1.)) ;
#250=DIRECTION('Axis2P3D XDirection',(-0.479425538604,0.87758256189,0.)) ;
#254=DIRECTION('Vector Direction',(-0.339005049421,0.620544580564,0.707106781187)) ;
#261=DIRECTION('Axis2P3D Direction',(0.,-1.85037170771E-017,1.)) ;
#268=DIRECTION('Vector Direction',(0.339005049421,-0.620544580564,0.707106781187)) ;
#280=DIRECTION('Axis2P3D Direction',(0.,-1.85037170771E-017,1.)) ;
#292=DIRECTION('Axis2P3D Direction',(0.,-1.85037170771E-017,1.)) ;
#293=DIRECTION('Axis2P3D XDirection',(-0.479425538604,0.87758256189,1.6238539437E-017)) ;
#297=DIRECTION('Axis2P3D Direction',(0.,-1.85037170771E-017,1.)) ;
#306=DIRECTION('Vector Direction',(0.,0.,1.)) ;
#313=DIRECTION('Axis2P3D Direction',(0.,-1.85037170771E-017,1.)) ;
#320=DIRECTION('Vector Direction',(0.,0.,1.)) ;
#332=DIRECTION('Axis2P3D Direction',(0.,-1.85037170771E-017,1.)) ;
#337=DIRECTION('Axis2P3D Direction',(0.,-1.85037170771E-017,1.)) ;
#349=DIRECTION('Axis2P3D Direction',(0.,-1.85037170771E-017,1.)) ;
#350=DIRECTION('Axis2P3D XDirection',(-0.479425538604,0.87758256189,0.)) ;
#354=DIRECTION('Vector Direction',(-0.339005049421,0.620544580564,0.707106781187)) ;
#361=DIRECTION('Axis2P3D Direction',(0.,-1.85037170771E-017,1.)) ;
#368=DIRECTION('Vector Direction',(0.339005049421,-0.620544580564,0.707106781187)) ;
#380=DIRECTION('Axis2P3D Direction',(0.,-1.85037170771E-017,1.)) ;
#392=DIRECTION('Axis2P3D Direction',(0.,-1.85037170771E-017,1.)) ;
#393=DIRECTION('Axis2P3D XDirection',(1.,0.,0.)) ;
#406=DIRECTION('Axis2P3D Direction',(0.,-1.85037170771E-017,1.)) ;
#407=DIRECTION('Axis2P3D XDirection',(1.,0.,0.)) ;
#420=DIRECTION('Axis2P3D Direction',(0.,-1.85037170771E-017,1.)) ;
#421=DIRECTION('Axis2P3D XDirection',(1.,0.,0.)) ;
#434=DIRECTION('Axis2P3D Direction',(0.,-1.85037170771E-017,1.)) ;
#435=DIRECTION('Axis2P3D XDirection',(1.,0.,0.)) ;
#444=DIRECTION('Axis2P3D Direction',(0.,-1.85037170771E-017,1.)) ;
#445=DIRECTION('Axis2P3D XDirection',(1.,0.,0.)) ;
#456=DIRECTION('Axis2P3D Direction',(0.,0.,1.)) ;
#457=DIRECTION('Axis2P3D XDirection',(1.,0.,0.)) ;
#37=PRESENTATION_LAYER_ASSIGNMENT('1',' ',(#28)) ;
#8=PRODUCT_RELATED_PRODUCT_CATEGORY('part',$,(#5)) ;
#7=PRODUCT_CATEGORY('part','specification') ;
#36=STYLED_ITEM(' ',(#35),#28) ;
#35=PRESENTATION_STYLE_ASSIGNMENT((#34)) ;
#34=SURFACE_STYLE_USAGE(.BOTH.,#33) ;
#33=SURFACE_SIDE_STYLE(' ',(#32)) ;
#32=SURFACE_STYLE_FILL_AREA(#31) ;
#31=FILL_AREA_STYLE(' ',(#30)) ;
#30=FILL_AREA_STYLE_COLOUR(' ',#29) ;
#55=VECTOR('Line Direction',#54,1.) ;
#69=VECTOR('Line Direction',#68,1.) ;
#103=VECTOR('Line Direction',#102,1.) ;
#117=VECTOR('Line Direction',#116,1.) ;
#155=VECTOR('Line Direction',#154,1.) ;
#169=VECTOR('Line Direction',#168,1.) ;
#207=VECTOR('Line Direction',#206,1.) ;
#221=VECTOR('Line Direction',#220,1.) ;
#255=VECTOR('Line Direction',#254,1.) ;
#269=VECTOR('Line Direction',#268,1.) ;
#307=VECTOR('Line Direction',#306,1.) ;
#321=VECTOR('Line Direction',#320,1.) ;
#355=VECTOR('Line Direction',#354,1.) ;
#369=VECTOR('Line Direction',#368,1.) ;
#15=UNCERTAINTY_MEASURE_WITH_UNIT(LENGTH_MEASURE(0.005),#12,'distance_accuracy_value','CONFUSED CURVE UNCERTAINTY') ;
#454=SHAPE_REPRESENTATION_RELATIONSHIP(' ',' ',#19,#453) ;
#73=ORIENTED_EDGE('',*,*,#52,.F.) ;
#74=ORIENTED_EDGE('',*,*,#59,.T.) ;
#75=ORIENTED_EDGE('',*,*,#66,.T.) ;
#76=ORIENTED_EDGE('',*,*,#71,.F.) ;
#90=ORIENTED_EDGE('',*,*,#83,.F.) ;
#91=ORIENTED_EDGE('',*,*,#71,.T.) ;
#92=ORIENTED_EDGE('',*,*,#88,.T.) ;
#93=ORIENTED_EDGE('',*,*,#59,.F.) ;
#121=ORIENTED_EDGE('',*,*,#66,.F.) ;
#122=ORIENTED_EDGE('',*,*,#107,.T.) ;
#123=ORIENTED_EDGE('',*,*,#114,.T.) ;
#124=ORIENTED_EDGE('',*,*,#119,.F.) ;
#133=ORIENTED_EDGE('',*,*,#88,.F.) ;
#134=ORIENTED_EDGE('',*,*,#119,.T.) ;
#135=ORIENTED_EDGE('',*,*,#131,.T.) ;
#136=ORIENTED_EDGE('',*,*,#107,.F.) ;
#173=ORIENTED_EDGE('',*,*,#152,.F.) ;
#174=ORIENTED_EDGE('',*,*,#159,.T.) ;
#175=ORIENTED_EDGE('',*,*,#166,.T.) ;
#176=ORIENTED_EDGE('',*,*,#171,.F.) ;
#190=ORIENTED_EDGE('',*,*,#183,.F.) ;
#191=ORIENTED_EDGE('',*,*,#171,.T.) ;
#192=ORIENTED_EDGE('',*,*,#188,.T.) ;
#193=ORIENTED_EDGE('',*,*,#159,.F.) ;
#225=ORIENTED_EDGE('',*,*,#204,.F.) ;
#226=ORIENTED_EDGE('',*,*,#211,.T.) ;
#227=ORIENTED_EDGE('',*,*,#218,.T.) ;
#228=ORIENTED_EDGE('',*,*,#223,.F.) ;
#242=ORIENTED_EDGE('',*,*,#235,.F.) ;
#243=ORIENTED_EDGE('',*,*,#223,.T.) ;
#244=ORIENTED_EDGE('',*,*,#240,.T.) ;
#245=ORIENTED_EDGE('',*,*,#211,.F.) ;
#273=ORIENTED_EDGE('',*,*,#218,.F.) ;
#274=ORIENTED_EDGE('',*,*,#259,.T.) ;
#275=ORIENTED_EDGE('',*,*,#266,.T.) ;
#276=ORIENTED_EDGE('',*,*,#271,.F.) ;
#285=ORIENTED_EDGE('',*,*,#240,.F.) ;
#286=ORIENTED_EDGE('',*,*,#271,.T.) ;
#287=ORIENTED_EDGE('',*,*,#283,.T.) ;
#288=ORIENTED_EDGE('',*,*,#259,.F.) ;
#325=ORIENTED_EDGE('',*,*,#304,.F.) ;
#326=ORIENTED_EDGE('',*,*,#311,.T.) ;
#327=ORIENTED_EDGE('',*,*,#318,.T.) ;
#328=ORIENTED_EDGE('',*,*,#323,.F.) ;
#342=ORIENTED_EDGE('',*,*,#335,.F.) ;
#343=ORIENTED_EDGE('',*,*,#323,.T.) ;
#344=ORIENTED_EDGE('',*,*,#340,.T.) ;
#345=ORIENTED_EDGE('',*,*,#311,.F.) ;
#373=ORIENTED_EDGE('',*,*,#318,.F.) ;
#374=ORIENTED_EDGE('',*,*,#359,.T.) ;
#375=ORIENTED_EDGE('',*,*,#366,.T.) ;
#376=ORIENTED_EDGE('',*,*,#371,.F.) ;
#385=ORIENTED_EDGE('',*,*,#340,.F.) ;
#386=ORIENTED_EDGE('',*,*,#371,.T.) ;
#387=ORIENTED_EDGE('',*,*,#383,.T.) ;
#388=ORIENTED_EDGE('',*,*,#359,.F.) ;
#397=ORIENTED_EDGE('',*,*,#114,.F.) ;
#398=ORIENTED_EDGE('',*,*,#131,.F.) ;
#401=ORIENTED_EDGE('',*,*,#183,.T.) ;
#402=ORIENTED_EDGE('',*,*,#152,.T.) ;
#411=ORIENTED_EDGE('',*,*,#235,.T.) ;
#412=ORIENTED_EDGE('',*,*,#204,.T.) ;
#415=ORIENTED_EDGE('',*,*,#166,.F.) ;
#416=ORIENTED_EDGE('',*,*,#188,.F.) ;
#425=ORIENTED_EDGE('',*,*,#266,.F.) ;
#426=ORIENTED_EDGE('',*,*,#283,.F.) ;
#429=ORIENTED_EDGE('',*,*,#335,.T.) ;
#430=ORIENTED_EDGE('',*,*,#304,.T.) ;
#439=ORIENTED_EDGE('',*,*,#366,.F.) ;
#440=ORIENTED_EDGE('',*,*,#383,.F.) ;
#449=ORIENTED_EDGE('',*,*,#52,.T.) ;
#450=ORIENTED_EDGE('',*,*,#83,.T.) ;
#403=FACE_BOUND('',#400,.T.) ;
#417=FACE_BOUND('',#414,.T.) ;
#431=FACE_BOUND('',#428,.T.) ;
#38=CLOSED_SHELL('Closed Shell',(#78,#95,#126,#138,#178,#195,#230,#247,#278,#290,#330,#347,#378,#390,#404,#418,#432,#442,#452)) ;
#453=ADVANCED_BREP_SHAPE_REPRESENTATION('NONE',(#28),#16) ;
#78=ADVANCED_FACE('Hauptkoerper',(#77),#43,.T.) ;
#95=ADVANCED_FACE('Hauptkoerper',(#94),#43,.T.) ;
#126=ADVANCED_FACE('Hauptkoerper',(#125),#100,.T.) ;
#138=ADVANCED_FACE('Hauptkoerper',(#137),#100,.T.) ;
#178=ADVANCED_FACE('Hauptkoerper',(#177),#143,.T.) ;
#195=ADVANCED_FACE('Hauptkoerper',(#194),#143,.T.) ;
#230=ADVANCED_FACE('Hauptkoerper',(#229),#100,.T.) ;
#247=ADVANCED_FACE('Hauptkoerper',(#246),#100,.T.) ;
#278=ADVANCED_FACE('Hauptkoerper',(#277),#252,.T.) ;
#290=ADVANCED_FACE('Hauptkoerper',(#289),#252,.T.) ;
#330=ADVANCED_FACE('Hauptkoerper',(#329),#295,.T.) ;
#347=ADVANCED_FACE('Hauptkoerper',(#346),#295,.T.) ;
#378=ADVANCED_FACE('Hauptkoerper',(#377),#352,.T.) ;
#390=ADVANCED_FACE('Hauptkoerper',(#389),#352,.T.) ;
#404=ADVANCED_FACE('Hauptkoerper',(#399,#403),#395,.F.) ;
#418=ADVANCED_FACE('Hauptkoerper',(#413,#417),#409,.T.) ;
#432=ADVANCED_FACE('Hauptkoerper',(#427,#431),#423,.F.) ;
#442=ADVANCED_FACE('Hauptkoerper',(#441),#437,.F.) ;
#452=ADVANCED_FACE('Hauptkoerper',(#451),#447,.T.) ;
#4=APPLICATION_PROTOCOL_DEFINITION('international standard','automotive_design',2001,#1) ;
#28=MANIFOLD_SOLID_BREP('Hauptkoerper',#38) ;
#47=CIRCLE('generated circle',#46,1.85) ;
#63=CIRCLE('generated circle',#62,2.25) ;
#82=CIRCLE('generated circle',#81,1.85) ;
#87=CIRCLE('generated circle',#86,2.25) ;
#111=CIRCLE('generated circle',#110,2.25) ;
#130=CIRCLE('generated circle',#129,2.25) ;
#147=CIRCLE('generated circle',#146,1.5) ;
#163=CIRCLE('generated circle',#162,1.5) ;
#182=CIRCLE('generated circle',#181,1.5) ;
#187=CIRCLE('generated circle',#186,1.5) ;
#199=CIRCLE('generated circle',#198,2.25) ;
#215=CIRCLE('generated circle',#214,2.25) ;
#234=CIRCLE('generated circle',#233,2.25) ;
#239=CIRCLE('generated circle',#238,2.25) ;
#263=CIRCLE('generated circle',#262,1.85) ;
#282=CIRCLE('generated circle',#281,1.85) ;
#299=CIRCLE('generated circle',#298,1.3) ;
#315=CIRCLE('generated circle',#314,1.3) ;
#334=CIRCLE('generated circle',#333,1.3) ;
#339=CIRCLE('generated circle',#338,1.3) ;
#363=CIRCLE('generated circle',#362,1.) ;
#382=CIRCLE('generated circle',#381,1.) ;
#29=COLOUR_RGB('Colour',0.760784313725,0.670588235294,0.678431372549) ;
#43=CONICAL_SURFACE('Cone',#42,1.85,0.785398163397) ;
#252=CONICAL_SURFACE('Cone',#251,1.85,0.785398163397) ;
#352=CONICAL_SURFACE('Cone',#351,1.,0.785398163397) ;
#26=CONSTRUCTIVE_GEOMETRY_REPRESENTATION('supplemental geometry',(#25,#458),#16) ;
#27=CONSTRUCTIVE_GEOMETRY_REPRESENTATION_RELATIONSHIP('supplemental geometry','',#19,#26) ;
#100=CYLINDRICAL_SURFACE('generated cylinder',#99,2.25) ;
#143=CYLINDRICAL_SURFACE('generated cylinder',#142,1.5) ;
#295=CYLINDRICAL_SURFACE('generated cylinder',#294,1.3) ;
#52=EDGE_CURVE('',#49,#51,#47,.F.) ;
#59=EDGE_CURVE('',#49,#58,#56,.T.) ;
#66=EDGE_CURVE('',#58,#65,#63,.F.) ;
#71=EDGE_CURVE('',#51,#65,#70,.T.) ;
#83=EDGE_CURVE('',#51,#49,#82,.F.) ;
#88=EDGE_CURVE('',#65,#58,#87,.F.) ;
#107=EDGE_CURVE('',#58,#106,#104,.F.) ;
#114=EDGE_CURVE('',#106,#113,#111,.T.) ;
#119=EDGE_CURVE('',#65,#113,#118,.F.) ;
#131=EDGE_CURVE('',#113,#106,#130,.T.) ;
#152=EDGE_CURVE('',#149,#151,#147,.T.) ;
#159=EDGE_CURVE('',#149,#158,#156,.F.) ;
#166=EDGE_CURVE('',#158,#165,#163,.T.) ;
#171=EDGE_CURVE('',#151,#165,#170,.F.) ;
#183=EDGE_CURVE('',#151,#149,#182,.T.) ;
#188=EDGE_CURVE('',#165,#158,#187,.T.) ;
#204=EDGE_CURVE('',#201,#203,#199,.T.) ;
#211=EDGE_CURVE('',#201,#210,#208,.F.) ;
#218=EDGE_CURVE('',#210,#217,#215,.T.) ;
#223=EDGE_CURVE('',#203,#217,#222,.F.) ;
#235=EDGE_CURVE('',#203,#201,#234,.T.) ;
#240=EDGE_CURVE('',#217,#210,#239,.T.) ;
#259=EDGE_CURVE('',#210,#258,#256,.F.) ;
#266=EDGE_CURVE('',#258,#265,#263,.T.) ;
#271=EDGE_CURVE('',#217,#265,#270,.F.) ;
#283=EDGE_CURVE('',#265,#258,#282,.T.) ;
#304=EDGE_CURVE('',#301,#303,#299,.T.) ;
#311=EDGE_CURVE('',#301,#310,#308,.F.) ;
#318=EDGE_CURVE('',#310,#317,#315,.T.) ;
#323=EDGE_CURVE('',#303,#317,#322,.F.) ;
#335=EDGE_CURVE('',#303,#301,#334,.T.) ;
#340=EDGE_CURVE('',#317,#310,#339,.T.) ;
#359=EDGE_CURVE('',#310,#358,#356,.F.) ;
#366=EDGE_CURVE('',#358,#365,#363,.T.) ;
#371=EDGE_CURVE('',#317,#365,#370,.F.) ;
#383=EDGE_CURVE('',#365,#358,#382,.T.) ;
#72=EDGE_LOOP('',(#73,#74,#75,#76)) ;
#89=EDGE_LOOP('',(#90,#91,#92,#93)) ;
#120=EDGE_LOOP('',(#121,#122,#123,#124)) ;
#132=EDGE_LOOP('',(#133,#134,#135,#136)) ;
#172=EDGE_LOOP('',(#173,#174,#175,#176)) ;
#189=EDGE_LOOP('',(#190,#191,#192,#193)) ;
#224=EDGE_LOOP('',(#225,#226,#227,#228)) ;
#241=EDGE_LOOP('',(#242,#243,#244,#245)) ;
#272=EDGE_LOOP('',(#273,#274,#275,#276)) ;
#284=EDGE_LOOP('',(#285,#286,#287,#288)) ;
#324=EDGE_LOOP('',(#325,#326,#327,#328)) ;
#341=EDGE_LOOP('',(#342,#343,#344,#345)) ;
#372=EDGE_LOOP('',(#373,#374,#375,#376)) ;
#384=EDGE_LOOP('',(#385,#386,#387,#388)) ;
#396=EDGE_LOOP('',(#397,#398)) ;
#400=EDGE_LOOP('',(#401,#402)) ;
#410=EDGE_LOOP('',(#411,#412)) ;
#414=EDGE_LOOP('',(#415,#416)) ;
#424=EDGE_LOOP('',(#425,#426)) ;
#428=EDGE_LOOP('',(#429,#430)) ;
#438=EDGE_LOOP('',(#439,#440)) ;
#448=EDGE_LOOP('',(#449,#450)) ;
#77=FACE_OUTER_BOUND('',#72,.T.) ;
#94=FACE_OUTER_BOUND('',#89,.T.) ;
#125=FACE_OUTER_BOUND('',#120,.T.) ;
#137=FACE_OUTER_BOUND('',#132,.T.) ;
#177=FACE_OUTER_BOUND('',#172,.T.) ;
#194=FACE_OUTER_BOUND('',#189,.T.) ;
#229=FACE_OUTER_BOUND('',#224,.T.) ;
#246=FACE_OUTER_BOUND('',#241,.T.) ;
#277=FACE_OUTER_BOUND('',#272,.T.) ;
#289=FACE_OUTER_BOUND('',#284,.T.) ;
#329=FACE_OUTER_BOUND('',#324,.T.) ;
#346=FACE_OUTER_BOUND('',#341,.T.) ;
#377=FACE_OUTER_BOUND('',#372,.T.) ;
#389=FACE_OUTER_BOUND('',#384,.T.) ;
#399=FACE_OUTER_BOUND('',#396,.T.) ;
#413=FACE_OUTER_BOUND('',#410,.T.) ;
#427=FACE_OUTER_BOUND('',#424,.T.) ;
#441=FACE_OUTER_BOUND('',#438,.T.) ;
#451=FACE_OUTER_BOUND('',#448,.T.) ;
#56=LINE('Line',#53,#55) ;
#70=LINE('Line',#67,#69) ;
#104=LINE('Line',#101,#103) ;
#118=LINE('Line',#115,#117) ;
#156=LINE('Line',#153,#155) ;
#170=LINE('Line',#167,#169) ;
#208=LINE('Line',#205,#207) ;
#222=LINE('Line',#219,#221) ;
#256=LINE('Line',#253,#255) ;
#270=LINE('Line',#267,#269) ;
#308=LINE('Line',#305,#307) ;
#322=LINE('Line',#319,#321) ;
#356=LINE('Line',#353,#355) ;
#370=LINE('Line',#367,#369) ;
#25=PLANE('Plane.1',#24) ;
#395=PLANE('',#394) ;
#409=PLANE('',#408) ;
#423=PLANE('',#422) ;
#437=PLANE('',#436) ;
#447=PLANE('',#446) ;
#9=PRODUCT_CATEGORY_RELATIONSHIP(' ',' ',#7,#8) ;
#6=PRODUCT_DEFINITION_FORMATION_WITH_SPECIFIED_SOURCE('',' ',#5,.NOT_KNOWN.) ;
#20=SHAPE_DEFINITION_REPRESENTATION(#11,#19) ;
#49=VERTEX_POINT('',#48) ;
#51=VERTEX_POINT('',#50) ;
#58=VERTEX_POINT('',#57) ;
#65=VERTEX_POINT('',#64) ;
#106=VERTEX_POINT('',#105) ;
#113=VERTEX_POINT('',#112) ;
#149=VERTEX_POINT('',#148) ;
#151=VERTEX_POINT('',#150) ;
#158=VERTEX_POINT('',#157) ;
#165=VERTEX_POINT('',#164) ;
#201=VERTEX_POINT('',#200) ;
#203=VERTEX_POINT('',#202) ;
#210=VERTEX_POINT('',#209) ;
#217=VERTEX_POINT('',#216) ;
#258=VERTEX_POINT('',#257) ;
#265=VERTEX_POINT('',#264) ;
#301=VERTEX_POINT('',#300) ;
#303=VERTEX_POINT('',#302) ;
#310=VERTEX_POINT('',#309) ;
#317=VERTEX_POINT('',#316) ;
#358=VERTEX_POINT('',#357) ;
#365=VERTEX_POINT('',#364) ;
#12=(LENGTH_UNIT()NAMED_UNIT(*)SI_UNIT(.MILLI.,.METRE.)) ;
#13=(NAMED_UNIT(*)PLANE_ANGLE_UNIT()SI_UNIT($,.RADIAN.)) ;
#14=(NAMED_UNIT(*)SI_UNIT($,.STERADIAN.)SOLID_ANGLE_UNIT()) ;
#16=(GEOMETRIC_REPRESENTATION_CONTEXT(3)GLOBAL_UNCERTAINTY_ASSIGNED_CONTEXT((#15))GLOBAL_UNIT_ASSIGNED_CONTEXT((#12,#13,#14))REPRESENTATION_CONTEXT(' ',' ')) ;
ENDSEC;
END-ISO-10303-21;
