ISO-10303-21;
HEADER;
FILE_DESCRIPTION(('CATIA V5 STEP Exchange','CAx-IF Rec.Pracs.--- Model Styling and Organization---1.5--- 2016-08-15','CAx-IF Rec.Pracs.---Supplemental Geometry---1.0---2011-11-01','CAx-IF Rec.Pracs.--- Composite Materials ---1.1---2010-07-15'),'2;1');

FILE_NAME ('706726-2_3_2652410000_2652410000.stp','2024-06-13T08:36:06+00:00',('none'),('Weidmueller'),'CATIA Version 5-6 Release 2022 SP4 HF5','CATIA V5 STEP AP214 v3','none');

FILE_SCHEMA(('AUTOMOTIVE_DESIGN { 1 0 10303 214 1 1 1 1 }'));

ENDSEC;
DATA;
#5=PRODUCT('CABTITE BP 13MM PA','CABTITE BP 13MM PA',' ',(#2)) ;
#2=PRODUCT_CONTEXT(' ',#1,'mechanical') ;
#1=APPLICATION_CONTEXT('automotive design') ;
#10=PRODUCT_DEFINITION(' ',' ',#6,#3) ;
#3=PRODUCT_DEFINITION_CONTEXT('part definition',#1,' ') ;
#11=PRODUCT_DEFINITION_SHAPE(' ',' ',#10) ;
#471=MECHANICAL_DESIGN_GEOMETRIC_PRESENTATION_REPRESENTATION(' ',(#87,#113,#184,#208,#225,#237,#244,#276,#289,#321,#334,#405,#437,#462,#468,#29),#16) ;
#19=SHAPE_REPRESENTATION(' ',(#18),#16) ;
#18=AXIS2_PLACEMENT_3D(' ',#17,$,$) ;
#35=AXIS2_PLACEMENT_3D('Cylinder Axis2P3D',#32,#33,#34) ;
#48=AXIS2_PLACEMENT_3D('Circle Axis2P3D',#46,#47,$) ;
#62=AXIS2_PLACEMENT_3D('Circle Axis2P3D',#60,#61,$) ;
#69=AXIS2_PLACEMENT_3D('Circle Axis2P3D',#67,#68,$) ;
#90=AXIS2_PLACEMENT_3D('Circle Axis2P3D',#88,#89,$) ;
#95=AXIS2_PLACEMENT_3D('Circle Axis2P3D',#93,#94,$) ;
#102=AXIS2_PLACEMENT_3D('Circle Axis2P3D',#100,#101,$) ;
#117=AXIS2_PLACEMENT_3D('Plane Axis2P3D',#114,#115,#116) ;
#188=AXIS2_PLACEMENT_3D('Sphere Axis2P3D',#185,#186,#187) ;
#192=AXIS2_PLACEMENT_3D('Circle Axis2P3D',#190,#191,$) ;
#199=AXIS2_PLACEMENT_3D('Circle Axis2P3D',#197,#198,$) ;
#212=AXIS2_PLACEMENT_3D('Sphere Axis2P3D',#209,#210,#211) ;
#216=AXIS2_PLACEMENT_3D('Circle Axis2P3D',#214,#215,$) ;
#228=AXIS2_PLACEMENT_3D('Circle Axis2P3D',#226,#227,$) ;
#248=AXIS2_PLACEMENT_3D('Cylinder Axis2P3D',#245,#246,#247) ;
#259=AXIS2_PLACEMENT_3D('Circle Axis2P3D',#257,#258,$) ;
#279=AXIS2_PLACEMENT_3D('Circle Axis2P3D',#277,#278,$) ;
#293=AXIS2_PLACEMENT_3D('Cone Axis2P3D',#290,#291,#292) ;
#311=AXIS2_PLACEMENT_3D('Circle Axis2P3D',#309,#310,$) ;
#324=AXIS2_PLACEMENT_3D('Circle Axis2P3D',#322,#323,$) ;
#338=AXIS2_PLACEMENT_3D('Plane Axis2P3D',#335,#336,#337) ;
#409=AXIS2_PLACEMENT_3D('Cylinder Axis2P3D',#406,#407,#408) ;
#413=AXIS2_PLACEMENT_3D('Circle Axis2P3D',#411,#412,$) ;
#17=CARTESIAN_POINT(' ',(0.,0.,0.)) ;
#32=CARTESIAN_POINT('Axis2P3D Location',(7.4,7.4,16.5)) ;
#37=CARTESIAN_POINT('Line Origine',(14.8,7.4,16.5)) ;
#41=CARTESIAN_POINT('Vertex',(14.8,7.4,17.)) ;
#43=CARTESIAN_POINT('Vertex',(14.8,7.4,16.5)) ;
#46=CARTESIAN_POINT('Axis2P3D Location',(7.4,7.4,16.5)) ;
#50=CARTESIAN_POINT('Vertex',(-1.7763568394E-15,7.4,16.5)) ;
#53=CARTESIAN_POINT('Line Origine',(-1.7763568394E-15,7.4,16.5)) ;
#57=CARTESIAN_POINT('Vertex',(-1.7763568394E-15,7.4,17.)) ;
#60=CARTESIAN_POINT('Axis2P3D Location',(7.4,7.4,17.)) ;
#64=CARTESIAN_POINT('Vertex',(7.4,14.8,17.)) ;
#67=CARTESIAN_POINT('Axis2P3D Location',(7.4,7.4,17.)) ;
#88=CARTESIAN_POINT('Axis2P3D Location',(7.4,7.4,16.5)) ;
#93=CARTESIAN_POINT('Axis2P3D Location',(7.4,7.4,17.)) ;
#97=CARTESIAN_POINT('Vertex',(7.4,0.,17.)) ;
#100=CARTESIAN_POINT('Axis2P3D Location',(7.4,7.4,17.)) ;
#114=CARTESIAN_POINT('Axis2P3D Location',(7.4,-8.881784197E-16,16.5)) ;
#124=CARTESIAN_POINT('Control Point',(13.9,7.40000000037,16.5)) ;
#125=CARTESIAN_POINT('Control Point',(13.9,6.77554038773,16.5)) ;
#126=CARTESIAN_POINT('Control Point',(13.8250096504,6.15108148752,16.5)) ;
#127=CARTESIAN_POINT('Control Point',(13.6749709247,5.53847107919,16.5)) ;
#128=CARTESIAN_POINT('Control Point',(13.2308313212,4.36159512447,16.5)) ;
#129=CARTESIAN_POINT('Control Point',(12.5206813311,3.32333847769,16.5)) ;
#130=CARTESIAN_POINT('Control Point',(12.1045273158,2.84939863686,16.5)) ;
#131=CARTESIAN_POINT('Control Point',(11.1668030251,2.01096548077,16.5)) ;
#132=CARTESIAN_POINT('Control Point',(10.057233575,1.41839016712,16.5)) ;
#133=CARTESIAN_POINT('Control Point',(9.46916505991,1.19040210783,16.5)) ;
#134=CARTESIAN_POINT('Control Point',(8.2501197226,0.880199808977,16.5)) ;
#135=CARTESIAN_POINT('Control Point',(6.99229339143,0.867441407105,16.5)) ;
#136=CARTESIAN_POINT('Control Point',(6.36542578296,0.937012592176,16.5)) ;
#137=CARTESIAN_POINT('Control Point',(5.14100297612,1.22525866437,16.5)) ;
#138=CARTESIAN_POINT('Control Point',(4.01964182327,1.79520517105,16.5)) ;
#139=CARTESIAN_POINT('Control Point',(3.49587314371,2.14658744303,16.5)) ;
#140=CARTESIAN_POINT('Control Point',(2.54323368506,2.96803440147,16.5)) ;
#141=CARTESIAN_POINT('Control Point',(1.81216945843,3.99167251114,16.5)) ;
#142=CARTESIAN_POINT('Control Point',(1.51006018609,4.54532681121,16.5)) ;
#143=CARTESIAN_POINT('Control Point',(1.15187945618,5.44513959152,16.5)) ;
#144=CARTESIAN_POINT('Control Point',(0.965565626559,6.390545446,16.5)) ;
#145=CARTESIAN_POINT('Control Point',(0.921854726266,6.72577592489,16.5)) ;
#146=CARTESIAN_POINT('Control Point',(0.9,7.06288788862,16.5)) ;
#147=CARTESIAN_POINT('Control Point',(0.9,7.40000000037,16.5)) ;
#148=CARTESIAN_POINT('Vertex',(13.9,7.4,16.5)) ;
#150=CARTESIAN_POINT('Vertex',(0.9,7.40000000037,16.5)) ;
#154=CARTESIAN_POINT('Control Point',(0.9,7.40000000037,16.5)) ;
#155=CARTESIAN_POINT('Control Point',(0.9,8.02445961249,16.5)) ;
#156=CARTESIAN_POINT('Control Point',(0.97499034952,8.64891851217,16.5)) ;
#157=CARTESIAN_POINT('Control Point',(1.12502907587,9.26152892247,16.5)) ;
#158=CARTESIAN_POINT('Control Point',(1.56916867831,10.438404875,16.5)) ;
#159=CARTESIAN_POINT('Control Point',(2.27931866679,11.47666152,16.5)) ;
#160=CARTESIAN_POINT('Control Point',(2.69547268718,11.9506013662,16.5)) ;
#161=CARTESIAN_POINT('Control Point',(3.63319697124,12.7890345162,16.5)) ;
#162=CARTESIAN_POINT('Control Point',(4.74276641239,13.3816098272,16.5)) ;
#163=CARTESIAN_POINT('Control Point',(5.33083494663,13.609597895,16.5)) ;
#164=CARTESIAN_POINT('Control Point',(6.54988027729,13.919800192,16.5)) ;
#165=CARTESIAN_POINT('Control Point',(7.80770660179,13.9325585949,16.5)) ;
#166=CARTESIAN_POINT('Control Point',(8.43457420851,13.8629874075,16.5)) ;
#167=CARTESIAN_POINT('Control Point',(9.65899701957,13.5747413357,16.5)) ;
#168=CARTESIAN_POINT('Control Point',(10.7803581764,13.0047948276,16.5)) ;
#169=CARTESIAN_POINT('Control Point',(11.3041268463,12.6534125656,16.5)) ;
#170=CARTESIAN_POINT('Control Point',(12.2567663097,11.8319656055,16.5)) ;
#171=CARTESIAN_POINT('Control Point',(12.9878305396,10.8083274926,16.5)) ;
#172=CARTESIAN_POINT('Control Point',(13.2899398107,10.2546731946,16.5)) ;
#173=CARTESIAN_POINT('Control Point',(13.6481205429,9.35486041066,16.5)) ;
#174=CARTESIAN_POINT('Control Point',(13.8344343733,8.40945455204,16.5)) ;
#175=CARTESIAN_POINT('Control Point',(13.8781452733,8.07422408249,16.5)) ;
#176=CARTESIAN_POINT('Control Point',(13.9,7.73711211545,16.5)) ;
#177=CARTESIAN_POINT('Control Point',(13.9,7.40000000037,16.5)) ;
#185=CARTESIAN_POINT('Axis2P3D Location',(7.4,7.4,-37.51)) ;
#190=CARTESIAN_POINT('Axis2P3D Location',(7.4,7.4,-37.51)) ;
#194=CARTESIAN_POINT('Vertex',(7.4,7.4,17.5)) ;
#197=CARTESIAN_POINT('Axis2P3D Location',(7.4,7.4,-37.51)) ;
#209=CARTESIAN_POINT('Axis2P3D Location',(7.4,7.4,-37.51)) ;
#214=CARTESIAN_POINT('Axis2P3D Location',(7.4,7.4,-37.51)) ;
#226=CARTESIAN_POINT('Axis2P3D Location',(7.4,7.4,-37.51)) ;
#245=CARTESIAN_POINT('Axis2P3D Location',(7.4,7.4,16.5)) ;
#250=CARTESIAN_POINT('Line Origine',(0.9,7.4,16.5)) ;
#254=CARTESIAN_POINT('Vertex',(0.9,7.4,2.)) ;
#257=CARTESIAN_POINT('Axis2P3D Location',(7.4,7.4,2.)) ;
#261=CARTESIAN_POINT('Vertex',(13.9,7.4,2.)) ;
#264=CARTESIAN_POINT('Line Origine',(13.9,7.4,16.5)) ;
#277=CARTESIAN_POINT('Axis2P3D Location',(7.4,7.4,2.)) ;
#290=CARTESIAN_POINT('Axis2P3D Location',(7.4,7.4,0.)) ;
#295=CARTESIAN_POINT('Line Origine',(980591.124583,7.39999999976,4902888.12868)) ;
#299=CARTESIAN_POINT('Vertex',(13.5,7.4,-3.48372237985E-15)) ;
#302=CARTESIAN_POINT('Line Origine',(-980576.324583,7.40000000012,4902888.12868)) ;
#306=CARTESIAN_POINT('Vertex',(1.30000000003,7.4,-1.70705880335E-10)) ;
#309=CARTESIAN_POINT('Axis2P3D Location',(7.4,7.4,-3.48372237985E-15)) ;
#322=CARTESIAN_POINT('Axis2P3D Location',(7.4,7.4,-3.48372237985E-15)) ;
#335=CARTESIAN_POINT('Axis2P3D Location',(7.4,0.9,0.)) ;
#345=CARTESIAN_POINT('Control Point',(2.9,7.4,0.)) ;
#346=CARTESIAN_POINT('Control Point',(2.9,7.81566936919,0.)) ;
#347=CARTESIAN_POINT('Control Point',(2.9479947307,8.23133807968,0.)) ;
#348=CARTESIAN_POINT('Control Point',(3.0440159566,8.6397092892,0.)) ;
#349=CARTESIAN_POINT('Control Point',(3.32855307796,9.42671557581,0.)) ;
#350=CARTESIAN_POINT('Control Point',(3.7849520305,10.1281682691,0.)) ;
#351=CARTESIAN_POINT('Control Point',(4.05289371945,10.4509597917,0.)) ;
#352=CARTESIAN_POINT('Control Point',(4.65832874421,11.0287042829,0.)) ;
#353=CARTESIAN_POINT('Control Point',(5.37949248976,11.4532731601,0.)) ;
#354=CARTESIAN_POINT('Control Point',(5.76320377595,11.6228395954,0.)) ;
#355=CARTESIAN_POINT('Control Point',(6.56265943965,11.870247963,0.)) ;
#356=CARTESIAN_POINT('Control Point',(7.39745816438,11.928958762,0.)) ;
#357=CARTESIAN_POINT('Control Point',(7.81652705574,11.909765107,0.)) ;
#358=CARTESIAN_POINT('Control Point',(8.64246640205,11.7749895188,0.)) ;
#359=CARTESIAN_POINT('Control Point',(9.41595652516,11.4555385838,0.)) ;
#360=CARTESIAN_POINT('Control Point',(9.78256133961,11.2516071426,0.)) ;
#361=CARTESIAN_POINT('Control Point',(10.4618973874,10.7628916797,0.)) ;
#362=CARTESIAN_POINT('Control Point',(11.011983385,10.1322243592,0.)) ;
#363=CARTESIAN_POINT('Control Point',(11.2492970358,9.7862917757,0.)) ;
#364=CARTESIAN_POINT('Control Point',(11.6009863553,9.11939911047,0.)) ;
#365=CARTESIAN_POINT('Control Point',(11.8074189329,8.39611267928,0.)) ;
#366=CARTESIAN_POINT('Control Point',(11.869142496,8.06659406481,0.)) ;
#367=CARTESIAN_POINT('Control Point',(11.9,7.73329718321,0.)) ;
#368=CARTESIAN_POINT('Control Point',(11.9,7.4,0.)) ;
#369=CARTESIAN_POINT('Vertex',(2.9,7.4,0.)) ;
#371=CARTESIAN_POINT('Vertex',(11.9,7.4,0.)) ;
#375=CARTESIAN_POINT('Control Point',(11.9,7.4,0.)) ;
#376=CARTESIAN_POINT('Control Point',(11.9,6.98433063074,0.)) ;
#377=CARTESIAN_POINT('Control Point',(11.8520052693,6.56866192016,0.)) ;
#378=CARTESIAN_POINT('Control Point',(11.7559840434,6.16029071097,0.)) ;
#379=CARTESIAN_POINT('Control Point',(11.4714469221,5.37328442417,0.)) ;
#380=CARTESIAN_POINT('Control Point',(11.0150479694,4.67183173072,0.)) ;
#381=CARTESIAN_POINT('Control Point',(10.7471062806,4.34904020841,0.)) ;
#382=CARTESIAN_POINT('Control Point',(10.1416712559,3.77129571713,0.)) ;
#383=CARTESIAN_POINT('Control Point',(9.42050751024,3.34672683989,0.)) ;
#384=CARTESIAN_POINT('Control Point',(9.03679622404,3.17716040469,0.)) ;
#385=CARTESIAN_POINT('Control Point',(8.23734056038,2.92975203698,0.)) ;
#386=CARTESIAN_POINT('Control Point',(7.40254183563,2.87104123797,0.)) ;
#387=CARTESIAN_POINT('Control Point',(6.98347294424,2.89023489297,0.)) ;
#388=CARTESIAN_POINT('Control Point',(6.15753359788,3.02501048124,0.)) ;
#389=CARTESIAN_POINT('Control Point',(5.38404347471,3.34446141624,0.)) ;
#390=CARTESIAN_POINT('Control Point',(5.01743866049,3.54839285733,0.)) ;
#391=CARTESIAN_POINT('Control Point',(4.33810261265,4.03710832025,0.)) ;
#392=CARTESIAN_POINT('Control Point',(3.78801661495,4.66777564079,0.)) ;
#393=CARTESIAN_POINT('Control Point',(3.55070296414,5.01370822429,0.)) ;
#394=CARTESIAN_POINT('Control Point',(3.19901364471,5.68060088947,0.)) ;
#395=CARTESIAN_POINT('Control Point',(2.99258106708,6.40388732061,0.)) ;
#396=CARTESIAN_POINT('Control Point',(2.93085750398,6.73340593531,0.)) ;
#397=CARTESIAN_POINT('Control Point',(2.9,7.06670281685,0.)) ;
#398=CARTESIAN_POINT('Control Point',(2.9,7.4,0.)) ;
#406=CARTESIAN_POINT('Axis2P3D Location',(7.4,7.4,163.35)) ;
#411=CARTESIAN_POINT('Axis2P3D Location',(7.4,7.4,16.5000000004)) ;
#415=CARTESIAN_POINT('Vertex',(11.9,7.40000000037,16.5000000004)) ;
#417=CARTESIAN_POINT('Vertex',(2.9,7.4,16.5000000004)) ;
#420=CARTESIAN_POINT('Line Origine',(2.9,7.4,163.35)) ;
#425=CARTESIAN_POINT('Line Origine',(11.9,7.4,163.35)) ;
#439=CARTESIAN_POINT('Control Point',(11.9,7.4,16.5000000004)) ;
#440=CARTESIAN_POINT('Control Point',(11.9,6.69314165294,16.5000000004)) ;
#441=CARTESIAN_POINT('Control Point',(11.7612086881,5.98628330588,16.5000000004)) ;
#442=CARTESIAN_POINT('Control Point',(11.4834888986,5.31580842355,16.5000000004)) ;
#443=CARTESIAN_POINT('Control Point',(10.6801207931,4.11987920685,16.5000000005)) ;
#444=CARTESIAN_POINT('Control Point',(9.48419157645,3.31651110138,16.5000000005)) ;
#445=CARTESIAN_POINT('Control Point',(8.81371669412,3.03879131189,16.5000000005)) ;
#446=CARTESIAN_POINT('Control Point',(7.4,2.76120868811,16.5000000006)) ;
#447=CARTESIAN_POINT('Control Point',(5.98628330588,3.03879131189,16.5000000006)) ;
#448=CARTESIAN_POINT('Control Point',(5.31580842355,3.31651110138,16.5000000007)) ;
#449=CARTESIAN_POINT('Control Point',(4.11987920685,4.11987920685,16.5000000007)) ;
#450=CARTESIAN_POINT('Control Point',(3.31651110138,5.31580842355,16.5000000007)) ;
#451=CARTESIAN_POINT('Control Point',(3.03879131189,5.98628330588,16.5000000008)) ;
#452=CARTESIAN_POINT('Control Point',(2.9,6.69314165294,16.5000000008)) ;
#453=CARTESIAN_POINT('Control Point',(2.9,7.4,16.5000000008)) ;
#33=DIRECTION('Axis2P3D Direction',(0.,0.,-1.)) ;
#34=DIRECTION('Axis2P3D XDirection',(-1.,0.,0.)) ;
#38=DIRECTION('Vector Direction',(0.,0.,-1.)) ;
#47=DIRECTION('Axis2P3D Direction',(0.,0.,-1.)) ;
#54=DIRECTION('Vector Direction',(0.,0.,-1.)) ;
#61=DIRECTION('Axis2P3D Direction',(0.,0.,-1.)) ;
#68=DIRECTION('Axis2P3D Direction',(0.,0.,-1.)) ;
#89=DIRECTION('Axis2P3D Direction',(0.,0.,-1.)) ;
#94=DIRECTION('Axis2P3D Direction',(0.,0.,-1.)) ;
#101=DIRECTION('Axis2P3D Direction',(0.,0.,-1.)) ;
#115=DIRECTION('Axis2P3D Direction',(0.,0.,1.)) ;
#116=DIRECTION('Axis2P3D XDirection',(1.,0.,0.)) ;
#186=DIRECTION('Axis2P3D Direction',(0.,-0.,1.)) ;
#187=DIRECTION('Axis2P3D XDirection',(1.13020340627E-16,1.,0.)) ;
#191=DIRECTION('Axis2P3D Direction',(1.,-1.13020340627E-16,0.)) ;
#198=DIRECTION('Axis2P3D Direction',(1.74252680584E-16,1.,-0.)) ;
#210=DIRECTION('Axis2P3D Direction',(0.,0.,1.)) ;
#211=DIRECTION('Axis2P3D XDirection',(-2.42186444201E-16,-1.,0.)) ;
#215=DIRECTION('Axis2P3D Direction',(-3.03418784158E-16,-1.,0.)) ;
#227=DIRECTION('Axis2P3D Direction',(-1.,2.42186444201E-16,0.)) ;
#246=DIRECTION('Axis2P3D Direction',(0.,0.,-1.)) ;
#247=DIRECTION('Axis2P3D XDirection',(1.,0.,0.)) ;
#251=DIRECTION('Vector Direction',(0.,0.,-1.)) ;
#258=DIRECTION('Axis2P3D Direction',(0.,0.,-1.)) ;
#265=DIRECTION('Vector Direction',(0.,0.,-1.)) ;
#278=DIRECTION('Axis2P3D Direction',(0.,0.,-1.)) ;
#291=DIRECTION('Axis2P3D Direction',(0.,0.,1.)) ;
#292=DIRECTION('Axis2P3D XDirection',(1.,0.,0.)) ;
#296=DIRECTION('Vector Direction',(0.196116134917,-4.80346711585E-17,0.980580675735)) ;
#303=DIRECTION('Vector Direction',(-0.196116134917,2.40173355792E-17,0.980580675735)) ;
#310=DIRECTION('Axis2P3D Direction',(0.,0.,1.)) ;
#323=DIRECTION('Axis2P3D Direction',(0.,0.,1.)) ;
#336=DIRECTION('Axis2P3D Direction',(0.,0.,1.)) ;
#337=DIRECTION('Axis2P3D XDirection',(1.,0.,0.)) ;
#407=DIRECTION('Axis2P3D Direction',(0.,0.,-1.)) ;
#408=DIRECTION('Axis2P3D XDirection',(-1.,0.,0.)) ;
#412=DIRECTION('Axis2P3D Direction',(0.,0.,-1.)) ;
#421=DIRECTION('Vector Direction',(0.,0.,-1.)) ;
#426=DIRECTION('Vector Direction',(0.,0.,-1.)) ;
#30=PRESENTATION_LAYER_ASSIGNMENT('1',' ',(#21)) ;
#8=PRODUCT_RELATED_PRODUCT_CATEGORY('part',$,(#5)) ;
#7=PRODUCT_CATEGORY('part','specification') ;
#29=STYLED_ITEM(' ',(#28),#21) ;
#28=PRESENTATION_STYLE_ASSIGNMENT((#27)) ;
#86=PRESENTATION_STYLE_ASSIGNMENT((#85)) ;
#27=SURFACE_STYLE_USAGE(.BOTH.,#26) ;
#85=SURFACE_STYLE_USAGE(.BOTH.,#84) ;
#26=SURFACE_SIDE_STYLE(' ',(#25)) ;
#84=SURFACE_SIDE_STYLE(' ',(#83)) ;
#25=SURFACE_STYLE_FILL_AREA(#24) ;
#83=SURFACE_STYLE_FILL_AREA(#82) ;
#24=FILL_AREA_STYLE(' ',(#23)) ;
#82=FILL_AREA_STYLE(' ',(#81)) ;
#23=FILL_AREA_STYLE_COLOUR(' ',#22) ;
#81=FILL_AREA_STYLE_COLOUR(' ',#80) ;
#39=VECTOR('Line Direction',#38,1.) ;
#55=VECTOR('Line Direction',#54,1.) ;
#252=VECTOR('Line Direction',#251,1.) ;
#266=VECTOR('Line Direction',#265,1.) ;
#297=VECTOR('Line Direction',#296,1.) ;
#304=VECTOR('Line Direction',#303,1.) ;
#422=VECTOR('Line Direction',#421,1.) ;
#427=VECTOR('Line Direction',#426,1.) ;
#15=UNCERTAINTY_MEASURE_WITH_UNIT(LENGTH_MEASURE(0.005),#12,'distance_accuracy_value','CONFUSED CURVE UNCERTAINTY') ;
#470=SHAPE_REPRESENTATION_RELATIONSHIP(' ',' ',#19,#469) ;
#73=ORIENTED_EDGE('',*,*,#45,.T.) ;
#74=ORIENTED_EDGE('',*,*,#52,.F.) ;
#75=ORIENTED_EDGE('',*,*,#59,.T.) ;
#76=ORIENTED_EDGE('',*,*,#66,.T.) ;
#77=ORIENTED_EDGE('',*,*,#71,.T.) ;
#106=ORIENTED_EDGE('',*,*,#59,.F.) ;
#107=ORIENTED_EDGE('',*,*,#92,.F.) ;
#108=ORIENTED_EDGE('',*,*,#45,.F.) ;
#109=ORIENTED_EDGE('',*,*,#99,.F.) ;
#110=ORIENTED_EDGE('',*,*,#104,.F.) ;
#120=ORIENTED_EDGE('',*,*,#52,.T.) ;
#121=ORIENTED_EDGE('',*,*,#92,.T.) ;
#180=ORIENTED_EDGE('',*,*,#152,.F.) ;
#181=ORIENTED_EDGE('',*,*,#178,.F.) ;
#203=ORIENTED_EDGE('',*,*,#196,.T.) ;
#204=ORIENTED_EDGE('',*,*,#66,.F.) ;
#205=ORIENTED_EDGE('',*,*,#201,.F.) ;
#220=ORIENTED_EDGE('',*,*,#196,.F.) ;
#221=ORIENTED_EDGE('',*,*,#218,.T.) ;
#222=ORIENTED_EDGE('',*,*,#71,.F.) ;
#232=ORIENTED_EDGE('',*,*,#230,.T.) ;
#233=ORIENTED_EDGE('',*,*,#99,.T.) ;
#234=ORIENTED_EDGE('',*,*,#218,.F.) ;
#239=ORIENTED_EDGE('',*,*,#230,.F.) ;
#240=ORIENTED_EDGE('',*,*,#201,.T.) ;
#241=ORIENTED_EDGE('',*,*,#104,.T.) ;
#270=ORIENTED_EDGE('',*,*,#256,.F.) ;
#271=ORIENTED_EDGE('',*,*,#263,.T.) ;
#272=ORIENTED_EDGE('',*,*,#268,.F.) ;
#273=ORIENTED_EDGE('',*,*,#152,.T.) ;
#283=ORIENTED_EDGE('',*,*,#268,.T.) ;
#284=ORIENTED_EDGE('',*,*,#281,.T.) ;
#285=ORIENTED_EDGE('',*,*,#256,.T.) ;
#286=ORIENTED_EDGE('',*,*,#178,.T.) ;
#315=ORIENTED_EDGE('',*,*,#301,.F.) ;
#316=ORIENTED_EDGE('',*,*,#263,.F.) ;
#317=ORIENTED_EDGE('',*,*,#308,.F.) ;
#318=ORIENTED_EDGE('',*,*,#313,.F.) ;
#328=ORIENTED_EDGE('',*,*,#308,.T.) ;
#329=ORIENTED_EDGE('',*,*,#281,.F.) ;
#330=ORIENTED_EDGE('',*,*,#301,.T.) ;
#331=ORIENTED_EDGE('',*,*,#326,.F.) ;
#341=ORIENTED_EDGE('',*,*,#313,.T.) ;
#342=ORIENTED_EDGE('',*,*,#326,.T.) ;
#401=ORIENTED_EDGE('',*,*,#373,.F.) ;
#402=ORIENTED_EDGE('',*,*,#399,.F.) ;
#431=ORIENTED_EDGE('',*,*,#419,.T.) ;
#432=ORIENTED_EDGE('',*,*,#424,.F.) ;
#433=ORIENTED_EDGE('',*,*,#373,.T.) ;
#434=ORIENTED_EDGE('',*,*,#429,.F.) ;
#456=ORIENTED_EDGE('',*,*,#454,.T.) ;
#457=ORIENTED_EDGE('',*,*,#429,.T.) ;
#458=ORIENTED_EDGE('',*,*,#399,.T.) ;
#459=ORIENTED_EDGE('',*,*,#424,.T.) ;
#464=ORIENTED_EDGE('',*,*,#454,.F.) ;
#465=ORIENTED_EDGE('',*,*,#419,.F.) ;
#182=FACE_BOUND('',#179,.T.) ;
#403=FACE_BOUND('',#400,.T.) ;
#31=CLOSED_SHELL('Closed Shell',(#79,#112,#183,#207,#224,#236,#243,#275,#288,#320,#333,#404,#436,#461,#467)) ;
#469=ADVANCED_BREP_SHAPE_REPRESENTATION('NONE',(#21),#16) ;
#79=ADVANCED_FACE('CABTITE BP 13MM PA',(#78),#36,.T.) ;
#112=ADVANCED_FACE('CABTITE BP 13MM PA',(#111),#36,.T.) ;
#183=ADVANCED_FACE('CABTITE BP 13MM PA',(#122,#182),#118,.F.) ;
#207=ADVANCED_FACE('CABTITE BP 13MM PA',(#206),#189,.T.) ;
#224=ADVANCED_FACE('CABTITE BP 13MM PA',(#223),#213,.T.) ;
#236=ADVANCED_FACE('CABTITE BP 13MM PA',(#235),#213,.T.) ;
#243=ADVANCED_FACE('CABTITE BP 13MM PA',(#242),#213,.T.) ;
#275=ADVANCED_FACE('CABTITE BP 13MM PA',(#274),#249,.T.) ;
#288=ADVANCED_FACE('CABTITE BP 13MM PA',(#287),#249,.T.) ;
#320=ADVANCED_FACE('CABTITE BP 13MM PA',(#319),#294,.T.) ;
#333=ADVANCED_FACE('CABTITE BP 13MM PA',(#332),#294,.T.) ;
#404=ADVANCED_FACE('CABTITE BP 13MM PA',(#343,#403),#339,.F.) ;
#436=ADVANCED_FACE('CABTITE BP 13MM PA',(#435),#410,.F.) ;
#461=ADVANCED_FACE('CABTITE BP 13MM PA',(#460),#410,.F.) ;
#467=ADVANCED_FACE('CABTITE BP 13MM PA',(#466),#118,.F.) ;
#4=APPLICATION_PROTOCOL_DEFINITION('international standard','automotive_design',2001,#1) ;
#123=B_SPLINE_CURVE_WITH_KNOTS('',5,(#124,#125,#126,#127,#128,#129,#130,#131,#132,#133,#134,#135,#136,#137,#138,#139,#140,#141,#142,#143,#144,#145,#146,#147),.UNSPECIFIED.,.F.,.U.,(6,3,3,3,3,3,3,6),(0.,4.42570057628,8.8514011404,13.2771017118,17.7028022579,22.1285028374,26.5542034688,28.9434008437),.UNSPECIFIED.) ;
#153=B_SPLINE_CURVE_WITH_KNOTS('',5,(#154,#155,#156,#157,#158,#159,#160,#161,#162,#163,#164,#165,#166,#167,#168,#169,#170,#171,#172,#173,#174,#175,#176,#177),.UNSPECIFIED.,.F.,.U.,(6,3,3,3,3,3,3,6),(0.,4.4257005735,8.85140112546,13.2771016481,17.7028021978,22.1285028042,26.5542034425,28.9434008414),.UNSPECIFIED.) ;
#344=B_SPLINE_CURVE_WITH_KNOTS('',5,(#345,#346,#347,#348,#349,#350,#351,#352,#353,#354,#355,#356,#357,#358,#359,#360,#361,#362,#363,#364,#365,#366,#367,#368),.UNSPECIFIED.,.F.,.U.,(6,3,3,3,3,3,3,6),(0.,2.94554670305,5.89109341549,8.83664010261,11.7821867771,14.7277334767,17.6732801718,20.0351150625),.UNSPECIFIED.) ;
#374=B_SPLINE_CURVE_WITH_KNOTS('',5,(#375,#376,#377,#378,#379,#380,#381,#382,#383,#384,#385,#386,#387,#388,#389,#390,#391,#392,#393,#394,#395,#396,#397,#398),.UNSPECIFIED.,.F.,.U.,(6,3,3,3,3,3,3,6),(0.,2.94554670353,5.89109341647,8.83664010358,11.782186778,14.7277334779,17.673280173,20.0351150632),.UNSPECIFIED.) ;
#438=B_SPLINE_CURVE_WITH_KNOTS('',5,(#439,#440,#441,#442,#443,#444,#445,#446,#447,#448,#449,#450,#451,#452,#453),.UNSPECIFIED.,.F.,.U.,(6,3,3,3,6),(-7.06858347058,-3.53429173529,0.,3.53429173529,7.06858347058),.UNSPECIFIED.) ;
#21=MANIFOLD_SOLID_BREP('CABTITE BP 13MM PA',#31) ;
#49=CIRCLE('generated circle',#48,7.4) ;
#63=CIRCLE('generated circle',#62,7.4) ;
#70=CIRCLE('generated circle',#69,7.4) ;
#91=CIRCLE('generated circle',#90,7.4) ;
#96=CIRCLE('generated circle',#95,7.4) ;
#103=CIRCLE('generated circle',#102,7.4) ;
#193=CIRCLE('generated circle',#192,55.01) ;
#200=CIRCLE('generated circle',#199,55.01) ;
#217=CIRCLE('generated circle',#216,55.01) ;
#229=CIRCLE('generated circle',#228,55.01) ;
#260=CIRCLE('generated circle',#259,6.5) ;
#280=CIRCLE('generated circle',#279,6.5) ;
#312=CIRCLE('generated circle',#311,6.1) ;
#325=CIRCLE('generated circle',#324,6.1) ;
#414=CIRCLE('generated circle',#413,4.5) ;
#22=COLOUR_RGB('Colour',0.823529411765,0.823529411765,1.) ;
#80=COLOUR_RGB('Colour',0.964705882353,0.937254901961,0.894117647059) ;
#294=CONICAL_SURFACE('Cone',#293,6.1,0.197395559624) ;
#87=OVER_RIDING_STYLED_ITEM(' ',(#86),#79,#29) ;
#113=OVER_RIDING_STYLED_ITEM(' ',(#86),#112,#29) ;
#184=OVER_RIDING_STYLED_ITEM(' ',(#86),#183,#29) ;
#208=OVER_RIDING_STYLED_ITEM(' ',(#86),#207,#29) ;
#225=OVER_RIDING_STYLED_ITEM(' ',(#86),#224,#29) ;
#237=OVER_RIDING_STYLED_ITEM(' ',(#86),#236,#29) ;
#244=OVER_RIDING_STYLED_ITEM(' ',(#86),#243,#29) ;
#276=OVER_RIDING_STYLED_ITEM(' ',(#86),#275,#29) ;
#289=OVER_RIDING_STYLED_ITEM(' ',(#86),#288,#29) ;
#321=OVER_RIDING_STYLED_ITEM(' ',(#86),#320,#29) ;
#334=OVER_RIDING_STYLED_ITEM(' ',(#86),#333,#29) ;
#405=OVER_RIDING_STYLED_ITEM(' ',(#86),#404,#29) ;
#437=OVER_RIDING_STYLED_ITEM(' ',(#86),#436,#29) ;
#462=OVER_RIDING_STYLED_ITEM(' ',(#86),#461,#29) ;
#468=OVER_RIDING_STYLED_ITEM(' ',(#86),#467,#29) ;
#36=CYLINDRICAL_SURFACE('generated cylinder',#35,7.4) ;
#249=CYLINDRICAL_SURFACE('generated cylinder',#248,6.5) ;
#410=CYLINDRICAL_SURFACE('generated cylinder',#409,4.5) ;
#45=EDGE_CURVE('',#42,#44,#40,.T.) ;
#52=EDGE_CURVE('',#51,#44,#49,.T.) ;
#59=EDGE_CURVE('',#51,#58,#56,.F.) ;
#66=EDGE_CURVE('',#58,#65,#63,.T.) ;
#71=EDGE_CURVE('',#65,#42,#70,.T.) ;
#92=EDGE_CURVE('',#44,#51,#91,.T.) ;
#99=EDGE_CURVE('',#98,#42,#96,.F.) ;
#104=EDGE_CURVE('',#58,#98,#103,.F.) ;
#152=EDGE_CURVE('',#149,#151,#123,.T.) ;
#178=EDGE_CURVE('',#151,#149,#153,.T.) ;
#196=EDGE_CURVE('',#195,#65,#193,.F.) ;
#201=EDGE_CURVE('',#195,#58,#200,.F.) ;
#218=EDGE_CURVE('',#195,#42,#217,.F.) ;
#230=EDGE_CURVE('',#195,#98,#229,.F.) ;
#256=EDGE_CURVE('',#255,#151,#253,.F.) ;
#263=EDGE_CURVE('',#255,#262,#260,.F.) ;
#268=EDGE_CURVE('',#149,#262,#267,.T.) ;
#281=EDGE_CURVE('',#262,#255,#280,.F.) ;
#301=EDGE_CURVE('',#262,#300,#298,.F.) ;
#308=EDGE_CURVE('',#307,#255,#305,.T.) ;
#313=EDGE_CURVE('',#300,#307,#312,.F.) ;
#326=EDGE_CURVE('',#307,#300,#325,.F.) ;
#373=EDGE_CURVE('',#370,#372,#344,.T.) ;
#399=EDGE_CURVE('',#372,#370,#374,.T.) ;
#419=EDGE_CURVE('',#416,#418,#414,.F.) ;
#424=EDGE_CURVE('',#370,#418,#423,.F.) ;
#429=EDGE_CURVE('',#416,#372,#428,.T.) ;
#454=EDGE_CURVE('',#418,#416,#438,.F.) ;
#72=EDGE_LOOP('',(#73,#74,#75,#76,#77)) ;
#105=EDGE_LOOP('',(#106,#107,#108,#109,#110)) ;
#119=EDGE_LOOP('',(#120,#121)) ;
#179=EDGE_LOOP('',(#180,#181)) ;
#202=EDGE_LOOP('',(#203,#204,#205)) ;
#219=EDGE_LOOP('',(#220,#221,#222)) ;
#231=EDGE_LOOP('',(#232,#233,#234)) ;
#238=EDGE_LOOP('',(#239,#240,#241)) ;
#269=EDGE_LOOP('',(#270,#271,#272,#273)) ;
#282=EDGE_LOOP('',(#283,#284,#285,#286)) ;
#314=EDGE_LOOP('',(#315,#316,#317,#318)) ;
#327=EDGE_LOOP('',(#328,#329,#330,#331)) ;
#340=EDGE_LOOP('',(#341,#342)) ;
#400=EDGE_LOOP('',(#401,#402)) ;
#430=EDGE_LOOP('',(#431,#432,#433,#434)) ;
#455=EDGE_LOOP('',(#456,#457,#458,#459)) ;
#463=EDGE_LOOP('',(#464,#465)) ;
#78=FACE_OUTER_BOUND('',#72,.T.) ;
#111=FACE_OUTER_BOUND('',#105,.T.) ;
#122=FACE_OUTER_BOUND('',#119,.T.) ;
#206=FACE_OUTER_BOUND('',#202,.T.) ;
#223=FACE_OUTER_BOUND('',#219,.T.) ;
#235=FACE_OUTER_BOUND('',#231,.T.) ;
#242=FACE_OUTER_BOUND('',#238,.T.) ;
#274=FACE_OUTER_BOUND('',#269,.T.) ;
#287=FACE_OUTER_BOUND('',#282,.T.) ;
#319=FACE_OUTER_BOUND('',#314,.T.) ;
#332=FACE_OUTER_BOUND('',#327,.T.) ;
#343=FACE_OUTER_BOUND('',#340,.T.) ;
#435=FACE_OUTER_BOUND('',#430,.T.) ;
#460=FACE_OUTER_BOUND('',#455,.T.) ;
#466=FACE_OUTER_BOUND('',#463,.T.) ;
#40=LINE('Line',#37,#39) ;
#56=LINE('Line',#53,#55) ;
#253=LINE('Line',#250,#252) ;
#267=LINE('Line',#264,#266) ;
#298=LINE('Line',#295,#297) ;
#305=LINE('Line',#302,#304) ;
#423=LINE('Line',#420,#422) ;
#428=LINE('Line',#425,#427) ;
#118=PLANE('',#117) ;
#339=PLANE('',#338) ;
#9=PRODUCT_CATEGORY_RELATIONSHIP(' ',' ',#7,#8) ;
#6=PRODUCT_DEFINITION_FORMATION_WITH_SPECIFIED_SOURCE(' ',' ',#5,.NOT_KNOWN.) ;
#20=SHAPE_DEFINITION_REPRESENTATION(#11,#19) ;
#189=SPHERICAL_SURFACE('',#188,55.01) ;
#213=SPHERICAL_SURFACE('',#212,55.01) ;
#42=VERTEX_POINT('',#41) ;
#44=VERTEX_POINT('',#43) ;
#51=VERTEX_POINT('',#50) ;
#58=VERTEX_POINT('',#57) ;
#65=VERTEX_POINT('',#64) ;
#98=VERTEX_POINT('',#97) ;
#149=VERTEX_POINT('',#148) ;
#151=VERTEX_POINT('',#150) ;
#195=VERTEX_POINT('',#194) ;
#255=VERTEX_POINT('',#254) ;
#262=VERTEX_POINT('',#261) ;
#300=VERTEX_POINT('',#299) ;
#307=VERTEX_POINT('',#306) ;
#370=VERTEX_POINT('',#369) ;
#372=VERTEX_POINT('',#371) ;
#416=VERTEX_POINT('',#415) ;
#418=VERTEX_POINT('',#417) ;
#12=(LENGTH_UNIT()NAMED_UNIT(*)SI_UNIT(.MILLI.,.METRE.)) ;
#13=(NAMED_UNIT(*)PLANE_ANGLE_UNIT()SI_UNIT($,.RADIAN.)) ;
#14=(NAMED_UNIT(*)SI_UNIT($,.STERADIAN.)SOLID_ANGLE_UNIT()) ;
#16=(GEOMETRIC_REPRESENTATION_CONTEXT(3)GLOBAL_UNCERTAINTY_ASSIGNED_CONTEXT((#15))GLOBAL_UNIT_ASSIGNED_CONTEXT((#12,#13,#14))REPRESENTATION_CONTEXT(' ',' ')) ;
ENDSEC;
END-ISO-10303-21;
