ISO-10303-21;
HEADER;
FILE_DESCRIPTION(('CATIA V5 STEP Exchange','CAx-IF Rec.Pracs.--- Model Styling and Organization---1.4--- 2014-01-23'),'2;1');

FILE_NAME ('035826-2_0_1027840000_1027840000.stp','2021-04-28T10:40:10+00:00',('none'),('Weidmueller'),'CATIA Version 5-6 Release 2016 SP3 HF44','CATIA V5 STEP AP214','none');

FILE_SCHEMA(('AUTOMOTIVE_DESIGN { 1 0 10303 214 1 1 1 1 }'));

ENDSEC;
DATA;
#5=PRODUCT('1027840000','','QUERVERBINDUNGSLASCHE',(#2)) ;
#2=PRODUCT_CONTEXT(' ',#1,'mechanical') ;
#1=APPLICATION_CONTEXT('automotive design') ;
#10=PRODUCT_DEFINITION('',' ',#6,#3) ;
#3=PRODUCT_DEFINITION_CONTEXT('part definition',#1,' ') ;
#11=PRODUCT_DEFINITION_SHAPE(' ',' ',#10) ;
#453=MECHANICAL_DESIGN_GEOMETRIC_PRESENTATION_REPRESENTATION(' ',(#29),#16) ;
#454=MECHANICAL_DESIGN_GEOMETRIC_PRESENTATION_REPRESENTATION(' ',(#450),#16) ;
#19=SHAPE_REPRESENTATION(' ',(#18),#16) ;
#18=AXIS2_PLACEMENT_3D(' ',#17,$,$) ;
#35=AXIS2_PLACEMENT_3D('Plane Axis2P3D',#32,#33,#34) ;
#75=AXIS2_PLACEMENT_3D('Plane Axis2P3D',#72,#73,#74) ;
#106=AXIS2_PLACEMENT_3D('Plane Axis2P3D',#103,#104,#105) ;
#137=AXIS2_PLACEMENT_3D('Plane Axis2P3D',#134,#135,#136) ;
#159=AXIS2_PLACEMENT_3D('Cylinder Axis2P3D',#156,#157,#158) ;
#172=AXIS2_PLACEMENT_3D('Circle Axis2P3D',#170,#171,$) ;
#186=AXIS2_PLACEMENT_3D('Circle Axis2P3D',#184,#185,$) ;
#198=AXIS2_PLACEMENT_3D('Circle Axis2P3D',#196,#197,$) ;
#203=AXIS2_PLACEMENT_3D('Circle Axis2P3D',#201,#202,$) ;
#216=AXIS2_PLACEMENT_3D('Cylinder Axis2P3D',#213,#214,#215) ;
#229=AXIS2_PLACEMENT_3D('Circle Axis2P3D',#227,#228,$) ;
#243=AXIS2_PLACEMENT_3D('Circle Axis2P3D',#241,#242,$) ;
#255=AXIS2_PLACEMENT_3D('Circle Axis2P3D',#253,#254,$) ;
#260=AXIS2_PLACEMENT_3D('Circle Axis2P3D',#258,#259,$) ;
#273=AXIS2_PLACEMENT_3D('Cylinder Axis2P3D',#270,#271,#272) ;
#286=AXIS2_PLACEMENT_3D('Circle Axis2P3D',#284,#285,$) ;
#300=AXIS2_PLACEMENT_3D('Circle Axis2P3D',#298,#299,$) ;
#312=AXIS2_PLACEMENT_3D('Circle Axis2P3D',#310,#311,$) ;
#317=AXIS2_PLACEMENT_3D('Circle Axis2P3D',#315,#316,$) ;
#330=AXIS2_PLACEMENT_3D('Cylinder Axis2P3D',#327,#328,#329) ;
#343=AXIS2_PLACEMENT_3D('Circle Axis2P3D',#341,#342,$) ;
#357=AXIS2_PLACEMENT_3D('Circle Axis2P3D',#355,#356,$) ;
#369=AXIS2_PLACEMENT_3D('Circle Axis2P3D',#367,#368,$) ;
#374=AXIS2_PLACEMENT_3D('Circle Axis2P3D',#372,#373,$) ;
#387=AXIS2_PLACEMENT_3D('Plane Axis2P3D',#384,#385,#386) ;
#415=AXIS2_PLACEMENT_3D('Plane Axis2P3D',#412,#413,#414) ;
#445=AXIS2_PLACEMENT_3D('Achsensystem.1',#442,#443,#444) ;
#17=CARTESIAN_POINT(' ',(0.,0.,0.)) ;
#32=CARTESIAN_POINT('Axis2P3D Location',(129.4,25.,4.)) ;
#37=CARTESIAN_POINT('Line Origine',(64.7,25.,0.)) ;
#41=CARTESIAN_POINT('Vertex',(129.4,25.,0.)) ;
#43=CARTESIAN_POINT('Vertex',(0.,25.,0.)) ;
#46=CARTESIAN_POINT('Line Origine',(0.,25.,2.)) ;
#50=CARTESIAN_POINT('Vertex',(0.,25.,4.)) ;
#53=CARTESIAN_POINT('Line Origine',(64.7,25.,4.)) ;
#57=CARTESIAN_POINT('Vertex',(129.4,25.,4.)) ;
#60=CARTESIAN_POINT('Line Origine',(129.4,25.,2.)) ;
#72=CARTESIAN_POINT('Axis2P3D Location',(0.,25.,4.)) ;
#77=CARTESIAN_POINT('Line Origine',(0.,12.5,0.)) ;
#81=CARTESIAN_POINT('Vertex',(0.,0.,0.)) ;
#84=CARTESIAN_POINT('Line Origine',(0.,0.,2.)) ;
#88=CARTESIAN_POINT('Vertex',(0.,0.,4.)) ;
#91=CARTESIAN_POINT('Line Origine',(0.,12.5,4.)) ;
#103=CARTESIAN_POINT('Axis2P3D Location',(129.4,0.,4.)) ;
#108=CARTESIAN_POINT('Line Origine',(64.7,0.,0.)) ;
#112=CARTESIAN_POINT('Vertex',(129.4,0.,0.)) ;
#115=CARTESIAN_POINT('Line Origine',(129.4,0.,2.)) ;
#119=CARTESIAN_POINT('Vertex',(129.4,0.,4.)) ;
#122=CARTESIAN_POINT('Line Origine',(64.7,0.,4.)) ;
#134=CARTESIAN_POINT('Axis2P3D Location',(129.4,25.,4.)) ;
#139=CARTESIAN_POINT('Line Origine',(129.4,12.5,0.)) ;
#144=CARTESIAN_POINT('Line Origine',(129.4,12.5,4.)) ;
#156=CARTESIAN_POINT('Axis2P3D Location',(14.,12.5,2.)) ;
#161=CARTESIAN_POINT('Line Origine',(14.,17.8,6.)) ;
#165=CARTESIAN_POINT('Vertex',(14.,17.8,4.)) ;
#167=CARTESIAN_POINT('Vertex',(14.,17.8,0.)) ;
#170=CARTESIAN_POINT('Axis2P3D Location',(14.,12.5,4.)) ;
#174=CARTESIAN_POINT('Vertex',(14.,7.2,4.)) ;
#177=CARTESIAN_POINT('Line Origine',(14.,7.2,6.)) ;
#181=CARTESIAN_POINT('Vertex',(14.,7.2,0.)) ;
#184=CARTESIAN_POINT('Axis2P3D Location',(14.,12.5,0.)) ;
#196=CARTESIAN_POINT('Axis2P3D Location',(14.,12.5,4.)) ;
#201=CARTESIAN_POINT('Axis2P3D Location',(14.,12.5,0.)) ;
#213=CARTESIAN_POINT('Axis2P3D Location',(81.6,12.5,2.)) ;
#218=CARTESIAN_POINT('Line Origine',(81.6,17.8,6.)) ;
#222=CARTESIAN_POINT('Vertex',(81.6,17.8,4.)) ;
#224=CARTESIAN_POINT('Vertex',(81.6,17.8,0.)) ;
#227=CARTESIAN_POINT('Axis2P3D Location',(81.6,12.5,4.)) ;
#231=CARTESIAN_POINT('Vertex',(81.6,7.2,4.)) ;
#234=CARTESIAN_POINT('Line Origine',(81.6,7.2,6.)) ;
#238=CARTESIAN_POINT('Vertex',(81.6,7.2,0.)) ;
#241=CARTESIAN_POINT('Axis2P3D Location',(81.6,12.5,0.)) ;
#253=CARTESIAN_POINT('Axis2P3D Location',(81.6,12.5,4.)) ;
#258=CARTESIAN_POINT('Axis2P3D Location',(81.6,12.5,0.)) ;
#270=CARTESIAN_POINT('Axis2P3D Location',(47.8,12.5,2.)) ;
#275=CARTESIAN_POINT('Line Origine',(47.8,17.8,6.)) ;
#279=CARTESIAN_POINT('Vertex',(47.8,17.8,4.)) ;
#281=CARTESIAN_POINT('Vertex',(47.8,17.8,0.)) ;
#284=CARTESIAN_POINT('Axis2P3D Location',(47.8,12.5,4.)) ;
#288=CARTESIAN_POINT('Vertex',(47.8,7.2,4.)) ;
#291=CARTESIAN_POINT('Line Origine',(47.8,7.2,6.)) ;
#295=CARTESIAN_POINT('Vertex',(47.8,7.2,0.)) ;
#298=CARTESIAN_POINT('Axis2P3D Location',(47.8,12.5,0.)) ;
#310=CARTESIAN_POINT('Axis2P3D Location',(47.8,12.5,4.)) ;
#315=CARTESIAN_POINT('Axis2P3D Location',(47.8,12.5,0.)) ;
#327=CARTESIAN_POINT('Axis2P3D Location',(115.4,12.5,2.)) ;
#332=CARTESIAN_POINT('Line Origine',(115.4,17.8,6.)) ;
#336=CARTESIAN_POINT('Vertex',(115.4,17.8,4.)) ;
#338=CARTESIAN_POINT('Vertex',(115.4,17.8,0.)) ;
#341=CARTESIAN_POINT('Axis2P3D Location',(115.4,12.5,4.)) ;
#345=CARTESIAN_POINT('Vertex',(115.4,7.2,4.)) ;
#348=CARTESIAN_POINT('Line Origine',(115.4,7.2,6.)) ;
#352=CARTESIAN_POINT('Vertex',(115.4,7.2,0.)) ;
#355=CARTESIAN_POINT('Axis2P3D Location',(115.4,12.5,0.)) ;
#367=CARTESIAN_POINT('Axis2P3D Location',(115.4,12.5,4.)) ;
#372=CARTESIAN_POINT('Axis2P3D Location',(115.4,12.5,0.)) ;
#384=CARTESIAN_POINT('Axis2P3D Location',(64.7,12.5,4.)) ;
#412=CARTESIAN_POINT('Axis2P3D Location',(64.7,12.5,0.)) ;
#442=CARTESIAN_POINT('Axis2P3D Location',(0.,0.,0.)) ;
#33=DIRECTION('Axis2P3D Direction',(-0.,-1.,-0.)) ;
#34=DIRECTION('Axis2P3D XDirection',(-1.,0.,0.)) ;
#38=DIRECTION('Vector Direction',(-1.,0.,0.)) ;
#47=DIRECTION('Vector Direction',(0.,0.,-1.)) ;
#54=DIRECTION('Vector Direction',(-1.,0.,0.)) ;
#61=DIRECTION('Vector Direction',(0.,0.,-1.)) ;
#73=DIRECTION('Axis2P3D Direction',(1.,0.,0.)) ;
#74=DIRECTION('Axis2P3D XDirection',(0.,-1.,0.)) ;
#78=DIRECTION('Vector Direction',(0.,-1.,0.)) ;
#85=DIRECTION('Vector Direction',(0.,0.,-1.)) ;
#92=DIRECTION('Vector Direction',(0.,-1.,0.)) ;
#104=DIRECTION('Axis2P3D Direction',(-0.,-1.,-0.)) ;
#105=DIRECTION('Axis2P3D XDirection',(-1.,0.,0.)) ;
#109=DIRECTION('Vector Direction',(-1.,0.,0.)) ;
#116=DIRECTION('Vector Direction',(0.,0.,-1.)) ;
#123=DIRECTION('Vector Direction',(-1.,0.,0.)) ;
#135=DIRECTION('Axis2P3D Direction',(1.,0.,0.)) ;
#136=DIRECTION('Axis2P3D XDirection',(0.,-1.,0.)) ;
#140=DIRECTION('Vector Direction',(0.,-1.,0.)) ;
#145=DIRECTION('Vector Direction',(0.,-1.,0.)) ;
#157=DIRECTION('Axis2P3D Direction',(0.,0.,1.)) ;
#158=DIRECTION('Axis2P3D XDirection',(-2.94781220398E-015,-1.,0.)) ;
#162=DIRECTION('Vector Direction',(0.,0.,1.)) ;
#171=DIRECTION('Axis2P3D Direction',(0.,0.,1.)) ;
#178=DIRECTION('Vector Direction',(0.,0.,1.)) ;
#185=DIRECTION('Axis2P3D Direction',(0.,0.,1.)) ;
#197=DIRECTION('Axis2P3D Direction',(0.,0.,1.)) ;
#202=DIRECTION('Axis2P3D Direction',(0.,0.,1.)) ;
#214=DIRECTION('Axis2P3D Direction',(0.,0.,1.)) ;
#215=DIRECTION('Axis2P3D XDirection',(-2.83276944882E-016,-1.,0.)) ;
#219=DIRECTION('Vector Direction',(0.,0.,1.)) ;
#228=DIRECTION('Axis2P3D Direction',(0.,0.,1.)) ;
#235=DIRECTION('Vector Direction',(0.,0.,1.)) ;
#242=DIRECTION('Axis2P3D Direction',(0.,0.,1.)) ;
#254=DIRECTION('Axis2P3D Direction',(0.,0.,1.)) ;
#259=DIRECTION('Axis2P3D Direction',(0.,0.,1.)) ;
#271=DIRECTION('Axis2P3D Direction',(0.,0.,1.)) ;
#272=DIRECTION('Axis2P3D XDirection',(-2.83276944882E-016,-1.,0.)) ;
#276=DIRECTION('Vector Direction',(0.,0.,1.)) ;
#285=DIRECTION('Axis2P3D Direction',(0.,0.,1.)) ;
#292=DIRECTION('Vector Direction',(0.,0.,1.)) ;
#299=DIRECTION('Axis2P3D Direction',(0.,0.,1.)) ;
#311=DIRECTION('Axis2P3D Direction',(0.,0.,1.)) ;
#316=DIRECTION('Axis2P3D Direction',(0.,0.,1.)) ;
#328=DIRECTION('Axis2P3D Direction',(0.,0.,1.)) ;
#329=DIRECTION('Axis2P3D XDirection',(2.60330291914E-015,-1.,0.)) ;
#333=DIRECTION('Vector Direction',(0.,0.,1.)) ;
#342=DIRECTION('Axis2P3D Direction',(0.,0.,1.)) ;
#349=DIRECTION('Vector Direction',(0.,0.,1.)) ;
#356=DIRECTION('Axis2P3D Direction',(0.,0.,1.)) ;
#368=DIRECTION('Axis2P3D Direction',(0.,0.,1.)) ;
#373=DIRECTION('Axis2P3D Direction',(0.,0.,1.)) ;
#385=DIRECTION('Axis2P3D Direction',(0.,0.,1.)) ;
#386=DIRECTION('Axis2P3D XDirection',(-1.,0.,0.)) ;
#413=DIRECTION('Axis2P3D Direction',(0.,0.,1.)) ;
#414=DIRECTION('Axis2P3D XDirection',(-1.,0.,0.)) ;
#443=DIRECTION('Axis2P3D Direction',(0.,0.,1.)) ;
#444=DIRECTION('Axis2P3D XDirection',(1.,0.,0.)) ;
#30=PRESENTATION_LAYER_ASSIGNMENT('1',' ',(#21)) ;
#8=PRODUCT_RELATED_PRODUCT_CATEGORY('part',$,(#5)) ;
#7=PRODUCT_CATEGORY('part','specification') ;
#29=STYLED_ITEM(' ',(#28),#21) ;
#450=STYLED_ITEM(' ',(#449),#445) ;
#28=PRESENTATION_STYLE_ASSIGNMENT((#27)) ;
#449=PRESENTATION_STYLE_ASSIGNMENT((#448)) ;
#448=CURVE_STYLE(' ',#446,POSITIVE_LENGTH_MEASURE(0.129999995232),#447) ;
#27=SURFACE_STYLE_USAGE(.BOTH.,#26) ;
#26=SURFACE_SIDE_STYLE(' ',(#25)) ;
#25=SURFACE_STYLE_FILL_AREA(#24) ;
#24=FILL_AREA_STYLE(' ',(#23)) ;
#23=FILL_AREA_STYLE_COLOUR(' ',#22) ;
#39=VECTOR('Line Direction',#38,1.) ;
#48=VECTOR('Line Direction',#47,1.) ;
#55=VECTOR('Line Direction',#54,1.) ;
#62=VECTOR('Line Direction',#61,1.) ;
#79=VECTOR('Line Direction',#78,1.) ;
#86=VECTOR('Line Direction',#85,1.) ;
#93=VECTOR('Line Direction',#92,1.) ;
#110=VECTOR('Line Direction',#109,1.) ;
#117=VECTOR('Line Direction',#116,1.) ;
#124=VECTOR('Line Direction',#123,1.) ;
#141=VECTOR('Line Direction',#140,1.) ;
#146=VECTOR('Line Direction',#145,1.) ;
#163=VECTOR('Line Direction',#162,1.) ;
#179=VECTOR('Line Direction',#178,1.) ;
#220=VECTOR('Line Direction',#219,1.) ;
#236=VECTOR('Line Direction',#235,1.) ;
#277=VECTOR('Line Direction',#276,1.) ;
#293=VECTOR('Line Direction',#292,1.) ;
#334=VECTOR('Line Direction',#333,1.) ;
#350=VECTOR('Line Direction',#349,1.) ;
#15=UNCERTAINTY_MEASURE_WITH_UNIT(LENGTH_MEASURE(0.005),#12,'distance_accuracy_value','CONFUSED CURVE UNCERTAINTY') ;
#441=SHAPE_REPRESENTATION_RELATIONSHIP(' ',' ',#19,#440) ;
#66=ORIENTED_EDGE('',*,*,#45,.T.) ;
#67=ORIENTED_EDGE('',*,*,#52,.F.) ;
#68=ORIENTED_EDGE('',*,*,#59,.F.) ;
#69=ORIENTED_EDGE('',*,*,#64,.T.) ;
#97=ORIENTED_EDGE('',*,*,#83,.T.) ;
#98=ORIENTED_EDGE('',*,*,#90,.F.) ;
#99=ORIENTED_EDGE('',*,*,#95,.F.) ;
#100=ORIENTED_EDGE('',*,*,#52,.T.) ;
#128=ORIENTED_EDGE('',*,*,#114,.T.) ;
#129=ORIENTED_EDGE('',*,*,#121,.F.) ;
#130=ORIENTED_EDGE('',*,*,#126,.F.) ;
#131=ORIENTED_EDGE('',*,*,#90,.T.) ;
#150=ORIENTED_EDGE('',*,*,#143,.T.) ;
#151=ORIENTED_EDGE('',*,*,#64,.F.) ;
#152=ORIENTED_EDGE('',*,*,#148,.F.) ;
#153=ORIENTED_EDGE('',*,*,#121,.T.) ;
#190=ORIENTED_EDGE('',*,*,#169,.F.) ;
#191=ORIENTED_EDGE('',*,*,#176,.T.) ;
#192=ORIENTED_EDGE('',*,*,#183,.T.) ;
#193=ORIENTED_EDGE('',*,*,#188,.F.) ;
#207=ORIENTED_EDGE('',*,*,#183,.F.) ;
#208=ORIENTED_EDGE('',*,*,#200,.T.) ;
#209=ORIENTED_EDGE('',*,*,#169,.T.) ;
#210=ORIENTED_EDGE('',*,*,#205,.F.) ;
#247=ORIENTED_EDGE('',*,*,#226,.F.) ;
#248=ORIENTED_EDGE('',*,*,#233,.T.) ;
#249=ORIENTED_EDGE('',*,*,#240,.T.) ;
#250=ORIENTED_EDGE('',*,*,#245,.F.) ;
#264=ORIENTED_EDGE('',*,*,#240,.F.) ;
#265=ORIENTED_EDGE('',*,*,#257,.T.) ;
#266=ORIENTED_EDGE('',*,*,#226,.T.) ;
#267=ORIENTED_EDGE('',*,*,#262,.F.) ;
#304=ORIENTED_EDGE('',*,*,#283,.F.) ;
#305=ORIENTED_EDGE('',*,*,#290,.T.) ;
#306=ORIENTED_EDGE('',*,*,#297,.T.) ;
#307=ORIENTED_EDGE('',*,*,#302,.F.) ;
#321=ORIENTED_EDGE('',*,*,#297,.F.) ;
#322=ORIENTED_EDGE('',*,*,#314,.T.) ;
#323=ORIENTED_EDGE('',*,*,#283,.T.) ;
#324=ORIENTED_EDGE('',*,*,#319,.F.) ;
#361=ORIENTED_EDGE('',*,*,#340,.F.) ;
#362=ORIENTED_EDGE('',*,*,#347,.T.) ;
#363=ORIENTED_EDGE('',*,*,#354,.T.) ;
#364=ORIENTED_EDGE('',*,*,#359,.F.) ;
#378=ORIENTED_EDGE('',*,*,#354,.F.) ;
#379=ORIENTED_EDGE('',*,*,#371,.T.) ;
#380=ORIENTED_EDGE('',*,*,#340,.T.) ;
#381=ORIENTED_EDGE('',*,*,#376,.F.) ;
#390=ORIENTED_EDGE('',*,*,#59,.T.) ;
#391=ORIENTED_EDGE('',*,*,#95,.T.) ;
#392=ORIENTED_EDGE('',*,*,#126,.T.) ;
#393=ORIENTED_EDGE('',*,*,#148,.T.) ;
#396=ORIENTED_EDGE('',*,*,#176,.F.) ;
#397=ORIENTED_EDGE('',*,*,#200,.F.) ;
#400=ORIENTED_EDGE('',*,*,#233,.F.) ;
#401=ORIENTED_EDGE('',*,*,#257,.F.) ;
#404=ORIENTED_EDGE('',*,*,#290,.F.) ;
#405=ORIENTED_EDGE('',*,*,#314,.F.) ;
#408=ORIENTED_EDGE('',*,*,#347,.F.) ;
#409=ORIENTED_EDGE('',*,*,#371,.F.) ;
#418=ORIENTED_EDGE('',*,*,#143,.F.) ;
#419=ORIENTED_EDGE('',*,*,#114,.F.) ;
#420=ORIENTED_EDGE('',*,*,#83,.F.) ;
#421=ORIENTED_EDGE('',*,*,#45,.F.) ;
#424=ORIENTED_EDGE('',*,*,#205,.T.) ;
#425=ORIENTED_EDGE('',*,*,#188,.T.) ;
#428=ORIENTED_EDGE('',*,*,#262,.T.) ;
#429=ORIENTED_EDGE('',*,*,#245,.T.) ;
#432=ORIENTED_EDGE('',*,*,#319,.T.) ;
#433=ORIENTED_EDGE('',*,*,#302,.T.) ;
#436=ORIENTED_EDGE('',*,*,#376,.T.) ;
#437=ORIENTED_EDGE('',*,*,#359,.T.) ;
#398=FACE_BOUND('',#395,.T.) ;
#402=FACE_BOUND('',#399,.T.) ;
#406=FACE_BOUND('',#403,.T.) ;
#410=FACE_BOUND('',#407,.T.) ;
#426=FACE_BOUND('',#423,.T.) ;
#430=FACE_BOUND('',#427,.T.) ;
#434=FACE_BOUND('',#431,.T.) ;
#438=FACE_BOUND('',#435,.T.) ;
#31=CLOSED_SHELL('Closed Shell',(#71,#102,#133,#155,#195,#212,#252,#269,#309,#326,#366,#383,#411,#439)) ;
#440=ADVANCED_BREP_SHAPE_REPRESENTATION('NONE',(#21),#16) ;
#71=ADVANCED_FACE('WQL_4_WF10',(#70),#36,.F.) ;
#102=ADVANCED_FACE('WQL_4_WF10',(#101),#76,.F.) ;
#133=ADVANCED_FACE('WQL_4_WF10',(#132),#107,.T.) ;
#155=ADVANCED_FACE('WQL_4_WF10',(#154),#138,.T.) ;
#195=ADVANCED_FACE('WQL_4_WF10',(#194),#160,.F.) ;
#212=ADVANCED_FACE('WQL_4_WF10',(#211),#160,.F.) ;
#252=ADVANCED_FACE('WQL_4_WF10',(#251),#217,.F.) ;
#269=ADVANCED_FACE('WQL_4_WF10',(#268),#217,.F.) ;
#309=ADVANCED_FACE('WQL_4_WF10',(#308),#274,.F.) ;
#326=ADVANCED_FACE('WQL_4_WF10',(#325),#274,.F.) ;
#366=ADVANCED_FACE('WQL_4_WF10',(#365),#331,.F.) ;
#383=ADVANCED_FACE('WQL_4_WF10',(#382),#331,.F.) ;
#411=ADVANCED_FACE('WQL_4_WF10',(#394,#398,#402,#406,#410),#388,.T.) ;
#439=ADVANCED_FACE('WQL_4_WF10',(#422,#426,#430,#434,#438),#416,.F.) ;
#4=APPLICATION_PROTOCOL_DEFINITION('international standard','automotive_design',2001,#1) ;
#21=MANIFOLD_SOLID_BREP('WQL_4_WF10',#31) ;
#173=CIRCLE('generated circle',#172,5.3) ;
#187=CIRCLE('generated circle',#186,5.3) ;
#199=CIRCLE('generated circle',#198,5.3) ;
#204=CIRCLE('generated circle',#203,5.3) ;
#230=CIRCLE('generated circle',#229,5.3) ;
#244=CIRCLE('generated circle',#243,5.3) ;
#256=CIRCLE('generated circle',#255,5.3) ;
#261=CIRCLE('generated circle',#260,5.3) ;
#287=CIRCLE('generated circle',#286,5.3) ;
#301=CIRCLE('generated circle',#300,5.3) ;
#313=CIRCLE('generated circle',#312,5.3) ;
#318=CIRCLE('generated circle',#317,5.3) ;
#344=CIRCLE('generated circle',#343,5.3) ;
#358=CIRCLE('generated circle',#357,5.3) ;
#370=CIRCLE('generated circle',#369,5.3) ;
#375=CIRCLE('generated circle',#374,5.3) ;
#22=COLOUR_RGB('Colour',0.823529411765,0.823529411765,1.) ;
#451=CONSTRUCTIVE_GEOMETRY_REPRESENTATION('supplemental geometry',(#445),#16) ;
#452=CONSTRUCTIVE_GEOMETRY_REPRESENTATION_RELATIONSHIP('supplemental geometry','',#19,#451) ;
#160=CYLINDRICAL_SURFACE('generated cylinder',#159,5.3) ;
#217=CYLINDRICAL_SURFACE('generated cylinder',#216,5.3) ;
#274=CYLINDRICAL_SURFACE('generated cylinder',#273,5.3) ;
#331=CYLINDRICAL_SURFACE('generated cylinder',#330,5.3) ;
#447=DRAUGHTING_PRE_DEFINED_COLOUR('white') ;
#446=DRAUGHTING_PRE_DEFINED_CURVE_FONT('continuous') ;
#45=EDGE_CURVE('',#42,#44,#40,.T.) ;
#52=EDGE_CURVE('',#51,#44,#49,.T.) ;
#59=EDGE_CURVE('',#58,#51,#56,.T.) ;
#64=EDGE_CURVE('',#58,#42,#63,.T.) ;
#83=EDGE_CURVE('',#44,#82,#80,.T.) ;
#90=EDGE_CURVE('',#89,#82,#87,.T.) ;
#95=EDGE_CURVE('',#51,#89,#94,.T.) ;
#114=EDGE_CURVE('',#82,#113,#111,.F.) ;
#121=EDGE_CURVE('',#120,#113,#118,.T.) ;
#126=EDGE_CURVE('',#89,#120,#125,.F.) ;
#143=EDGE_CURVE('',#113,#42,#142,.F.) ;
#148=EDGE_CURVE('',#120,#58,#147,.F.) ;
#169=EDGE_CURVE('',#166,#168,#164,.F.) ;
#176=EDGE_CURVE('',#166,#175,#173,.T.) ;
#183=EDGE_CURVE('',#175,#182,#180,.F.) ;
#188=EDGE_CURVE('',#168,#182,#187,.T.) ;
#200=EDGE_CURVE('',#175,#166,#199,.T.) ;
#205=EDGE_CURVE('',#182,#168,#204,.T.) ;
#226=EDGE_CURVE('',#223,#225,#221,.F.) ;
#233=EDGE_CURVE('',#223,#232,#230,.T.) ;
#240=EDGE_CURVE('',#232,#239,#237,.F.) ;
#245=EDGE_CURVE('',#225,#239,#244,.T.) ;
#257=EDGE_CURVE('',#232,#223,#256,.T.) ;
#262=EDGE_CURVE('',#239,#225,#261,.T.) ;
#283=EDGE_CURVE('',#280,#282,#278,.F.) ;
#290=EDGE_CURVE('',#280,#289,#287,.T.) ;
#297=EDGE_CURVE('',#289,#296,#294,.F.) ;
#302=EDGE_CURVE('',#282,#296,#301,.T.) ;
#314=EDGE_CURVE('',#289,#280,#313,.T.) ;
#319=EDGE_CURVE('',#296,#282,#318,.T.) ;
#340=EDGE_CURVE('',#337,#339,#335,.F.) ;
#347=EDGE_CURVE('',#337,#346,#344,.T.) ;
#354=EDGE_CURVE('',#346,#353,#351,.F.) ;
#359=EDGE_CURVE('',#339,#353,#358,.T.) ;
#371=EDGE_CURVE('',#346,#337,#370,.T.) ;
#376=EDGE_CURVE('',#353,#339,#375,.T.) ;
#65=EDGE_LOOP('',(#66,#67,#68,#69)) ;
#96=EDGE_LOOP('',(#97,#98,#99,#100)) ;
#127=EDGE_LOOP('',(#128,#129,#130,#131)) ;
#149=EDGE_LOOP('',(#150,#151,#152,#153)) ;
#189=EDGE_LOOP('',(#190,#191,#192,#193)) ;
#206=EDGE_LOOP('',(#207,#208,#209,#210)) ;
#246=EDGE_LOOP('',(#247,#248,#249,#250)) ;
#263=EDGE_LOOP('',(#264,#265,#266,#267)) ;
#303=EDGE_LOOP('',(#304,#305,#306,#307)) ;
#320=EDGE_LOOP('',(#321,#322,#323,#324)) ;
#360=EDGE_LOOP('',(#361,#362,#363,#364)) ;
#377=EDGE_LOOP('',(#378,#379,#380,#381)) ;
#389=EDGE_LOOP('',(#390,#391,#392,#393)) ;
#395=EDGE_LOOP('',(#396,#397)) ;
#399=EDGE_LOOP('',(#400,#401)) ;
#403=EDGE_LOOP('',(#404,#405)) ;
#407=EDGE_LOOP('',(#408,#409)) ;
#417=EDGE_LOOP('',(#418,#419,#420,#421)) ;
#423=EDGE_LOOP('',(#424,#425)) ;
#427=EDGE_LOOP('',(#428,#429)) ;
#431=EDGE_LOOP('',(#432,#433)) ;
#435=EDGE_LOOP('',(#436,#437)) ;
#70=FACE_OUTER_BOUND('',#65,.T.) ;
#101=FACE_OUTER_BOUND('',#96,.T.) ;
#132=FACE_OUTER_BOUND('',#127,.T.) ;
#154=FACE_OUTER_BOUND('',#149,.T.) ;
#194=FACE_OUTER_BOUND('',#189,.T.) ;
#211=FACE_OUTER_BOUND('',#206,.T.) ;
#251=FACE_OUTER_BOUND('',#246,.T.) ;
#268=FACE_OUTER_BOUND('',#263,.T.) ;
#308=FACE_OUTER_BOUND('',#303,.T.) ;
#325=FACE_OUTER_BOUND('',#320,.T.) ;
#365=FACE_OUTER_BOUND('',#360,.T.) ;
#382=FACE_OUTER_BOUND('',#377,.T.) ;
#394=FACE_OUTER_BOUND('',#389,.T.) ;
#422=FACE_OUTER_BOUND('',#417,.T.) ;
#40=LINE('Line',#37,#39) ;
#49=LINE('Line',#46,#48) ;
#56=LINE('Line',#53,#55) ;
#63=LINE('Line',#60,#62) ;
#80=LINE('Line',#77,#79) ;
#87=LINE('Line',#84,#86) ;
#94=LINE('Line',#91,#93) ;
#111=LINE('Line',#108,#110) ;
#118=LINE('Line',#115,#117) ;
#125=LINE('Line',#122,#124) ;
#142=LINE('Line',#139,#141) ;
#147=LINE('Line',#144,#146) ;
#164=LINE('Line',#161,#163) ;
#180=LINE('Line',#177,#179) ;
#221=LINE('Line',#218,#220) ;
#237=LINE('Line',#234,#236) ;
#278=LINE('Line',#275,#277) ;
#294=LINE('Line',#291,#293) ;
#335=LINE('Line',#332,#334) ;
#351=LINE('Line',#348,#350) ;
#36=PLANE('',#35) ;
#76=PLANE('',#75) ;
#107=PLANE('',#106) ;
#138=PLANE('',#137) ;
#388=PLANE('',#387) ;
#416=PLANE('',#415) ;
#9=PRODUCT_CATEGORY_RELATIONSHIP(' ',' ',#7,#8) ;
#6=PRODUCT_DEFINITION_FORMATION_WITH_SPECIFIED_SOURCE('',' ',#5,.NOT_KNOWN.) ;
#20=SHAPE_DEFINITION_REPRESENTATION(#11,#19) ;
#42=VERTEX_POINT('',#41) ;
#44=VERTEX_POINT('',#43) ;
#51=VERTEX_POINT('',#50) ;
#58=VERTEX_POINT('',#57) ;
#82=VERTEX_POINT('',#81) ;
#89=VERTEX_POINT('',#88) ;
#113=VERTEX_POINT('',#112) ;
#120=VERTEX_POINT('',#119) ;
#166=VERTEX_POINT('',#165) ;
#168=VERTEX_POINT('',#167) ;
#175=VERTEX_POINT('',#174) ;
#182=VERTEX_POINT('',#181) ;
#223=VERTEX_POINT('',#222) ;
#225=VERTEX_POINT('',#224) ;
#232=VERTEX_POINT('',#231) ;
#239=VERTEX_POINT('',#238) ;
#280=VERTEX_POINT('',#279) ;
#282=VERTEX_POINT('',#281) ;
#289=VERTEX_POINT('',#288) ;
#296=VERTEX_POINT('',#295) ;
#337=VERTEX_POINT('',#336) ;
#339=VERTEX_POINT('',#338) ;
#346=VERTEX_POINT('',#345) ;
#353=VERTEX_POINT('',#352) ;
#12=(LENGTH_UNIT()NAMED_UNIT(*)SI_UNIT(.MILLI.,.METRE.)) ;
#13=(NAMED_UNIT(*)PLANE_ANGLE_UNIT()SI_UNIT($,.RADIAN.)) ;
#14=(NAMED_UNIT(*)SI_UNIT($,.STERADIAN.)SOLID_ANGLE_UNIT()) ;
#16=(GEOMETRIC_REPRESENTATION_CONTEXT(3)GLOBAL_UNCERTAINTY_ASSIGNED_CONTEXT((#15))GLOBAL_UNIT_ASSIGNED_CONTEXT((#12,#13,#14))REPRESENTATION_CONTEXT(' ',' ')) ;
ENDSEC;
END-ISO-10303-21;
