ISO-10303-21;
HEADER;
FILE_DESCRIPTION(('CATIA V5R19 STEP'),'2;1');

FILE_NAME ('D1451996_0', '2015-10-27T13:39:35+00:00', ('Weidmueller Interface'), ('Weidmueller'), 'CATIA Version 5 Release 20 SP 5 (IN-10)', 'CATIA V5 STEP AP214', 'none');

FILE_SCHEMA(('AUTOMOTIVE_DESIGN { 1 0 10303 214 1 1 1 1 }'));

ENDSEC;
/* file written by CATIA V5R20 */
DATA;
#5=PRODUCT('CC DIA 30/3.5','','<Q-CHECKER_SEAL> Q-Checker Version 2.14.8  \X2\000A\X0\CATIA-Version         : Catia V5 R20 SP5 Build Date 01-06-2014.17.15\X2\000A\X0\Model size (in KByte) : 0\X2\000A\X0\Checking date         : 2014-11-10 07:13:32\X2\000A\X0\Checking profile      : ADMIN / Release_2D-3D [CATPart]\X2\000A\X0\Model assessment      : In Ordnung (IO)\X2\000A\X0\Total weight sum      : 0\X2\000A\X0\<CROSS_CHECK_SUM>\X2\000A\X0\  <CHKSUM_DATE> -588175358 </CHKSUM_DATE>\X2\000A\X0\  <CHKSUM_ENTITIES> 1088938115 </CHKSUM_ENTITIES>\X2\000A\X0\  <CHKSUM_PROFILE> 1594213346 </CHKSUM_PROFILE>\X2\000A\X0\  <CHKSUM_DIMENSION> -186917087 </CHKSUM_DIMENSION>\X2\000A\X0\  <CHKSUM_PROJINTERSEC> -896974048 </CHKSUM_PROJINTERSEC>\X2\000A\X0\  <CHKSUM_IDENTCRV> -896974048 </CHKSUM_IDENTCRV>\X2\000A\X0\  <CHKSUM_INFINITY> 138018827 </CHKSUM_INFINITY>\X2\000A\X0\</CROSS_CHECK_SUM>\X2\000A\X0\</Q-CHECKER_SEAL> \X2\000A\X0\ \X2\000A\X0\ \X2\000A\X0\ \X2\000A\X0\',(#2)) ;
#2=PRODUCT_CONTEXT(' ',#1,'mechanical') ;
#1=APPLICATION_CONTEXT('automotive design') ;
#10=PRODUCT_DEFINITION('',' ',#6,#3) ;
#3=PRODUCT_DEFINITION_CONTEXT('part definition',#1,' ') ;
#11=PRODUCT_DEFINITION_SHAPE(' ',' ',#10) ;
#248=MECHANICAL_DESIGN_GEOMETRIC_PRESENTATION_REPRESENTATION(' ',(#92,#132,#162,#197,#226,#245,#30),#17) ;
#20=SHAPE_REPRESENTATION(' ',(#19),#17) ;
#19=AXIS2_PLACEMENT_3D(' ',#18,$,$) ;
#36=AXIS2_PLACEMENT_3D('Cylinder Axis2P3D',#33,#34,#35) ;
#96=AXIS2_PLACEMENT_3D('Plane Axis2P3D',#93,#94,#95) ;
#100=AXIS2_PLACEMENT_3D('Circle Axis2P3D',#98,#99,$) ;
#109=AXIS2_PLACEMENT_3D('Circle Axis2P3D',#107,#108,$) ;
#118=AXIS2_PLACEMENT_3D('Circle Axis2P3D',#116,#117,$) ;
#136=AXIS2_PLACEMENT_3D('Cylinder Axis2P3D',#133,#134,#135) ;
#166=AXIS2_PLACEMENT_3D('Plane Axis2P3D',#163,#164,#165) ;
#170=AXIS2_PLACEMENT_3D('Circle Axis2P3D',#168,#169,$) ;
#179=AXIS2_PLACEMENT_3D('Circle Axis2P3D',#177,#178,$) ;
#201=AXIS2_PLACEMENT_3D('Cylinder Axis2P3D',#198,#199,#200) ;
#230=AXIS2_PLACEMENT_3D('Cylinder Axis2P3D',#227,#228,#229) ;
#18=CARTESIAN_POINT(' ',(0.,0.,0.)) ;
#33=CARTESIAN_POINT('Axis2P3D Location',(15.,26.,-0.0599999761681)) ;
#39=CARTESIAN_POINT('Control Point',(13.25,26.,7.77156117238E-016)) ;
#40=CARTESIAN_POINT('Control Point',(13.25,25.4502212856,1.39060356874E-011)) ;
#41=CARTESIAN_POINT('Control Point',(13.4658975963,24.9004425712,2.78112942186E-011)) ;
#42=CARTESIAN_POINT('Control Point',(13.9004425712,24.4658975963,4.17165598058E-011)) ;
#43=CARTESIAN_POINT('Control Point',(15.,24.0341024037,6.9527117757E-011)) ;
#44=CARTESIAN_POINT('Control Point',(16.0995574288,24.4658975963,9.73377285877E-011)) ;
#45=CARTESIAN_POINT('Control Point',(16.5341024037,24.9004425712,1.11243047391E-010)) ;
#46=CARTESIAN_POINT('Control Point',(16.75,25.4502212856,1.25148373251E-010)) ;
#47=CARTESIAN_POINT('Control Point',(16.75,26.,1.39053699111E-010)) ;
#48=CARTESIAN_POINT('Vertex',(13.25,26.,1.39053699111E-010)) ;
#50=CARTESIAN_POINT('Vertex',(16.75,26.,6.73555739531E-016)) ;
#53=CARTESIAN_POINT('Line Origine',(13.25,26.,-0.0599999763072)) ;
#57=CARTESIAN_POINT('Vertex',(13.25,26.,1.2)) ;
#61=CARTESIAN_POINT('Control Point',(13.25,26.,1.2)) ;
#62=CARTESIAN_POINT('Control Point',(13.25,25.4502212856,1.19999999994)) ;
#63=CARTESIAN_POINT('Control Point',(13.4658975963,24.9004425712,1.19999999988)) ;
#64=CARTESIAN_POINT('Control Point',(13.9004425712,24.4658975963,1.19999999982)) ;
#65=CARTESIAN_POINT('Control Point',(15.,24.0341024037,1.1999999997)) ;
#66=CARTESIAN_POINT('Control Point',(16.0995574288,24.4658975963,1.19999999958)) ;
#67=CARTESIAN_POINT('Control Point',(16.5341024037,24.9004425712,1.19999999952)) ;
#68=CARTESIAN_POINT('Control Point',(16.75,25.4502212856,1.19999999945)) ;
#69=CARTESIAN_POINT('Control Point',(16.75,26.,1.19999999939)) ;
#70=CARTESIAN_POINT('Vertex',(16.75,26.,1.19999999939)) ;
#73=CARTESIAN_POINT('Line Origine',(16.75,26.,-0.0599999763072)) ;
#93=CARTESIAN_POINT('Axis2P3D Location',(15.,15.,0.)) ;
#98=CARTESIAN_POINT('Axis2P3D Location',(15.,15.,-1.63155728814E-031)) ;
#102=CARTESIAN_POINT('Vertex',(1.04074261147E-030,15.,3.72529007642E-010)) ;
#104=CARTESIAN_POINT('Vertex',(30.,15.,3.72529007642E-010)) ;
#107=CARTESIAN_POINT('Axis2P3D Location',(15.,15.,1.63155728814E-031)) ;
#116=CARTESIAN_POINT('Axis2P3D Location',(15.,26.,6.73555739531E-016)) ;
#133=CARTESIAN_POINT('Axis2P3D Location',(15.,26.,-0.0599999761681)) ;
#139=CARTESIAN_POINT('Control Point',(16.75,26.,1.19999999939)) ;
#140=CARTESIAN_POINT('Control Point',(16.75,26.5497787144,1.19999999945)) ;
#141=CARTESIAN_POINT('Control Point',(16.5341024037,27.0995574288,1.19999999952)) ;
#142=CARTESIAN_POINT('Control Point',(16.0995574288,27.5341024037,1.19999999958)) ;
#143=CARTESIAN_POINT('Control Point',(15.,27.9658975963,1.1999999997)) ;
#144=CARTESIAN_POINT('Control Point',(13.9004425712,27.5341024037,1.19999999982)) ;
#145=CARTESIAN_POINT('Control Point',(13.4658975963,27.0995574288,1.19999999988)) ;
#146=CARTESIAN_POINT('Control Point',(13.25,26.5497787144,1.19999999994)) ;
#147=CARTESIAN_POINT('Control Point',(13.25,26.,1.2)) ;
#163=CARTESIAN_POINT('Axis2P3D Location',(15.,15.,1.2)) ;
#168=CARTESIAN_POINT('Axis2P3D Location',(15.,15.,1.2)) ;
#172=CARTESIAN_POINT('Vertex',(30.,15.,1.2)) ;
#174=CARTESIAN_POINT('Vertex',(-9.17126134298E-031,15.,1.2)) ;
#177=CARTESIAN_POINT('Axis2P3D Location',(15.,15.,1.2)) ;
#198=CARTESIAN_POINT('Axis2P3D Location',(15.,15.,0.6)) ;
#203=CARTESIAN_POINT('Line Origine',(30.,15.,0.599999999627)) ;
#208=CARTESIAN_POINT('Line Origine',(1.04074261147E-030,15.,0.599999999627)) ;
#227=CARTESIAN_POINT('Axis2P3D Location',(15.,15.,0.6)) ;
#34=DIRECTION('Axis2P3D Direction',(-7.49879891333E-033,-6.12323399574E-017,1.)) ;
#35=DIRECTION('Axis2P3D XDirection',(-1.,2.4492935983E-016,7.49879891331E-033)) ;
#54=DIRECTION('Vector Direction',(0.,-6.12324413396E-017,1.)) ;
#74=DIRECTION('Vector Direction',(0.,-6.12324413396E-017,1.)) ;
#94=DIRECTION('Axis2P3D Direction',(-7.49879891333E-033,-6.12323399574E-017,1.)) ;
#95=DIRECTION('Axis2P3D XDirection',(1.,-1.22464679915E-016,0.)) ;
#99=DIRECTION('Axis2P3D Direction',(-7.49879891333E-033,-6.12323399574E-017,1.)) ;
#108=DIRECTION('Axis2P3D Direction',(-7.49879891333E-033,-6.12323399574E-017,1.)) ;
#117=DIRECTION('Axis2P3D Direction',(-7.49879891333E-033,-6.12323399574E-017,1.)) ;
#134=DIRECTION('Axis2P3D Direction',(-7.49879891333E-033,-6.12323399574E-017,1.)) ;
#135=DIRECTION('Axis2P3D XDirection',(1.,-1.22464679915E-016,0.)) ;
#164=DIRECTION('Axis2P3D Direction',(-7.49879891333E-033,-6.12323399574E-017,1.)) ;
#165=DIRECTION('Axis2P3D XDirection',(1.,-1.22464679915E-016,0.)) ;
#169=DIRECTION('Axis2P3D Direction',(-7.49879891333E-033,-6.12323399574E-017,1.)) ;
#178=DIRECTION('Axis2P3D Direction',(-7.49879891333E-033,-6.12323399574E-017,1.)) ;
#199=DIRECTION('Axis2P3D Direction',(-7.49879891333E-033,-6.12323399574E-017,1.)) ;
#200=DIRECTION('Axis2P3D XDirection',(-1.,6.8901856968E-016,3.46914203823E-032)) ;
#204=DIRECTION('Vector Direction',(0.,-6.12322637039E-017,1.)) ;
#209=DIRECTION('Vector Direction',(0.,-6.12322637039E-017,1.)) ;
#228=DIRECTION('Axis2P3D Direction',(-7.49879891333E-033,-6.12323399574E-017,1.)) ;
#229=DIRECTION('Axis2P3D XDirection',(1.,-1.22464679915E-016,0.)) ;
#31=PRESENTATION_LAYER_ASSIGNMENT('1',' ',(#22)) ;
#8=PRODUCT_RELATED_PRODUCT_CATEGORY('part',$,(#5)) ;
#7=PRODUCT_CATEGORY('part','specification') ;
#30=STYLED_ITEM(' ',(#29),#22) ;
#29=PRESENTATION_STYLE_ASSIGNMENT((#28)) ;
#91=PRESENTATION_STYLE_ASSIGNMENT((#90)) ;
#131=PRESENTATION_STYLE_ASSIGNMENT((#130)) ;
#161=PRESENTATION_STYLE_ASSIGNMENT((#160)) ;
#196=PRESENTATION_STYLE_ASSIGNMENT((#195)) ;
#225=PRESENTATION_STYLE_ASSIGNMENT((#224)) ;
#244=PRESENTATION_STYLE_ASSIGNMENT((#243)) ;
#28=SURFACE_STYLE_USAGE(.BOTH.,#27) ;
#90=SURFACE_STYLE_USAGE(.BOTH.,#89) ;
#130=SURFACE_STYLE_USAGE(.BOTH.,#129) ;
#160=SURFACE_STYLE_USAGE(.BOTH.,#159) ;
#195=SURFACE_STYLE_USAGE(.BOTH.,#194) ;
#224=SURFACE_STYLE_USAGE(.BOTH.,#223) ;
#243=SURFACE_STYLE_USAGE(.BOTH.,#242) ;
#27=SURFACE_SIDE_STYLE(' ',(#26)) ;
#89=SURFACE_SIDE_STYLE(' ',(#88)) ;
#129=SURFACE_SIDE_STYLE(' ',(#128)) ;
#159=SURFACE_SIDE_STYLE(' ',(#158)) ;
#194=SURFACE_SIDE_STYLE(' ',(#193)) ;
#223=SURFACE_SIDE_STYLE(' ',(#222)) ;
#242=SURFACE_SIDE_STYLE(' ',(#241)) ;
#26=SURFACE_STYLE_FILL_AREA(#25) ;
#88=SURFACE_STYLE_FILL_AREA(#87) ;
#128=SURFACE_STYLE_FILL_AREA(#127) ;
#158=SURFACE_STYLE_FILL_AREA(#157) ;
#193=SURFACE_STYLE_FILL_AREA(#192) ;
#222=SURFACE_STYLE_FILL_AREA(#221) ;
#241=SURFACE_STYLE_FILL_AREA(#240) ;
#25=FILL_AREA_STYLE(' ',(#24)) ;
#87=FILL_AREA_STYLE(' ',(#86)) ;
#127=FILL_AREA_STYLE(' ',(#126)) ;
#157=FILL_AREA_STYLE(' ',(#156)) ;
#192=FILL_AREA_STYLE(' ',(#191)) ;
#221=FILL_AREA_STYLE(' ',(#220)) ;
#240=FILL_AREA_STYLE(' ',(#239)) ;
#24=FILL_AREA_STYLE_COLOUR(' ',#23) ;
#86=FILL_AREA_STYLE_COLOUR(' ',#85) ;
#126=FILL_AREA_STYLE_COLOUR(' ',#85) ;
#156=FILL_AREA_STYLE_COLOUR(' ',#85) ;
#191=FILL_AREA_STYLE_COLOUR(' ',#85) ;
#220=FILL_AREA_STYLE_COLOUR(' ',#85) ;
#239=FILL_AREA_STYLE_COLOUR(' ',#85) ;
#55=VECTOR('Line Direction',#54,1.) ;
#75=VECTOR('Line Direction',#74,1.) ;
#205=VECTOR('Line Direction',#204,1.) ;
#210=VECTOR('Line Direction',#209,1.) ;
#16=UNCERTAINTY_MEASURE_WITH_UNIT(LENGTH_MEASURE(0.005),#12,'distance_accuracy_value','CONFUSED CURVE UNCERTAINTY') ;
#247=SHAPE_REPRESENTATION_RELATIONSHIP(' ',' ',#20,#246) ;
#79=ORIENTED_EDGE('',*,*,#52,.F.) ;
#80=ORIENTED_EDGE('',*,*,#59,.F.) ;
#81=ORIENTED_EDGE('',*,*,#72,.T.) ;
#82=ORIENTED_EDGE('',*,*,#77,.T.) ;
#113=ORIENTED_EDGE('',*,*,#106,.F.) ;
#114=ORIENTED_EDGE('',*,*,#111,.F.) ;
#122=ORIENTED_EDGE('',*,*,#52,.T.) ;
#123=ORIENTED_EDGE('',*,*,#120,.T.) ;
#150=ORIENTED_EDGE('',*,*,#120,.F.) ;
#151=ORIENTED_EDGE('',*,*,#77,.F.) ;
#152=ORIENTED_EDGE('',*,*,#148,.T.) ;
#153=ORIENTED_EDGE('',*,*,#59,.T.) ;
#183=ORIENTED_EDGE('',*,*,#176,.T.) ;
#184=ORIENTED_EDGE('',*,*,#181,.T.) ;
#187=ORIENTED_EDGE('',*,*,#148,.F.) ;
#188=ORIENTED_EDGE('',*,*,#72,.F.) ;
#214=ORIENTED_EDGE('',*,*,#106,.T.) ;
#215=ORIENTED_EDGE('',*,*,#207,.F.) ;
#216=ORIENTED_EDGE('',*,*,#181,.F.) ;
#217=ORIENTED_EDGE('',*,*,#212,.T.) ;
#233=ORIENTED_EDGE('',*,*,#111,.T.) ;
#234=ORIENTED_EDGE('',*,*,#212,.F.) ;
#235=ORIENTED_EDGE('',*,*,#176,.F.) ;
#236=ORIENTED_EDGE('',*,*,#207,.T.) ;
#124=FACE_BOUND('',#121,.T.) ;
#189=FACE_BOUND('',#186,.T.) ;
#32=CLOSED_SHELL('Closed Shell',(#84,#125,#155,#190,#219,#238)) ;
#246=ADVANCED_BREP_SHAPE_REPRESENTATION('NONE',(#22),#17) ;
#84=ADVANCED_FACE('S3D gedreht',(#83),#37,.F.) ;
#125=ADVANCED_FACE('S3D gedreht',(#115,#124),#97,.F.) ;
#155=ADVANCED_FACE('S3D gedreht',(#154),#137,.F.) ;
#190=ADVANCED_FACE('S3D gedreht',(#185,#189),#167,.T.) ;
#219=ADVANCED_FACE('S3D gedreht',(#218),#202,.T.) ;
#238=ADVANCED_FACE('S3D gedreht',(#237),#231,.T.) ;
#4=APPLICATION_PROTOCOL_DEFINITION('international standard','automotive_design',2001,#1) ;
#38=B_SPLINE_CURVE_WITH_KNOTS('',5,(#39,#40,#41,#42,#43,#44,#45,#46,#47),.UNSPECIFIED.,.F.,.U.,(6,3,6),(-2.74889357189,0.,2.74889357189),.UNSPECIFIED.) ;
#60=B_SPLINE_CURVE_WITH_KNOTS('',5,(#61,#62,#63,#64,#65,#66,#67,#68,#69),.UNSPECIFIED.,.F.,.U.,(6,3,6),(-2.74889357189,0.,2.74889357189),.UNSPECIFIED.) ;
#138=B_SPLINE_CURVE_WITH_KNOTS('',5,(#139,#140,#141,#142,#143,#144,#145,#146,#147),.UNSPECIFIED.,.F.,.U.,(6,3,6),(-2.74889357189,0.,2.74889357189),.UNSPECIFIED.) ;
#22=MANIFOLD_SOLID_BREP('S3D gedreht',#32) ;
#101=CIRCLE('generated circle',#100,15.) ;
#110=CIRCLE('generated circle',#109,15.) ;
#119=CIRCLE('generated circle',#118,1.75) ;
#171=CIRCLE('generated circle',#170,15.) ;
#180=CIRCLE('generated circle',#179,15.) ;
#23=COLOUR_RGB('Colour',0.823529411765,0.823529411765,1.) ;
#92=OVER_RIDING_STYLED_ITEM(' ',(#91),#84,#30) ;
#132=OVER_RIDING_STYLED_ITEM(' ',(#131),#125,#30) ;
#162=OVER_RIDING_STYLED_ITEM(' ',(#161),#155,#30) ;
#197=OVER_RIDING_STYLED_ITEM(' ',(#196),#190,#30) ;
#226=OVER_RIDING_STYLED_ITEM(' ',(#225),#219,#30) ;
#245=OVER_RIDING_STYLED_ITEM(' ',(#244),#238,#30) ;
#37=CYLINDRICAL_SURFACE('generated cylinder',#36,1.75) ;
#137=CYLINDRICAL_SURFACE('generated cylinder',#136,1.75) ;
#202=CYLINDRICAL_SURFACE('generated cylinder',#201,15.) ;
#231=CYLINDRICAL_SURFACE('generated cylinder',#230,15.) ;
#85=DRAUGHTING_PRE_DEFINED_COLOUR('red') ;
#52=EDGE_CURVE('',#49,#51,#38,.T.) ;
#59=EDGE_CURVE('',#58,#49,#56,.F.) ;
#72=EDGE_CURVE('',#58,#71,#60,.T.) ;
#77=EDGE_CURVE('',#71,#51,#76,.F.) ;
#106=EDGE_CURVE('',#103,#105,#101,.T.) ;
#111=EDGE_CURVE('',#105,#103,#110,.T.) ;
#120=EDGE_CURVE('',#51,#49,#119,.T.) ;
#148=EDGE_CURVE('',#71,#58,#138,.T.) ;
#176=EDGE_CURVE('',#173,#175,#171,.T.) ;
#181=EDGE_CURVE('',#175,#173,#180,.T.) ;
#207=EDGE_CURVE('',#173,#105,#206,.F.) ;
#212=EDGE_CURVE('',#175,#103,#211,.F.) ;
#78=EDGE_LOOP('',(#79,#80,#81,#82)) ;
#112=EDGE_LOOP('',(#113,#114)) ;
#121=EDGE_LOOP('',(#122,#123)) ;
#149=EDGE_LOOP('',(#150,#151,#152,#153)) ;
#182=EDGE_LOOP('',(#183,#184)) ;
#186=EDGE_LOOP('',(#187,#188)) ;
#213=EDGE_LOOP('',(#214,#215,#216,#217)) ;
#232=EDGE_LOOP('',(#233,#234,#235,#236)) ;
#83=FACE_OUTER_BOUND('',#78,.T.) ;
#115=FACE_OUTER_BOUND('',#112,.T.) ;
#154=FACE_OUTER_BOUND('',#149,.T.) ;
#185=FACE_OUTER_BOUND('',#182,.T.) ;
#218=FACE_OUTER_BOUND('',#213,.T.) ;
#237=FACE_OUTER_BOUND('',#232,.T.) ;
#56=LINE('Line',#53,#55) ;
#76=LINE('Line',#73,#75) ;
#206=LINE('Line',#203,#205) ;
#211=LINE('Line',#208,#210) ;
#97=PLANE('',#96) ;
#167=PLANE('',#166) ;
#14=PLANE_ANGLE_MEASURE_WITH_UNIT(PLANE_ANGLE_MEASURE(0.0174532925199),#13) ;
#9=PRODUCT_CATEGORY_RELATIONSHIP(' ',' ',#7,#8) ;
#6=PRODUCT_DEFINITION_FORMATION_WITH_SPECIFIED_SOURCE('',' ',#5,.NOT_KNOWN.) ;
#21=SHAPE_DEFINITION_REPRESENTATION(#11,#20) ;
#49=VERTEX_POINT('',#48) ;
#51=VERTEX_POINT('',#50) ;
#58=VERTEX_POINT('',#57) ;
#71=VERTEX_POINT('',#70) ;
#103=VERTEX_POINT('',#102) ;
#105=VERTEX_POINT('',#104) ;
#173=VERTEX_POINT('',#172) ;
#175=VERTEX_POINT('',#174) ;
#12=(LENGTH_UNIT()NAMED_UNIT(*)SI_UNIT(.MILLI.,.METRE.)) ;
#13=(NAMED_UNIT(*)PLANE_ANGLE_UNIT()SI_UNIT($,.RADIAN.)) ;
#15=(NAMED_UNIT(*)SI_UNIT($,.STERADIAN.)SOLID_ANGLE_UNIT()) ;
#17=(GEOMETRIC_REPRESENTATION_CONTEXT(3)GLOBAL_UNCERTAINTY_ASSIGNED_CONTEXT((#16))GLOBAL_UNIT_ASSIGNED_CONTEXT((#12,#13,#15))REPRESENTATION_CONTEXT(' ',' ')) ;
ENDSEC;
END-ISO-10303-21;
