ISO-10303-21;
HEADER;
FILE_DESCRIPTION(('CATIA V5 STEP Exchange','CAx-IF Rec.Pracs.--- Model Styling and Organization---1.5--- 2016-08-15','CAx-IF Rec.Pracs.---Supplemental Geometry---1.0---2011-11-01','CAx-IF Rec.Pracs.--- Composite Materials ---1.1---2010-07-15'),'2;1');

FILE_NAME ('706722-1_4_2652370000_2652370000.stp','2024-06-13T06:59:46+00:00',('none'),('Weidmueller'),'CATIA Version 5-6 Release 2022 SP4 HF5','CATIA V5 STEP AP214 v3','none');

FILE_SCHEMA(('AUTOMOTIVE_DESIGN { 1 0 10303 214 1 1 1 1 }'));

ENDSEC;
DATA;
#5=PRODUCT('CABTITE BP 9MM PA','CABTITE BP 9MM PA',' ',(#2)) ;
#2=PRODUCT_CONTEXT(' ',#1,'mechanical') ;
#1=APPLICATION_CONTEXT('automotive design') ;
#10=PRODUCT_DEFINITION(' ',' ',#6,#3) ;
#3=PRODUCT_DEFINITION_CONTEXT('part definition',#1,' ') ;
#11=PRODUCT_DEFINITION_SHAPE(' ',' ',#10) ;
#468=MECHANICAL_DESIGN_GEOMETRIC_PRESENTATION_REPRESENTATION(' ',(#87,#113,#184,#216,#234,#246,#253,#285,#298,#330,#343,#414,#446,#459,#465,#29),#16) ;
#19=SHAPE_REPRESENTATION(' ',(#18),#16) ;
#18=AXIS2_PLACEMENT_3D(' ',#17,$,$) ;
#35=AXIS2_PLACEMENT_3D('Cylinder Axis2P3D',#32,#33,#34) ;
#48=AXIS2_PLACEMENT_3D('Circle Axis2P3D',#46,#47,$) ;
#62=AXIS2_PLACEMENT_3D('Circle Axis2P3D',#60,#61,$) ;
#69=AXIS2_PLACEMENT_3D('Circle Axis2P3D',#67,#68,$) ;
#90=AXIS2_PLACEMENT_3D('Circle Axis2P3D',#88,#89,$) ;
#95=AXIS2_PLACEMENT_3D('Circle Axis2P3D',#93,#94,$) ;
#102=AXIS2_PLACEMENT_3D('Circle Axis2P3D',#100,#101,$) ;
#117=AXIS2_PLACEMENT_3D('Plane Axis2P3D',#114,#115,#116) ;
#188=AXIS2_PLACEMENT_3D('Sphere Axis2P3D',#185,#186,#187) ;
#192=AXIS2_PLACEMENT_3D('Circle Axis2P3D',#190,#191,$) ;
#199=AXIS2_PLACEMENT_3D('Circle Axis2P3D',#197,#198,$) ;
#206=AXIS2_PLACEMENT_3D('Circle Axis2P3D',#204,#205,$) ;
#220=AXIS2_PLACEMENT_3D('Sphere Axis2P3D',#217,#218,#219) ;
#224=AXIS2_PLACEMENT_3D('Circle Axis2P3D',#222,#223,$) ;
#237=AXIS2_PLACEMENT_3D('Circle Axis2P3D',#235,#236,$) ;
#257=AXIS2_PLACEMENT_3D('Cylinder Axis2P3D',#254,#255,#256) ;
#268=AXIS2_PLACEMENT_3D('Circle Axis2P3D',#266,#267,$) ;
#288=AXIS2_PLACEMENT_3D('Circle Axis2P3D',#286,#287,$) ;
#302=AXIS2_PLACEMENT_3D('Cone Axis2P3D',#299,#300,#301) ;
#320=AXIS2_PLACEMENT_3D('Circle Axis2P3D',#318,#319,$) ;
#333=AXIS2_PLACEMENT_3D('Circle Axis2P3D',#331,#332,$) ;
#347=AXIS2_PLACEMENT_3D('Plane Axis2P3D',#344,#345,#346) ;
#418=AXIS2_PLACEMENT_3D('Cylinder Axis2P3D',#415,#416,#417) ;
#422=AXIS2_PLACEMENT_3D('Circle Axis2P3D',#420,#421,$) ;
#449=AXIS2_PLACEMENT_3D('Circle Axis2P3D',#447,#448,$) ;
#17=CARTESIAN_POINT(' ',(0.,0.,0.)) ;
#32=CARTESIAN_POINT('Axis2P3D Location',(5.4,5.4,16.5)) ;
#37=CARTESIAN_POINT('Line Origine',(-1.7763568394E-15,5.4,16.5)) ;
#41=CARTESIAN_POINT('Vertex',(-1.7763568394E-15,5.4,16.5)) ;
#43=CARTESIAN_POINT('Vertex',(-1.7763568394E-15,5.4,17.)) ;
#46=CARTESIAN_POINT('Axis2P3D Location',(5.4,5.4,16.5)) ;
#50=CARTESIAN_POINT('Vertex',(10.8,5.4,16.5)) ;
#53=CARTESIAN_POINT('Line Origine',(10.8,5.4,16.5)) ;
#57=CARTESIAN_POINT('Vertex',(10.8,5.4,17.)) ;
#60=CARTESIAN_POINT('Axis2P3D Location',(5.4,5.4,17.)) ;
#64=CARTESIAN_POINT('Vertex',(5.4,0.,17.)) ;
#67=CARTESIAN_POINT('Axis2P3D Location',(5.4,5.4,17.)) ;
#88=CARTESIAN_POINT('Axis2P3D Location',(5.4,5.4,16.5)) ;
#93=CARTESIAN_POINT('Axis2P3D Location',(5.4,5.4,17.)) ;
#97=CARTESIAN_POINT('Vertex',(5.40000000002,10.8,17.)) ;
#100=CARTESIAN_POINT('Axis2P3D Location',(5.4,5.4,17.)) ;
#114=CARTESIAN_POINT('Axis2P3D Location',(5.4,-1.7763568394E-15,16.5)) ;
#124=CARTESIAN_POINT('Control Point',(9.9,5.40000000037,16.5)) ;
#125=CARTESIAN_POINT('Control Point',(9.9,4.98433063091,16.5)) ;
#126=CARTESIAN_POINT('Control Point',(9.8520052693,4.56866192014,16.5)) ;
#127=CARTESIAN_POINT('Control Point',(9.75598404364,4.16029071168,16.5)) ;
#128=CARTESIAN_POINT('Control Point',(9.47144692184,3.3732844238,16.5)) ;
#129=CARTESIAN_POINT('Control Point',(9.01504796828,2.6718317295,16.5)) ;
#130=CARTESIAN_POINT('Control Point',(8.74710628214,2.34904021001,16.5)) ;
#131=CARTESIAN_POINT('Control Point',(8.14167125619,1.77129571752,16.5)) ;
#132=CARTESIAN_POINT('Control Point',(7.42050750898,1.34672683969,16.5)) ;
#133=CARTESIAN_POINT('Control Point',(7.03679622715,1.17716040578,16.5)) ;
#134=CARTESIAN_POINT('Control Point',(6.23734056982,0.92975203954,16.5)) ;
#135=CARTESIAN_POINT('Control Point',(5.40254185191,0.871041239019,16.5)) ;
#136=CARTESIAN_POINT('Control Point',(4.98347293975,0.890234891903,16.5)) ;
#137=CARTESIAN_POINT('Control Point',(4.15753360592,1.02501047789,16.5)) ;
#138=CARTESIAN_POINT('Control Point',(3.38404349333,1.34446140516,16.5)) ;
#139=CARTESIAN_POINT('Control Point',(3.01743866664,1.54839285503,16.5)) ;
#140=CARTESIAN_POINT('Control Point',(2.33810261699,2.03710831717,16.5)) ;
#141=CARTESIAN_POINT('Control Point',(1.78801661742,2.66777563777,16.5)) ;
#142=CARTESIAN_POINT('Control Point',(1.5507029755,3.01370820642,16.5)) ;
#143=CARTESIAN_POINT('Control Point',(1.19901364853,3.68060087966,16.5)) ;
#144=CARTESIAN_POINT('Control Point',(0.992581067325,4.40388732074,16.5)) ;
#145=CARTESIAN_POINT('Control Point',(0.930857504691,4.73340592776,16.5)) ;
#146=CARTESIAN_POINT('Control Point',(0.9,5.06670281327,16.5)) ;
#147=CARTESIAN_POINT('Control Point',(0.9,5.40000000037,16.5)) ;
#148=CARTESIAN_POINT('Vertex',(9.9,5.4,16.5)) ;
#150=CARTESIAN_POINT('Vertex',(0.9,5.40000000037,16.5)) ;
#154=CARTESIAN_POINT('Control Point',(0.9,5.40000000037,16.5)) ;
#155=CARTESIAN_POINT('Control Point',(0.9,5.8156693672,16.5)) ;
#156=CARTESIAN_POINT('Control Point',(0.947994730096,6.23133807534,16.5)) ;
#157=CARTESIAN_POINT('Control Point',(1.04401595647,6.63970929026,16.5)) ;
#158=CARTESIAN_POINT('Control Point',(1.32855307674,7.42671557268,16.5)) ;
#159=CARTESIAN_POINT('Control Point',(1.78495202652,8.1281682627,16.5)) ;
#160=CARTESIAN_POINT('Control Point',(2.05289371883,8.45095979238,16.5)) ;
#161=CARTESIAN_POINT('Control Point',(2.65832874384,9.02870428405,16.5)) ;
#162=CARTESIAN_POINT('Control Point',(3.37949248996,9.45327316155,16.5)) ;
#163=CARTESIAN_POINT('Control Point',(3.76320377137,9.62283959205,16.5)) ;
#164=CARTESIAN_POINT('Control Point',(4.56265943634,9.8702479611,16.5)) ;
#165=CARTESIAN_POINT('Control Point',(5.39745816261,9.92895876075,16.5)) ;
#166=CARTESIAN_POINT('Control Point',(5.81652705545,9.90976510828,16.5)) ;
#167=CARTESIAN_POINT('Control Point',(6.6424663966,9.77498952145,16.5)) ;
#168=CARTESIAN_POINT('Control Point',(7.41595651541,9.45553858999,16.5)) ;
#169=CARTESIAN_POINT('Control Point',(7.78256133833,9.25160714225,16.5)) ;
#170=CARTESIAN_POINT('Control Point',(8.46189738581,8.76289168024,16.5)) ;
#171=CARTESIAN_POINT('Control Point',(9.0119833835,8.13222436066,16.5)) ;
#172=CARTESIAN_POINT('Control Point',(9.24929702963,7.78629178593,16.5)) ;
#173=CARTESIAN_POINT('Control Point',(9.60098635293,7.11939911708,16.5)) ;
#174=CARTESIAN_POINT('Control Point',(9.80741893247,6.39611268131,16.5)) ;
#175=CARTESIAN_POINT('Control Point',(9.8691424958,6.06659406758,16.5)) ;
#176=CARTESIAN_POINT('Control Point',(9.9,5.73329718478,16.5)) ;
#177=CARTESIAN_POINT('Control Point',(9.9,5.40000000037,16.5)) ;
#185=CARTESIAN_POINT('Axis2P3D Location',(5.4,5.4,-11.91)) ;
#190=CARTESIAN_POINT('Axis2P3D Location',(5.4,5.4,-11.91)) ;
#194=CARTESIAN_POINT('Vertex',(5.4,5.4,17.5)) ;
#197=CARTESIAN_POINT('Axis2P3D Location',(5.4,5.4,-11.91)) ;
#201=CARTESIAN_POINT('Vertex',(5.4,5.1911900183,17.4992587188)) ;
#204=CARTESIAN_POINT('Axis2P3D Location',(5.4,5.4,-11.91)) ;
#217=CARTESIAN_POINT('Axis2P3D Location',(5.4,5.4,-11.91)) ;
#222=CARTESIAN_POINT('Axis2P3D Location',(5.4,5.4,-11.91)) ;
#235=CARTESIAN_POINT('Axis2P3D Location',(5.4,5.4,-11.91)) ;
#254=CARTESIAN_POINT('Axis2P3D Location',(5.4,5.4,16.5)) ;
#259=CARTESIAN_POINT('Line Origine',(0.9,5.4,16.5)) ;
#263=CARTESIAN_POINT('Vertex',(0.9,5.4,2.)) ;
#266=CARTESIAN_POINT('Axis2P3D Location',(5.4,5.4,2.)) ;
#270=CARTESIAN_POINT('Vertex',(9.9,5.4,2.)) ;
#273=CARTESIAN_POINT('Line Origine',(9.9,5.4,16.5)) ;
#286=CARTESIAN_POINT('Axis2P3D Location',(5.4,5.4,2.)) ;
#299=CARTESIAN_POINT('Axis2P3D Location',(5.4,5.4,0.)) ;
#304=CARTESIAN_POINT('Line Origine',(980588.124583,5.39999999976,4902893.12868)) ;
#308=CARTESIAN_POINT('Vertex',(9.5,5.4,0.)) ;
#311=CARTESIAN_POINT('Line Origine',(-980577.324583,5.40000000012,4902893.12868)) ;
#315=CARTESIAN_POINT('Vertex',(1.30000000002,5.4,-1.20331254722E-10)) ;
#318=CARTESIAN_POINT('Axis2P3D Location',(5.4,5.4,0.)) ;
#331=CARTESIAN_POINT('Axis2P3D Location',(5.4,5.4,0.)) ;
#344=CARTESIAN_POINT('Axis2P3D Location',(5.4,0.9,0.)) ;
#354=CARTESIAN_POINT('Control Point',(2.9,5.4,0.)) ;
#355=CARTESIAN_POINT('Control Point',(2.9,5.6323689971,0.)) ;
#356=CARTESIAN_POINT('Control Point',(2.92699767705,5.8647373273,0.)) ;
#357=CARTESIAN_POINT('Control Point',(2.98101119243,6.09297594375,0.)) ;
#358=CARTESIAN_POINT('Control Point',(3.14104305165,6.53262119219,0.)) ;
#359=CARTESIAN_POINT('Control Point',(3.39760977266,6.92386175583,0.)) ;
#360=CARTESIAN_POINT('Control Point',(3.54819241356,7.10368165232,0.)) ;
#361=CARTESIAN_POINT('Control Point',(3.88830210261,7.42496585816,0.)) ;
#362=CARTESIAN_POINT('Control Point',(4.29301176546,7.6597119996,0.)) ;
#363=CARTESIAN_POINT('Control Point',(4.50821871149,7.75296592469,0.)) ;
#364=CARTESIAN_POINT('Control Point',(4.95625487928,7.88773140169,0.)) ;
#365=CARTESIAN_POINT('Control Point',(5.42325180246,7.91618374217,0.)) ;
#366=CARTESIAN_POINT('Control Point',(5.65742875673,7.9030886814,0.)) ;
#367=CARTESIAN_POINT('Control Point',(6.11834437763,7.82274608998,0.)) ;
#368=CARTESIAN_POINT('Control Point',(6.54855917389,7.63886870894,0.)) ;
#369=CARTESIAN_POINT('Control Point',(6.75202749934,7.52220266508,0.)) ;
#370=CARTESIAN_POINT('Control Point',(7.12804328394,7.24379599503,0.)) ;
#371=CARTESIAN_POINT('Control Point',(7.43020957907,6.88659689811,0.)) ;
#372=CARTESIAN_POINT('Control Point',(7.55980521584,6.69110957688,0.)) ;
#373=CARTESIAN_POINT('Control Point',(7.74575192753,6.32386657773,0.)) ;
#374=CARTESIAN_POINT('Control Point',(7.85326036045,5.92772354575,0.)) ;
#375=CARTESIAN_POINT('Control Point',(7.8844212916,5.75302899336,0.)) ;
#376=CARTESIAN_POINT('Control Point',(7.9,5.57651463375,0.)) ;
#377=CARTESIAN_POINT('Control Point',(7.9,5.4,0.)) ;
#378=CARTESIAN_POINT('Vertex',(2.9,5.4,3.72523345504E-10)) ;
#380=CARTESIAN_POINT('Vertex',(7.9,5.4,3.72523345504E-10)) ;
#384=CARTESIAN_POINT('Control Point',(7.9,5.4,0.)) ;
#385=CARTESIAN_POINT('Control Point',(7.9,5.16763100294,0.)) ;
#386=CARTESIAN_POINT('Control Point',(7.87300232295,4.93526267276,0.)) ;
#387=CARTESIAN_POINT('Control Point',(7.81898880757,4.70702405618,0.)) ;
#388=CARTESIAN_POINT('Control Point',(7.65895694833,4.26737880785,0.)) ;
#389=CARTESIAN_POINT('Control Point',(7.40239022743,3.87613824426,0.)) ;
#390=CARTESIAN_POINT('Control Point',(7.25180758636,3.69631834759,0.)) ;
#391=CARTESIAN_POINT('Control Point',(6.91169789737,3.37503414184,0.)) ;
#392=CARTESIAN_POINT('Control Point',(6.50698823462,3.14028800044,0.)) ;
#393=CARTESIAN_POINT('Control Point',(6.29178128844,3.04703407526,0.)) ;
#394=CARTESIAN_POINT('Control Point',(5.84374512068,2.91226859833,0.)) ;
#395=CARTESIAN_POINT('Control Point',(5.37674819758,2.88381625782,0.)) ;
#396=CARTESIAN_POINT('Control Point',(5.14257124324,2.8969113186,0.)) ;
#397=CARTESIAN_POINT('Control Point',(4.68165562232,2.97725391003,0.)) ;
#398=CARTESIAN_POINT('Control Point',(4.25144082604,3.16113129111,0.)) ;
#399=CARTESIAN_POINT('Control Point',(4.04797250072,3.27779733487,0.)) ;
#400=CARTESIAN_POINT('Control Point',(3.67195671605,3.55620400497,0.)) ;
#401=CARTESIAN_POINT('Control Point',(3.36979042088,3.91340310196,0.)) ;
#402=CARTESIAN_POINT('Control Point',(3.2401947842,4.10889042303,0.)) ;
#403=CARTESIAN_POINT('Control Point',(3.05424807249,4.47613342222,0.)) ;
#404=CARTESIAN_POINT('Control Point',(2.94673963955,4.87227645425,0.)) ;
#405=CARTESIAN_POINT('Control Point',(2.9155787084,5.04697100664,0.)) ;
#406=CARTESIAN_POINT('Control Point',(2.9,5.22348536625,0.)) ;
#407=CARTESIAN_POINT('Control Point',(2.9,5.4,0.)) ;
#415=CARTESIAN_POINT('Axis2P3D Location',(5.4,5.4,163.35)) ;
#420=CARTESIAN_POINT('Axis2P3D Location',(5.4,5.4,16.5000000004)) ;
#424=CARTESIAN_POINT('Vertex',(7.9,5.40000000037,16.5000000004)) ;
#426=CARTESIAN_POINT('Vertex',(2.9,5.4,16.5000000004)) ;
#429=CARTESIAN_POINT('Line Origine',(2.9,5.4,163.35)) ;
#434=CARTESIAN_POINT('Line Origine',(7.9,5.4,163.35)) ;
#447=CARTESIAN_POINT('Axis2P3D Location',(5.4,5.4,16.5000000004)) ;
#33=DIRECTION('Axis2P3D Direction',(0.,0.,-1.)) ;
#34=DIRECTION('Axis2P3D XDirection',(-1.,-2.64687485605E-28,-0.)) ;
#38=DIRECTION('Vector Direction',(0.,0.,-1.)) ;
#47=DIRECTION('Axis2P3D Direction',(0.,0.,-1.)) ;
#54=DIRECTION('Vector Direction',(0.,0.,-1.)) ;
#61=DIRECTION('Axis2P3D Direction',(0.,0.,-1.)) ;
#68=DIRECTION('Axis2P3D Direction',(0.,0.,-1.)) ;
#89=DIRECTION('Axis2P3D Direction',(0.,0.,-1.)) ;
#94=DIRECTION('Axis2P3D Direction',(0.,0.,-1.)) ;
#101=DIRECTION('Axis2P3D Direction',(0.,0.,-1.)) ;
#115=DIRECTION('Axis2P3D Direction',(0.,0.,1.)) ;
#116=DIRECTION('Axis2P3D XDirection',(1.,0.,0.)) ;
#186=DIRECTION('Axis2P3D Direction',(0.,0.,-1.)) ;
#187=DIRECTION('Axis2P3D XDirection',(1.,2.11399147838E-16,0.)) ;
#191=DIRECTION('Axis2P3D Direction',(-2.11399147838E-16,1.,0.)) ;
#198=DIRECTION('Axis2P3D Direction',(1.,2.72631487795E-16,0.)) ;
#205=DIRECTION('Axis2P3D Direction',(1.,2.72631487795E-16,0.)) ;
#218=DIRECTION('Axis2P3D Direction',(-0.,0.,-1.)) ;
#219=DIRECTION('Axis2P3D XDirection',(-1.,-3.6239853915E-16,0.)) ;
#223=DIRECTION('Axis2P3D Direction',(3.6239853915E-16,-1.,0.)) ;
#236=DIRECTION('Axis2P3D Direction',(-1.,-4.23630879107E-16,-0.)) ;
#255=DIRECTION('Axis2P3D Direction',(0.,0.,-1.)) ;
#256=DIRECTION('Axis2P3D XDirection',(-1.,-2.64687485605E-28,-0.)) ;
#260=DIRECTION('Vector Direction',(0.,0.,-1.)) ;
#267=DIRECTION('Axis2P3D Direction',(0.,0.,-1.)) ;
#274=DIRECTION('Vector Direction',(0.,0.,-1.)) ;
#287=DIRECTION('Axis2P3D Direction',(0.,0.,-1.)) ;
#300=DIRECTION('Axis2P3D Direction',(0.,0.,1.)) ;
#301=DIRECTION('Axis2P3D XDirection',(1.,0.,0.)) ;
#305=DIRECTION('Vector Direction',(0.196116134917,-4.8034542509E-17,0.980580675735)) ;
#312=DIRECTION('Vector Direction',(-0.196116134917,2.40172712545E-17,0.980580675735)) ;
#319=DIRECTION('Axis2P3D Direction',(0.,0.,1.)) ;
#332=DIRECTION('Axis2P3D Direction',(0.,0.,1.)) ;
#345=DIRECTION('Axis2P3D Direction',(0.,0.,1.)) ;
#346=DIRECTION('Axis2P3D XDirection',(1.,0.,0.)) ;
#416=DIRECTION('Axis2P3D Direction',(0.,0.,-1.)) ;
#417=DIRECTION('Axis2P3D XDirection',(-1.,-3.5527136788E-16,0.)) ;
#421=DIRECTION('Axis2P3D Direction',(0.,0.,-1.)) ;
#430=DIRECTION('Vector Direction',(0.,0.,-1.)) ;
#435=DIRECTION('Vector Direction',(0.,0.,-1.)) ;
#448=DIRECTION('Axis2P3D Direction',(0.,0.,-1.)) ;
#30=PRESENTATION_LAYER_ASSIGNMENT('1',' ',(#21)) ;
#8=PRODUCT_RELATED_PRODUCT_CATEGORY('part',$,(#5)) ;
#7=PRODUCT_CATEGORY('part','specification') ;
#29=STYLED_ITEM(' ',(#28),#21) ;
#28=PRESENTATION_STYLE_ASSIGNMENT((#27)) ;
#86=PRESENTATION_STYLE_ASSIGNMENT((#85)) ;
#27=SURFACE_STYLE_USAGE(.BOTH.,#26) ;
#85=SURFACE_STYLE_USAGE(.BOTH.,#84) ;
#26=SURFACE_SIDE_STYLE(' ',(#25)) ;
#84=SURFACE_SIDE_STYLE(' ',(#83)) ;
#25=SURFACE_STYLE_FILL_AREA(#24) ;
#83=SURFACE_STYLE_FILL_AREA(#82) ;
#24=FILL_AREA_STYLE(' ',(#23)) ;
#82=FILL_AREA_STYLE(' ',(#81)) ;
#23=FILL_AREA_STYLE_COLOUR(' ',#22) ;
#81=FILL_AREA_STYLE_COLOUR(' ',#80) ;
#39=VECTOR('Line Direction',#38,1.) ;
#55=VECTOR('Line Direction',#54,1.) ;
#261=VECTOR('Line Direction',#260,1.) ;
#275=VECTOR('Line Direction',#274,1.) ;
#306=VECTOR('Line Direction',#305,1.) ;
#313=VECTOR('Line Direction',#312,1.) ;
#431=VECTOR('Line Direction',#430,1.) ;
#436=VECTOR('Line Direction',#435,1.) ;
#15=UNCERTAINTY_MEASURE_WITH_UNIT(LENGTH_MEASURE(0.005),#12,'distance_accuracy_value','CONFUSED CURVE UNCERTAINTY') ;
#467=SHAPE_REPRESENTATION_RELATIONSHIP(' ',' ',#19,#466) ;
#73=ORIENTED_EDGE('',*,*,#45,.F.) ;
#74=ORIENTED_EDGE('',*,*,#52,.F.) ;
#75=ORIENTED_EDGE('',*,*,#59,.F.) ;
#76=ORIENTED_EDGE('',*,*,#66,.T.) ;
#77=ORIENTED_EDGE('',*,*,#71,.T.) ;
#106=ORIENTED_EDGE('',*,*,#59,.T.) ;
#107=ORIENTED_EDGE('',*,*,#92,.F.) ;
#108=ORIENTED_EDGE('',*,*,#45,.T.) ;
#109=ORIENTED_EDGE('',*,*,#99,.T.) ;
#110=ORIENTED_EDGE('',*,*,#104,.T.) ;
#120=ORIENTED_EDGE('',*,*,#92,.T.) ;
#121=ORIENTED_EDGE('',*,*,#52,.T.) ;
#180=ORIENTED_EDGE('',*,*,#152,.F.) ;
#181=ORIENTED_EDGE('',*,*,#178,.F.) ;
#210=ORIENTED_EDGE('',*,*,#196,.F.) ;
#211=ORIENTED_EDGE('',*,*,#203,.T.) ;
#212=ORIENTED_EDGE('',*,*,#208,.T.) ;
#213=ORIENTED_EDGE('',*,*,#66,.F.) ;
#228=ORIENTED_EDGE('',*,*,#226,.T.) ;
#229=ORIENTED_EDGE('',*,*,#71,.F.) ;
#230=ORIENTED_EDGE('',*,*,#208,.F.) ;
#231=ORIENTED_EDGE('',*,*,#203,.F.) ;
#241=ORIENTED_EDGE('',*,*,#226,.F.) ;
#242=ORIENTED_EDGE('',*,*,#239,.T.) ;
#243=ORIENTED_EDGE('',*,*,#99,.F.) ;
#248=ORIENTED_EDGE('',*,*,#196,.T.) ;
#249=ORIENTED_EDGE('',*,*,#104,.F.) ;
#250=ORIENTED_EDGE('',*,*,#239,.F.) ;
#279=ORIENTED_EDGE('',*,*,#265,.F.) ;
#280=ORIENTED_EDGE('',*,*,#272,.T.) ;
#281=ORIENTED_EDGE('',*,*,#277,.F.) ;
#282=ORIENTED_EDGE('',*,*,#152,.T.) ;
#292=ORIENTED_EDGE('',*,*,#277,.T.) ;
#293=ORIENTED_EDGE('',*,*,#290,.T.) ;
#294=ORIENTED_EDGE('',*,*,#265,.T.) ;
#295=ORIENTED_EDGE('',*,*,#178,.T.) ;
#324=ORIENTED_EDGE('',*,*,#310,.F.) ;
#325=ORIENTED_EDGE('',*,*,#272,.F.) ;
#326=ORIENTED_EDGE('',*,*,#317,.F.) ;
#327=ORIENTED_EDGE('',*,*,#322,.F.) ;
#337=ORIENTED_EDGE('',*,*,#317,.T.) ;
#338=ORIENTED_EDGE('',*,*,#290,.F.) ;
#339=ORIENTED_EDGE('',*,*,#310,.T.) ;
#340=ORIENTED_EDGE('',*,*,#335,.F.) ;
#350=ORIENTED_EDGE('',*,*,#322,.T.) ;
#351=ORIENTED_EDGE('',*,*,#335,.T.) ;
#410=ORIENTED_EDGE('',*,*,#382,.F.) ;
#411=ORIENTED_EDGE('',*,*,#408,.F.) ;
#440=ORIENTED_EDGE('',*,*,#428,.T.) ;
#441=ORIENTED_EDGE('',*,*,#433,.F.) ;
#442=ORIENTED_EDGE('',*,*,#382,.T.) ;
#443=ORIENTED_EDGE('',*,*,#438,.F.) ;
#453=ORIENTED_EDGE('',*,*,#451,.T.) ;
#454=ORIENTED_EDGE('',*,*,#438,.T.) ;
#455=ORIENTED_EDGE('',*,*,#408,.T.) ;
#456=ORIENTED_EDGE('',*,*,#433,.T.) ;
#461=ORIENTED_EDGE('',*,*,#451,.F.) ;
#462=ORIENTED_EDGE('',*,*,#428,.F.) ;
#182=FACE_BOUND('',#179,.T.) ;
#412=FACE_BOUND('',#409,.T.) ;
#31=CLOSED_SHELL('Closed Shell',(#79,#112,#183,#215,#233,#245,#252,#284,#297,#329,#342,#413,#445,#458,#464)) ;
#466=ADVANCED_BREP_SHAPE_REPRESENTATION('NONE',(#21),#16) ;
#79=ADVANCED_FACE('CABTITE BP 9MM PA',(#78),#36,.T.) ;
#112=ADVANCED_FACE('CABTITE BP 9MM PA',(#111),#36,.T.) ;
#183=ADVANCED_FACE('CABTITE BP 9MM PA',(#122,#182),#118,.F.) ;
#215=ADVANCED_FACE('CABTITE BP 9MM PA',(#214),#189,.T.) ;
#233=ADVANCED_FACE('CABTITE BP 9MM PA',(#232),#221,.T.) ;
#245=ADVANCED_FACE('CABTITE BP 9MM PA',(#244),#221,.T.) ;
#252=ADVANCED_FACE('CABTITE BP 9MM PA',(#251),#221,.T.) ;
#284=ADVANCED_FACE('CABTITE BP 9MM PA',(#283),#258,.T.) ;
#297=ADVANCED_FACE('CABTITE BP 9MM PA',(#296),#258,.T.) ;
#329=ADVANCED_FACE('CABTITE BP 9MM PA',(#328),#303,.T.) ;
#342=ADVANCED_FACE('CABTITE BP 9MM PA',(#341),#303,.T.) ;
#413=ADVANCED_FACE('CABTITE BP 9MM PA',(#352,#412),#348,.F.) ;
#445=ADVANCED_FACE('CABTITE BP 9MM PA',(#444),#419,.F.) ;
#458=ADVANCED_FACE('CABTITE BP 9MM PA',(#457),#419,.F.) ;
#464=ADVANCED_FACE('CABTITE BP 9MM PA',(#463),#118,.F.) ;
#4=APPLICATION_PROTOCOL_DEFINITION('international standard','automotive_design',2001,#1) ;
#123=B_SPLINE_CURVE_WITH_KNOTS('',5,(#124,#125,#126,#127,#128,#129,#130,#131,#132,#133,#134,#135,#136,#137,#138,#139,#140,#141,#142,#143,#144,#145,#146,#147),.UNSPECIFIED.,.F.,.U.,(6,3,3,3,3,3,3,6),(0.,2.9455467056,5.89109342604,8.83664011865,11.782186743,14.7277334059,17.6732801474,20.0351150662),.UNSPECIFIED.) ;
#153=B_SPLINE_CURVE_WITH_KNOTS('',5,(#154,#155,#156,#157,#158,#159,#160,#161,#162,#163,#164,#165,#166,#167,#168,#169,#170,#171,#172,#173,#174,#175,#176,#177),.UNSPECIFIED.,.F.,.U.,(6,3,3,3,3,3,3,6),(0.,2.94554668725,5.89109338739,8.8366400927,11.7821867621,14.7277334316,17.6732801537,20.0351150536),.UNSPECIFIED.) ;
#353=B_SPLINE_CURVE_WITH_KNOTS('',5,(#354,#355,#356,#357,#358,#359,#360,#361,#362,#363,#364,#365,#366,#367,#368,#369,#370,#371,#372,#373,#374,#375,#376,#377),.UNSPECIFIED.,.F.,.U.,(6,3,3,3,3,3,3,6),(0.,1.64665445789,3.29330890963,4.93996337572,6.58661782642,8.23327229387,9.87992676373,11.1307761119),.UNSPECIFIED.) ;
#383=B_SPLINE_CURVE_WITH_KNOTS('',5,(#384,#385,#386,#387,#388,#389,#390,#391,#392,#393,#394,#395,#396,#397,#398,#399,#400,#401,#402,#403,#404,#405,#406,#407),.UNSPECIFIED.,.F.,.U.,(6,3,3,3,3,3,3,6),(0.,1.64665445764,3.29330890893,4.93996337468,6.58661782527,8.23327229298,9.87992676313,11.1307761112),.UNSPECIFIED.) ;
#21=MANIFOLD_SOLID_BREP('CABTITE BP 9MM PA',#31) ;
#49=CIRCLE('generated circle',#48,5.4) ;
#63=CIRCLE('generated circle',#62,5.4) ;
#70=CIRCLE('generated circle',#69,5.4) ;
#91=CIRCLE('generated circle',#90,5.4) ;
#96=CIRCLE('generated circle',#95,5.4) ;
#103=CIRCLE('generated circle',#102,5.4) ;
#193=CIRCLE('generated circle',#192,29.41) ;
#200=CIRCLE('generated circle',#199,29.41) ;
#207=CIRCLE('generated circle',#206,29.41) ;
#225=CIRCLE('generated circle',#224,29.41) ;
#238=CIRCLE('generated circle',#237,29.41) ;
#269=CIRCLE('generated circle',#268,4.5) ;
#289=CIRCLE('generated circle',#288,4.5) ;
#321=CIRCLE('generated circle',#320,4.1) ;
#334=CIRCLE('generated circle',#333,4.1) ;
#423=CIRCLE('generated circle',#422,2.5) ;
#450=CIRCLE('generated circle',#449,2.5) ;
#22=COLOUR_RGB('Colour',0.823529411765,0.823529411765,1.) ;
#80=COLOUR_RGB('Colour',0.964705882353,0.937254901961,0.894117647059) ;
#303=CONICAL_SURFACE('Cone',#302,4.1,0.197395559624) ;
#87=OVER_RIDING_STYLED_ITEM(' ',(#86),#79,#29) ;
#113=OVER_RIDING_STYLED_ITEM(' ',(#86),#112,#29) ;
#184=OVER_RIDING_STYLED_ITEM(' ',(#86),#183,#29) ;
#216=OVER_RIDING_STYLED_ITEM(' ',(#86),#215,#29) ;
#234=OVER_RIDING_STYLED_ITEM(' ',(#86),#233,#29) ;
#246=OVER_RIDING_STYLED_ITEM(' ',(#86),#245,#29) ;
#253=OVER_RIDING_STYLED_ITEM(' ',(#86),#252,#29) ;
#285=OVER_RIDING_STYLED_ITEM(' ',(#86),#284,#29) ;
#298=OVER_RIDING_STYLED_ITEM(' ',(#86),#297,#29) ;
#330=OVER_RIDING_STYLED_ITEM(' ',(#86),#329,#29) ;
#343=OVER_RIDING_STYLED_ITEM(' ',(#86),#342,#29) ;
#414=OVER_RIDING_STYLED_ITEM(' ',(#86),#413,#29) ;
#446=OVER_RIDING_STYLED_ITEM(' ',(#86),#445,#29) ;
#459=OVER_RIDING_STYLED_ITEM(' ',(#86),#458,#29) ;
#465=OVER_RIDING_STYLED_ITEM(' ',(#86),#464,#29) ;
#36=CYLINDRICAL_SURFACE('generated cylinder',#35,5.4) ;
#258=CYLINDRICAL_SURFACE('generated cylinder',#257,4.5) ;
#419=CYLINDRICAL_SURFACE('generated cylinder',#418,2.5) ;
#45=EDGE_CURVE('',#42,#44,#40,.F.) ;
#52=EDGE_CURVE('',#51,#42,#49,.T.) ;
#59=EDGE_CURVE('',#58,#51,#56,.T.) ;
#66=EDGE_CURVE('',#58,#65,#63,.T.) ;
#71=EDGE_CURVE('',#65,#44,#70,.T.) ;
#92=EDGE_CURVE('',#42,#51,#91,.T.) ;
#99=EDGE_CURVE('',#44,#98,#96,.T.) ;
#104=EDGE_CURVE('',#98,#58,#103,.T.) ;
#152=EDGE_CURVE('',#149,#151,#123,.T.) ;
#178=EDGE_CURVE('',#151,#149,#153,.T.) ;
#196=EDGE_CURVE('',#195,#58,#193,.T.) ;
#203=EDGE_CURVE('',#195,#202,#200,.T.) ;
#208=EDGE_CURVE('',#202,#65,#207,.T.) ;
#226=EDGE_CURVE('',#195,#44,#225,.T.) ;
#239=EDGE_CURVE('',#195,#98,#238,.T.) ;
#265=EDGE_CURVE('',#264,#151,#262,.F.) ;
#272=EDGE_CURVE('',#264,#271,#269,.F.) ;
#277=EDGE_CURVE('',#149,#271,#276,.T.) ;
#290=EDGE_CURVE('',#271,#264,#289,.F.) ;
#310=EDGE_CURVE('',#271,#309,#307,.F.) ;
#317=EDGE_CURVE('',#316,#264,#314,.T.) ;
#322=EDGE_CURVE('',#309,#316,#321,.F.) ;
#335=EDGE_CURVE('',#316,#309,#334,.F.) ;
#382=EDGE_CURVE('',#379,#381,#353,.T.) ;
#408=EDGE_CURVE('',#381,#379,#383,.T.) ;
#428=EDGE_CURVE('',#425,#427,#423,.F.) ;
#433=EDGE_CURVE('',#379,#427,#432,.F.) ;
#438=EDGE_CURVE('',#425,#381,#437,.T.) ;
#451=EDGE_CURVE('',#427,#425,#450,.F.) ;
#72=EDGE_LOOP('',(#73,#74,#75,#76,#77)) ;
#105=EDGE_LOOP('',(#106,#107,#108,#109,#110)) ;
#119=EDGE_LOOP('',(#120,#121)) ;
#179=EDGE_LOOP('',(#180,#181)) ;
#209=EDGE_LOOP('',(#210,#211,#212,#213)) ;
#227=EDGE_LOOP('',(#228,#229,#230,#231)) ;
#240=EDGE_LOOP('',(#241,#242,#243)) ;
#247=EDGE_LOOP('',(#248,#249,#250)) ;
#278=EDGE_LOOP('',(#279,#280,#281,#282)) ;
#291=EDGE_LOOP('',(#292,#293,#294,#295)) ;
#323=EDGE_LOOP('',(#324,#325,#326,#327)) ;
#336=EDGE_LOOP('',(#337,#338,#339,#340)) ;
#349=EDGE_LOOP('',(#350,#351)) ;
#409=EDGE_LOOP('',(#410,#411)) ;
#439=EDGE_LOOP('',(#440,#441,#442,#443)) ;
#452=EDGE_LOOP('',(#453,#454,#455,#456)) ;
#460=EDGE_LOOP('',(#461,#462)) ;
#78=FACE_OUTER_BOUND('',#72,.T.) ;
#111=FACE_OUTER_BOUND('',#105,.T.) ;
#122=FACE_OUTER_BOUND('',#119,.T.) ;
#214=FACE_OUTER_BOUND('',#209,.T.) ;
#232=FACE_OUTER_BOUND('',#227,.T.) ;
#244=FACE_OUTER_BOUND('',#240,.T.) ;
#251=FACE_OUTER_BOUND('',#247,.T.) ;
#283=FACE_OUTER_BOUND('',#278,.T.) ;
#296=FACE_OUTER_BOUND('',#291,.T.) ;
#328=FACE_OUTER_BOUND('',#323,.T.) ;
#341=FACE_OUTER_BOUND('',#336,.T.) ;
#352=FACE_OUTER_BOUND('',#349,.T.) ;
#444=FACE_OUTER_BOUND('',#439,.T.) ;
#457=FACE_OUTER_BOUND('',#452,.T.) ;
#463=FACE_OUTER_BOUND('',#460,.T.) ;
#40=LINE('Line',#37,#39) ;
#56=LINE('Line',#53,#55) ;
#262=LINE('Line',#259,#261) ;
#276=LINE('Line',#273,#275) ;
#307=LINE('Line',#304,#306) ;
#314=LINE('Line',#311,#313) ;
#432=LINE('Line',#429,#431) ;
#437=LINE('Line',#434,#436) ;
#118=PLANE('',#117) ;
#348=PLANE('',#347) ;
#9=PRODUCT_CATEGORY_RELATIONSHIP(' ',' ',#7,#8) ;
#6=PRODUCT_DEFINITION_FORMATION_WITH_SPECIFIED_SOURCE(' ',' ',#5,.NOT_KNOWN.) ;
#20=SHAPE_DEFINITION_REPRESENTATION(#11,#19) ;
#189=SPHERICAL_SURFACE('',#188,29.41) ;
#221=SPHERICAL_SURFACE('',#220,29.41) ;
#42=VERTEX_POINT('',#41) ;
#44=VERTEX_POINT('',#43) ;
#51=VERTEX_POINT('',#50) ;
#58=VERTEX_POINT('',#57) ;
#65=VERTEX_POINT('',#64) ;
#98=VERTEX_POINT('',#97) ;
#149=VERTEX_POINT('',#148) ;
#151=VERTEX_POINT('',#150) ;
#195=VERTEX_POINT('',#194) ;
#202=VERTEX_POINT('',#201) ;
#264=VERTEX_POINT('',#263) ;
#271=VERTEX_POINT('',#270) ;
#309=VERTEX_POINT('',#308) ;
#316=VERTEX_POINT('',#315) ;
#379=VERTEX_POINT('',#378) ;
#381=VERTEX_POINT('',#380) ;
#425=VERTEX_POINT('',#424) ;
#427=VERTEX_POINT('',#426) ;
#12=(LENGTH_UNIT()NAMED_UNIT(*)SI_UNIT(.MILLI.,.METRE.)) ;
#13=(NAMED_UNIT(*)PLANE_ANGLE_UNIT()SI_UNIT($,.RADIAN.)) ;
#14=(NAMED_UNIT(*)SI_UNIT($,.STERADIAN.)SOLID_ANGLE_UNIT()) ;
#16=(GEOMETRIC_REPRESENTATION_CONTEXT(3)GLOBAL_UNCERTAINTY_ASSIGNED_CONTEXT((#15))GLOBAL_UNIT_ASSIGNED_CONTEXT((#12,#13,#14))REPRESENTATION_CONTEXT(' ',' ')) ;
ENDSEC;
END-ISO-10303-21;
