ISO-10303-21;
HEADER;
FILE_DESCRIPTION(('CATIA V5R24 STEP','CAx-IF Rec.Pracs.--- Model Styling and Organization---1.2---2011-12-15'),'2;1');

FILE_NAME ('D1447788_0_1056600000_1056600000.stp','2017-07-31T06:57:24+00:00',('none'),('Weidmueller'),'CATIA Version 5-6 Release 2014 SP4 HF52','CATIA V5 STEP AP214','none');

FILE_SCHEMA(('AUTOMOTIVE_DESIGN { 1 0 10303 214 1 1 1 1 }'));

ENDSEC;
DATA;
#5=PRODUCT('v5-standard_part','','',(#2)) ;
#2=PRODUCT_CONTEXT(' ',#1,'mechanical') ;
#1=APPLICATION_CONTEXT('automotive design') ;
#10=PRODUCT_DEFINITION('',' ',#6,#3) ;
#3=PRODUCT_DEFINITION_CONTEXT('part definition',#1,' ') ;
#11=PRODUCT_DEFINITION_SHAPE(' ',' ',#10) ;
#329=MECHANICAL_DESIGN_GEOMETRIC_PRESENTATION_REPRESENTATION(' ',(#46),#16) ;
#19=SHAPE_REPRESENTATION(' ',(#18),#16) ;
#18=AXIS2_PLACEMENT_3D(' ',#17,$,$) ;
#24=AXIS2_PLACEMENT_3D('Plane Axis2P3D',#21,#22,#23) ;
#31=AXIS2_PLACEMENT_3D('Plane Axis2P3D',#28,#29,#30) ;
#36=AXIS2_PLACEMENT_3D('Plane Axis2P3D',#33,#34,#35) ;
#52=AXIS2_PLACEMENT_3D('Plane Axis2P3D',#49,#50,#51) ;
#92=AXIS2_PLACEMENT_3D('Plane Axis2P3D',#89,#90,#91) ;
#123=AXIS2_PLACEMENT_3D('Plane Axis2P3D',#120,#121,#122) ;
#145=AXIS2_PLACEMENT_3D('Circle Axis2P3D',#143,#144,$) ;
#154=AXIS2_PLACEMENT_3D('Circle Axis2P3D',#152,#153,$) ;
#163=AXIS2_PLACEMENT_3D('Circle Axis2P3D',#161,#162,$) ;
#172=AXIS2_PLACEMENT_3D('Circle Axis2P3D',#170,#171,$) ;
#183=AXIS2_PLACEMENT_3D('Plane Axis2P3D',#180,#181,#182) ;
#207=AXIS2_PLACEMENT_3D('Plane Axis2P3D',#204,#205,#206) ;
#222=AXIS2_PLACEMENT_3D('Circle Axis2P3D',#220,#221,$) ;
#231=AXIS2_PLACEMENT_3D('Circle Axis2P3D',#229,#230,$) ;
#240=AXIS2_PLACEMENT_3D('Circle Axis2P3D',#238,#239,$) ;
#249=AXIS2_PLACEMENT_3D('Circle Axis2P3D',#247,#248,$) ;
#260=AXIS2_PLACEMENT_3D('Plane Axis2P3D',#257,#258,#259) ;
#272=AXIS2_PLACEMENT_3D('Cylinder Axis2P3D',#269,#270,#271) ;
#301=AXIS2_PLACEMENT_3D('Cylinder Axis2P3D',#298,#299,#300) ;
#17=CARTESIAN_POINT(' ',(0.,0.,0.)) ;
#21=CARTESIAN_POINT('Axis2P3D Location',(0.,0.,0.)) ;
#28=CARTESIAN_POINT('Axis2P3D Location',(0.,0.,0.)) ;
#33=CARTESIAN_POINT('Axis2P3D Location',(0.,0.,0.)) ;
#49=CARTESIAN_POINT('Axis2P3D Location',(0.,0.,0.)) ;
#54=CARTESIAN_POINT('Line Origine',(0.,0.,0.5)) ;
#58=CARTESIAN_POINT('Vertex',(0.,0.,0.)) ;
#60=CARTESIAN_POINT('Vertex',(0.,0.,1.)) ;
#63=CARTESIAN_POINT('Line Origine',(6.95,0.,0.)) ;
#67=CARTESIAN_POINT('Vertex',(13.9,0.,0.)) ;
#70=CARTESIAN_POINT('Line Origine',(13.9,0.,0.5)) ;
#74=CARTESIAN_POINT('Vertex',(13.9,0.,1.)) ;
#77=CARTESIAN_POINT('Line Origine',(6.95,0.,1.)) ;
#89=CARTESIAN_POINT('Axis2P3D Location',(0.,6.,0.)) ;
#94=CARTESIAN_POINT('Line Origine',(0.,6.,0.5)) ;
#98=CARTESIAN_POINT('Vertex',(3.5527136788E-015,6.,0.)) ;
#100=CARTESIAN_POINT('Vertex',(3.5527136788E-015,6.,1.)) ;
#103=CARTESIAN_POINT('Line Origine',(0.,3.,0.)) ;
#108=CARTESIAN_POINT('Line Origine',(0.,3.,1.)) ;
#120=CARTESIAN_POINT('Axis2P3D Location',(0.,0.,0.)) ;
#125=CARTESIAN_POINT('Line Origine',(6.95,6.,0.)) ;
#129=CARTESIAN_POINT('Vertex',(13.9,6.,0.)) ;
#132=CARTESIAN_POINT('Line Origine',(13.9,3.,0.)) ;
#143=CARTESIAN_POINT('Axis2P3D Location',(10.9,3.,0.)) ;
#147=CARTESIAN_POINT('Vertex',(9.55,3.,0.)) ;
#149=CARTESIAN_POINT('Vertex',(12.25,3.,0.)) ;
#152=CARTESIAN_POINT('Axis2P3D Location',(10.9,3.,0.)) ;
#161=CARTESIAN_POINT('Axis2P3D Location',(3.,3.,0.)) ;
#165=CARTESIAN_POINT('Vertex',(1.25,3.,0.)) ;
#167=CARTESIAN_POINT('Vertex',(4.75,3.,0.)) ;
#170=CARTESIAN_POINT('Axis2P3D Location',(3.,3.,0.)) ;
#180=CARTESIAN_POINT('Axis2P3D Location',(13.9,-5.18147595669E-016,0.)) ;
#185=CARTESIAN_POINT('Line Origine',(13.9,6.,0.5)) ;
#189=CARTESIAN_POINT('Vertex',(13.9,6.,1.)) ;
#192=CARTESIAN_POINT('Line Origine',(13.9,3.,1.)) ;
#204=CARTESIAN_POINT('Axis2P3D Location',(0.,0.,1.)) ;
#209=CARTESIAN_POINT('Line Origine',(6.95,6.,1.)) ;
#220=CARTESIAN_POINT('Axis2P3D Location',(10.9,3.,1.)) ;
#224=CARTESIAN_POINT('Vertex',(12.25,3.,1.)) ;
#226=CARTESIAN_POINT('Vertex',(9.55,3.,1.)) ;
#229=CARTESIAN_POINT('Axis2P3D Location',(10.9,3.,1.)) ;
#238=CARTESIAN_POINT('Axis2P3D Location',(3.,3.,1.)) ;
#242=CARTESIAN_POINT('Vertex',(4.75,3.,1.)) ;
#244=CARTESIAN_POINT('Vertex',(1.25,3.,1.)) ;
#247=CARTESIAN_POINT('Axis2P3D Location',(3.,3.,1.)) ;
#257=CARTESIAN_POINT('Axis2P3D Location',(13.9,6.,0.)) ;
#269=CARTESIAN_POINT('Axis2P3D Location',(3.,3.,0.5)) ;
#274=CARTESIAN_POINT('Line Origine',(1.25,3.,0.5)) ;
#279=CARTESIAN_POINT('Line Origine',(4.75,3.,0.5)) ;
#298=CARTESIAN_POINT('Axis2P3D Location',(10.9,3.,0.5)) ;
#303=CARTESIAN_POINT('Line Origine',(9.55,3.,0.5)) ;
#308=CARTESIAN_POINT('Line Origine',(12.25,3.,0.5)) ;
#22=DIRECTION('Axis2P3D Direction',(0.,0.,1.)) ;
#23=DIRECTION('Axis2P3D XDirection',(1.,0.,0.)) ;
#29=DIRECTION('Axis2P3D Direction',(1.,0.,0.)) ;
#30=DIRECTION('Axis2P3D XDirection',(0.,1.,0.)) ;
#34=DIRECTION('Axis2P3D Direction',(0.,1.,0.)) ;
#35=DIRECTION('Axis2P3D XDirection',(0.,0.,1.)) ;
#50=DIRECTION('Axis2P3D Direction',(0.,-1.,0.)) ;
#51=DIRECTION('Axis2P3D XDirection',(1.,0.,0.)) ;
#55=DIRECTION('Vector Direction',(0.,0.,1.)) ;
#64=DIRECTION('Vector Direction',(1.,0.,0.)) ;
#71=DIRECTION('Vector Direction',(0.,0.,1.)) ;
#78=DIRECTION('Vector Direction',(1.,0.,0.)) ;
#90=DIRECTION('Axis2P3D Direction',(-1.,0.,0.)) ;
#91=DIRECTION('Axis2P3D XDirection',(0.,-1.,0.)) ;
#95=DIRECTION('Vector Direction',(0.,0.,1.)) ;
#104=DIRECTION('Vector Direction',(0.,-1.,0.)) ;
#109=DIRECTION('Vector Direction',(0.,-1.,0.)) ;
#121=DIRECTION('Axis2P3D Direction',(0.,0.,1.)) ;
#122=DIRECTION('Axis2P3D XDirection',(1.,0.,0.)) ;
#126=DIRECTION('Vector Direction',(-1.,0.,0.)) ;
#133=DIRECTION('Vector Direction',(0.,1.,0.)) ;
#144=DIRECTION('Axis2P3D Direction',(0.,0.,1.)) ;
#153=DIRECTION('Axis2P3D Direction',(0.,0.,1.)) ;
#162=DIRECTION('Axis2P3D Direction',(0.,0.,1.)) ;
#171=DIRECTION('Axis2P3D Direction',(0.,0.,1.)) ;
#181=DIRECTION('Axis2P3D Direction',(1.,0.,0.)) ;
#182=DIRECTION('Axis2P3D XDirection',(0.,1.,0.)) ;
#186=DIRECTION('Vector Direction',(0.,0.,1.)) ;
#193=DIRECTION('Vector Direction',(0.,1.,0.)) ;
#205=DIRECTION('Axis2P3D Direction',(0.,0.,1.)) ;
#206=DIRECTION('Axis2P3D XDirection',(1.,0.,0.)) ;
#210=DIRECTION('Vector Direction',(-1.,0.,0.)) ;
#221=DIRECTION('Axis2P3D Direction',(0.,0.,1.)) ;
#230=DIRECTION('Axis2P3D Direction',(0.,0.,1.)) ;
#239=DIRECTION('Axis2P3D Direction',(0.,0.,1.)) ;
#248=DIRECTION('Axis2P3D Direction',(0.,0.,1.)) ;
#258=DIRECTION('Axis2P3D Direction',(0.,1.,-0.)) ;
#259=DIRECTION('Axis2P3D XDirection',(-1.,0.,0.)) ;
#270=DIRECTION('Axis2P3D Direction',(0.,0.,1.)) ;
#271=DIRECTION('Axis2P3D XDirection',(1.,0.,0.)) ;
#275=DIRECTION('Vector Direction',(0.,0.,1.)) ;
#280=DIRECTION('Vector Direction',(0.,0.,1.)) ;
#299=DIRECTION('Axis2P3D Direction',(0.,0.,1.)) ;
#300=DIRECTION('Axis2P3D XDirection',(1.,0.,0.)) ;
#304=DIRECTION('Vector Direction',(0.,0.,1.)) ;
#309=DIRECTION('Vector Direction',(0.,0.,1.)) ;
#47=PRESENTATION_LAYER_ASSIGNMENT('1',' ',(#38)) ;
#8=PRODUCT_RELATED_PRODUCT_CATEGORY('part',$,(#5)) ;
#7=PRODUCT_CATEGORY('part','specification') ;
#46=STYLED_ITEM(' ',(#45),#38) ;
#45=PRESENTATION_STYLE_ASSIGNMENT((#44)) ;
#44=SURFACE_STYLE_USAGE(.BOTH.,#43) ;
#43=SURFACE_SIDE_STYLE(' ',(#42)) ;
#42=SURFACE_STYLE_FILL_AREA(#41) ;
#41=FILL_AREA_STYLE(' ',(#40)) ;
#40=FILL_AREA_STYLE_COLOUR(' ',#39) ;
#56=VECTOR('Line Direction',#55,1.) ;
#65=VECTOR('Line Direction',#64,1.) ;
#72=VECTOR('Line Direction',#71,1.) ;
#79=VECTOR('Line Direction',#78,1.) ;
#96=VECTOR('Line Direction',#95,1.) ;
#105=VECTOR('Line Direction',#104,1.) ;
#110=VECTOR('Line Direction',#109,1.) ;
#127=VECTOR('Line Direction',#126,1.) ;
#134=VECTOR('Line Direction',#133,1.) ;
#187=VECTOR('Line Direction',#186,1.) ;
#194=VECTOR('Line Direction',#193,1.) ;
#211=VECTOR('Line Direction',#210,1.) ;
#276=VECTOR('Line Direction',#275,1.) ;
#281=VECTOR('Line Direction',#280,1.) ;
#305=VECTOR('Line Direction',#304,1.) ;
#310=VECTOR('Line Direction',#309,1.) ;
#15=UNCERTAINTY_MEASURE_WITH_UNIT(LENGTH_MEASURE(0.005),#12,'distance_accuracy_value','CONFUSED CURVE UNCERTAINTY') ;
#328=SHAPE_REPRESENTATION_RELATIONSHIP(' ',' ',#19,#327) ;
#83=ORIENTED_EDGE('',*,*,#62,.F.) ;
#84=ORIENTED_EDGE('',*,*,#69,.T.) ;
#85=ORIENTED_EDGE('',*,*,#76,.T.) ;
#86=ORIENTED_EDGE('',*,*,#81,.F.) ;
#114=ORIENTED_EDGE('',*,*,#102,.F.) ;
#115=ORIENTED_EDGE('',*,*,#107,.T.) ;
#116=ORIENTED_EDGE('',*,*,#62,.T.) ;
#117=ORIENTED_EDGE('',*,*,#112,.F.) ;
#138=ORIENTED_EDGE('',*,*,#107,.F.) ;
#139=ORIENTED_EDGE('',*,*,#131,.F.) ;
#140=ORIENTED_EDGE('',*,*,#136,.F.) ;
#141=ORIENTED_EDGE('',*,*,#69,.F.) ;
#158=ORIENTED_EDGE('',*,*,#151,.T.) ;
#159=ORIENTED_EDGE('',*,*,#156,.T.) ;
#176=ORIENTED_EDGE('',*,*,#169,.T.) ;
#177=ORIENTED_EDGE('',*,*,#174,.T.) ;
#198=ORIENTED_EDGE('',*,*,#76,.F.) ;
#199=ORIENTED_EDGE('',*,*,#136,.T.) ;
#200=ORIENTED_EDGE('',*,*,#191,.T.) ;
#201=ORIENTED_EDGE('',*,*,#196,.F.) ;
#215=ORIENTED_EDGE('',*,*,#81,.T.) ;
#216=ORIENTED_EDGE('',*,*,#196,.T.) ;
#217=ORIENTED_EDGE('',*,*,#213,.T.) ;
#218=ORIENTED_EDGE('',*,*,#112,.T.) ;
#235=ORIENTED_EDGE('',*,*,#228,.F.) ;
#236=ORIENTED_EDGE('',*,*,#233,.F.) ;
#253=ORIENTED_EDGE('',*,*,#246,.F.) ;
#254=ORIENTED_EDGE('',*,*,#251,.F.) ;
#263=ORIENTED_EDGE('',*,*,#191,.F.) ;
#264=ORIENTED_EDGE('',*,*,#131,.T.) ;
#265=ORIENTED_EDGE('',*,*,#102,.T.) ;
#266=ORIENTED_EDGE('',*,*,#213,.F.) ;
#285=ORIENTED_EDGE('',*,*,#246,.T.) ;
#286=ORIENTED_EDGE('',*,*,#278,.F.) ;
#287=ORIENTED_EDGE('',*,*,#174,.F.) ;
#288=ORIENTED_EDGE('',*,*,#283,.T.) ;
#292=ORIENTED_EDGE('',*,*,#251,.T.) ;
#293=ORIENTED_EDGE('',*,*,#283,.F.) ;
#294=ORIENTED_EDGE('',*,*,#169,.F.) ;
#295=ORIENTED_EDGE('',*,*,#278,.T.) ;
#314=ORIENTED_EDGE('',*,*,#228,.T.) ;
#315=ORIENTED_EDGE('',*,*,#307,.F.) ;
#316=ORIENTED_EDGE('',*,*,#156,.F.) ;
#317=ORIENTED_EDGE('',*,*,#312,.T.) ;
#321=ORIENTED_EDGE('',*,*,#233,.T.) ;
#322=ORIENTED_EDGE('',*,*,#312,.F.) ;
#323=ORIENTED_EDGE('',*,*,#151,.F.) ;
#324=ORIENTED_EDGE('',*,*,#307,.T.) ;
#160=FACE_BOUND('',#157,.T.) ;
#178=FACE_BOUND('',#175,.T.) ;
#237=FACE_BOUND('',#234,.T.) ;
#255=FACE_BOUND('',#252,.T.) ;
#48=CLOSED_SHELL('Closed Shell',(#88,#119,#179,#203,#256,#268,#290,#297,#319,#326)) ;
#327=ADVANCED_BREP_SHAPE_REPRESENTATION('NONE',(#38),#16) ;
#88=ADVANCED_FACE('V1',(#87),#53,.T.) ;
#119=ADVANCED_FACE('V1',(#118),#93,.T.) ;
#179=ADVANCED_FACE('V1',(#142,#160,#178),#124,.F.) ;
#203=ADVANCED_FACE('V1',(#202),#184,.T.) ;
#256=ADVANCED_FACE('V1',(#219,#237,#255),#208,.T.) ;
#268=ADVANCED_FACE('V1',(#267),#261,.T.) ;
#290=ADVANCED_FACE('V1',(#289),#273,.F.) ;
#297=ADVANCED_FACE('V1',(#296),#273,.F.) ;
#319=ADVANCED_FACE('V1',(#318),#302,.F.) ;
#326=ADVANCED_FACE('V1',(#325),#302,.F.) ;
#4=APPLICATION_PROTOCOL_DEFINITION('international standard','automotive_design',2001,#1) ;
#38=MANIFOLD_SOLID_BREP('V1',#48) ;
#146=CIRCLE('generated circle',#145,1.35) ;
#155=CIRCLE('generated circle',#154,1.35) ;
#164=CIRCLE('generated circle',#163,1.75) ;
#173=CIRCLE('generated circle',#172,1.75) ;
#223=CIRCLE('generated circle',#222,1.35) ;
#232=CIRCLE('generated circle',#231,1.35) ;
#241=CIRCLE('generated circle',#240,1.75) ;
#250=CIRCLE('generated circle',#249,1.75) ;
#39=COLOUR_RGB('Colour',0.823529411765,0.823529411765,1.) ;
#26=CONSTRUCTIVE_GEOMETRY_REPRESENTATION('supplemental geometry',(#25,#32,#37),#16) ;
#27=CONSTRUCTIVE_GEOMETRY_REPRESENTATION_RELATIONSHIP('supplemental geometry','',#19,#26) ;
#273=CYLINDRICAL_SURFACE('generated cylinder',#272,1.75) ;
#302=CYLINDRICAL_SURFACE('generated cylinder',#301,1.35) ;
#62=EDGE_CURVE('',#59,#61,#57,.T.) ;
#69=EDGE_CURVE('',#59,#68,#66,.T.) ;
#76=EDGE_CURVE('',#68,#75,#73,.T.) ;
#81=EDGE_CURVE('',#61,#75,#80,.T.) ;
#102=EDGE_CURVE('',#99,#101,#97,.T.) ;
#107=EDGE_CURVE('',#99,#59,#106,.T.) ;
#112=EDGE_CURVE('',#101,#61,#111,.T.) ;
#131=EDGE_CURVE('',#130,#99,#128,.T.) ;
#136=EDGE_CURVE('',#68,#130,#135,.T.) ;
#151=EDGE_CURVE('',#148,#150,#146,.T.) ;
#156=EDGE_CURVE('',#150,#148,#155,.T.) ;
#169=EDGE_CURVE('',#166,#168,#164,.T.) ;
#174=EDGE_CURVE('',#168,#166,#173,.T.) ;
#191=EDGE_CURVE('',#130,#190,#188,.T.) ;
#196=EDGE_CURVE('',#75,#190,#195,.T.) ;
#213=EDGE_CURVE('',#190,#101,#212,.T.) ;
#228=EDGE_CURVE('',#225,#227,#223,.T.) ;
#233=EDGE_CURVE('',#227,#225,#232,.T.) ;
#246=EDGE_CURVE('',#243,#245,#241,.T.) ;
#251=EDGE_CURVE('',#245,#243,#250,.T.) ;
#278=EDGE_CURVE('',#166,#245,#277,.T.) ;
#283=EDGE_CURVE('',#168,#243,#282,.T.) ;
#307=EDGE_CURVE('',#148,#227,#306,.T.) ;
#312=EDGE_CURVE('',#150,#225,#311,.T.) ;
#82=EDGE_LOOP('',(#83,#84,#85,#86)) ;
#113=EDGE_LOOP('',(#114,#115,#116,#117)) ;
#137=EDGE_LOOP('',(#138,#139,#140,#141)) ;
#157=EDGE_LOOP('',(#158,#159)) ;
#175=EDGE_LOOP('',(#176,#177)) ;
#197=EDGE_LOOP('',(#198,#199,#200,#201)) ;
#214=EDGE_LOOP('',(#215,#216,#217,#218)) ;
#234=EDGE_LOOP('',(#235,#236)) ;
#252=EDGE_LOOP('',(#253,#254)) ;
#262=EDGE_LOOP('',(#263,#264,#265,#266)) ;
#284=EDGE_LOOP('',(#285,#286,#287,#288)) ;
#291=EDGE_LOOP('',(#292,#293,#294,#295)) ;
#313=EDGE_LOOP('',(#314,#315,#316,#317)) ;
#320=EDGE_LOOP('',(#321,#322,#323,#324)) ;
#87=FACE_OUTER_BOUND('',#82,.T.) ;
#118=FACE_OUTER_BOUND('',#113,.T.) ;
#142=FACE_OUTER_BOUND('',#137,.T.) ;
#202=FACE_OUTER_BOUND('',#197,.T.) ;
#219=FACE_OUTER_BOUND('',#214,.T.) ;
#267=FACE_OUTER_BOUND('',#262,.T.) ;
#289=FACE_OUTER_BOUND('',#284,.T.) ;
#296=FACE_OUTER_BOUND('',#291,.T.) ;
#318=FACE_OUTER_BOUND('',#313,.T.) ;
#325=FACE_OUTER_BOUND('',#320,.T.) ;
#57=LINE('Line',#54,#56) ;
#66=LINE('Line',#63,#65) ;
#73=LINE('Line',#70,#72) ;
#80=LINE('Line',#77,#79) ;
#97=LINE('Line',#94,#96) ;
#106=LINE('Line',#103,#105) ;
#111=LINE('Line',#108,#110) ;
#128=LINE('Line',#125,#127) ;
#135=LINE('Line',#132,#134) ;
#188=LINE('Line',#185,#187) ;
#195=LINE('Line',#192,#194) ;
#212=LINE('Line',#209,#211) ;
#277=LINE('Line',#274,#276) ;
#282=LINE('Line',#279,#281) ;
#306=LINE('Line',#303,#305) ;
#311=LINE('Line',#308,#310) ;
#25=PLANE('Referenz_xy',#24) ;
#32=PLANE('Referenz_yz',#31) ;
#37=PLANE('Referenz_xz',#36) ;
#53=PLANE('',#52) ;
#93=PLANE('',#92) ;
#124=PLANE('',#123) ;
#184=PLANE('',#183) ;
#208=PLANE('',#207) ;
#261=PLANE('',#260) ;
#9=PRODUCT_CATEGORY_RELATIONSHIP(' ',' ',#7,#8) ;
#6=PRODUCT_DEFINITION_FORMATION_WITH_SPECIFIED_SOURCE('',' ',#5,.NOT_KNOWN.) ;
#20=SHAPE_DEFINITION_REPRESENTATION(#11,#19) ;
#59=VERTEX_POINT('',#58) ;
#61=VERTEX_POINT('',#60) ;
#68=VERTEX_POINT('',#67) ;
#75=VERTEX_POINT('',#74) ;
#99=VERTEX_POINT('',#98) ;
#101=VERTEX_POINT('',#100) ;
#130=VERTEX_POINT('',#129) ;
#148=VERTEX_POINT('',#147) ;
#150=VERTEX_POINT('',#149) ;
#166=VERTEX_POINT('',#165) ;
#168=VERTEX_POINT('',#167) ;
#190=VERTEX_POINT('',#189) ;
#225=VERTEX_POINT('',#224) ;
#227=VERTEX_POINT('',#226) ;
#243=VERTEX_POINT('',#242) ;
#245=VERTEX_POINT('',#244) ;
#12=(LENGTH_UNIT()NAMED_UNIT(*)SI_UNIT(.MILLI.,.METRE.)) ;
#13=(NAMED_UNIT(*)PLANE_ANGLE_UNIT()SI_UNIT($,.RADIAN.)) ;
#14=(NAMED_UNIT(*)SI_UNIT($,.STERADIAN.)SOLID_ANGLE_UNIT()) ;
#16=(GEOMETRIC_REPRESENTATION_CONTEXT(3)GLOBAL_UNCERTAINTY_ASSIGNED_CONTEXT((#15))GLOBAL_UNIT_ASSIGNED_CONTEXT((#12,#13,#14))REPRESENTATION_CONTEXT(' ',' ')) ;
ENDSEC;
END-ISO-10303-21;
