ISO-10303-21;
HEADER;
FILE_DESCRIPTION(('CATIA V5R24 STEP','CAx-IF Rec.Pracs.--- Model Styling and Organization---1.2---2011-12-15'),'2;1');

FILE_NAME ('401429-1_1_1246990000_1246990000.stp','2018-08-27T06:41:01+00:00',('none'),('Weidmueller'),'CATIA Version 5-6 Release 2014 SP4 HF52','CATIA V5 STEP AP214','none');

FILE_SCHEMA(('AUTOMOTIVE_DESIGN { 1 0 10303 214 1 1 1 1 }'));

ENDSEC;
DATA;
#5=PRODUCT('1246990000','','',(#2)) ;
#2=PRODUCT_CONTEXT(' ',#1,'mechanical') ;
#1=APPLICATION_CONTEXT('automotive design') ;
#10=PRODUCT_DEFINITION('',' ',#6,#3) ;
#3=PRODUCT_DEFINITION_CONTEXT('part definition',#1,' ') ;
#11=PRODUCT_DEFINITION_SHAPE(' ',' ',#10) ;
#331=MECHANICAL_DESIGN_GEOMETRIC_PRESENTATION_REPRESENTATION(' ',(#46),#16) ;
#19=SHAPE_REPRESENTATION(' ',(#18),#16) ;
#18=AXIS2_PLACEMENT_3D(' ',#17,$,$) ;
#24=AXIS2_PLACEMENT_3D('Plane Axis2P3D',#21,#22,#23) ;
#31=AXIS2_PLACEMENT_3D('Plane Axis2P3D',#28,#29,#30) ;
#36=AXIS2_PLACEMENT_3D('Plane Axis2P3D',#33,#34,#35) ;
#52=AXIS2_PLACEMENT_3D('Plane Axis2P3D',#49,#50,#51) ;
#92=AXIS2_PLACEMENT_3D('Cylinder Axis2P3D',#89,#90,#91) ;
#96=AXIS2_PLACEMENT_3D('Circle Axis2P3D',#94,#95,$) ;
#110=AXIS2_PLACEMENT_3D('Circle Axis2P3D',#108,#109,$) ;
#123=AXIS2_PLACEMENT_3D('Plane Axis2P3D',#120,#121,#122) ;
#154=AXIS2_PLACEMENT_3D('Plane Axis2P3D',#151,#152,#153) ;
#185=AXIS2_PLACEMENT_3D('Plane Axis2P3D',#182,#183,#184) ;
#216=AXIS2_PLACEMENT_3D('Cylinder Axis2P3D',#213,#214,#215) ;
#220=AXIS2_PLACEMENT_3D('Circle Axis2P3D',#218,#219,$) ;
#234=AXIS2_PLACEMENT_3D('Circle Axis2P3D',#232,#233,$) ;
#247=AXIS2_PLACEMENT_3D('Plane Axis2P3D',#244,#245,#246) ;
#278=AXIS2_PLACEMENT_3D('Plane Axis2P3D',#275,#276,#277) ;
#300=AXIS2_PLACEMENT_3D('Plane Axis2P3D',#297,#298,#299) ;
#316=AXIS2_PLACEMENT_3D('Plane Axis2P3D',#313,#314,#315) ;
#17=CARTESIAN_POINT(' ',(0.,0.,0.)) ;
#21=CARTESIAN_POINT('Axis2P3D Location',(0.,0.,0.)) ;
#28=CARTESIAN_POINT('Axis2P3D Location',(0.,0.,0.)) ;
#33=CARTESIAN_POINT('Axis2P3D Location',(0.,0.,0.)) ;
#49=CARTESIAN_POINT('Axis2P3D Location',(5.,0.,0.)) ;
#54=CARTESIAN_POINT('Line Origine',(5.,0.,0.)) ;
#58=CARTESIAN_POINT('Vertex',(0.,0.,0.)) ;
#60=CARTESIAN_POINT('Vertex',(10.,0.,0.)) ;
#63=CARTESIAN_POINT('Line Origine',(0.,30.,0.)) ;
#67=CARTESIAN_POINT('Vertex',(0.,60.,0.)) ;
#70=CARTESIAN_POINT('Line Origine',(5.,60.,0.)) ;
#74=CARTESIAN_POINT('Vertex',(10.,60.,0.)) ;
#77=CARTESIAN_POINT('Line Origine',(10.,30.,0.)) ;
#89=CARTESIAN_POINT('Axis2P3D Location',(5.,60.,6.)) ;
#94=CARTESIAN_POINT('Axis2P3D Location',(0.,60.,6.)) ;
#98=CARTESIAN_POINT('Vertex',(0.,64.2426406871,1.75735931288)) ;
#101=CARTESIAN_POINT('Line Origine',(5.,64.2426406871,1.75735931288)) ;
#105=CARTESIAN_POINT('Vertex',(10.,64.2426406871,1.75735931288)) ;
#108=CARTESIAN_POINT('Axis2P3D Location',(10.,60.,6.)) ;
#120=CARTESIAN_POINT('Axis2P3D Location',(5.,64.2426406871,1.75735931288)) ;
#125=CARTESIAN_POINT('Line Origine',(0.,85.4558441227,22.9705627485)) ;
#129=CARTESIAN_POINT('Vertex',(0.,106.669047558,44.1837661841)) ;
#132=CARTESIAN_POINT('Line Origine',(5.,106.669047558,44.1837661841)) ;
#136=CARTESIAN_POINT('Vertex',(10.,106.669047558,44.1837661841)) ;
#139=CARTESIAN_POINT('Line Origine',(10.,85.4558441227,22.9705627485)) ;
#151=CARTESIAN_POINT('Axis2P3D Location',(5.,106.669047558,44.1837661841)) ;
#156=CARTESIAN_POINT('Line Origine',(2.6645352591E-015,105.608387387,45.2444263559)) ;
#160=CARTESIAN_POINT('Vertex',(0.,104.547727215,46.3050865276)) ;
#163=CARTESIAN_POINT('Line Origine',(5.,104.547727215,46.3050865276)) ;
#167=CARTESIAN_POINT('Vertex',(10.,104.547727215,46.3050865276)) ;
#170=CARTESIAN_POINT('Line Origine',(10.,105.608387387,45.2444263559)) ;
#182=CARTESIAN_POINT('Axis2P3D Location',(5.,104.547727215,46.3050865276)) ;
#187=CARTESIAN_POINT('Line Origine',(2.6645352591E-015,83.3345237792,25.091883092)) ;
#191=CARTESIAN_POINT('Vertex',(0.,62.1213203436,3.87867965644)) ;
#194=CARTESIAN_POINT('Line Origine',(5.,62.1213203436,3.87867965644)) ;
#198=CARTESIAN_POINT('Vertex',(10.,62.1213203436,3.87867965644)) ;
#201=CARTESIAN_POINT('Line Origine',(10.,83.3345237792,25.091883092)) ;
#213=CARTESIAN_POINT('Axis2P3D Location',(5.,60.,6.)) ;
#218=CARTESIAN_POINT('Axis2P3D Location',(0.,60.,6.)) ;
#222=CARTESIAN_POINT('Vertex',(0.,60.,3.)) ;
#225=CARTESIAN_POINT('Line Origine',(5.,60.,3.)) ;
#229=CARTESIAN_POINT('Vertex',(10.,60.,3.)) ;
#232=CARTESIAN_POINT('Axis2P3D Location',(10.,60.,6.)) ;
#244=CARTESIAN_POINT('Axis2P3D Location',(5.,60.,3.)) ;
#249=CARTESIAN_POINT('Line Origine',(0.,30.,3.)) ;
#253=CARTESIAN_POINT('Vertex',(0.,3.5527136788E-015,3.)) ;
#256=CARTESIAN_POINT('Line Origine',(5.,1.42108547152E-014,3.)) ;
#260=CARTESIAN_POINT('Vertex',(10.,3.5527136788E-015,3.)) ;
#263=CARTESIAN_POINT('Line Origine',(10.,30.,3.)) ;
#275=CARTESIAN_POINT('Axis2P3D Location',(5.,0.,3.)) ;
#280=CARTESIAN_POINT('Line Origine',(0.,1.87469972833E-032,1.5)) ;
#285=CARTESIAN_POINT('Line Origine',(10.,-1.87469972833E-032,1.5)) ;
#297=CARTESIAN_POINT('Axis2P3D Location',(0.,0.,0.)) ;
#313=CARTESIAN_POINT('Axis2P3D Location',(10.,0.,0.)) ;
#22=DIRECTION('Axis2P3D Direction',(0.,0.,1.)) ;
#23=DIRECTION('Axis2P3D XDirection',(1.,0.,0.)) ;
#29=DIRECTION('Axis2P3D Direction',(1.,0.,0.)) ;
#30=DIRECTION('Axis2P3D XDirection',(0.,1.,0.)) ;
#34=DIRECTION('Axis2P3D Direction',(0.,1.,0.)) ;
#35=DIRECTION('Axis2P3D XDirection',(0.,0.,1.)) ;
#50=DIRECTION('Axis2P3D Direction',(0.,0.,-1.)) ;
#51=DIRECTION('Axis2P3D XDirection',(0.,1.,0.)) ;
#55=DIRECTION('Vector Direction',(1.,-3.74939945665E-033,0.)) ;
#64=DIRECTION('Vector Direction',(0.,1.,0.)) ;
#71=DIRECTION('Vector Direction',(1.,0.,0.)) ;
#78=DIRECTION('Vector Direction',(0.,1.,0.)) ;
#90=DIRECTION('Axis2P3D Direction',(1.,0.,0.)) ;
#91=DIRECTION('Axis2P3D XDirection',(-0.,-1.83697019872E-016,-1.)) ;
#95=DIRECTION('Axis2P3D Direction',(1.,0.,0.)) ;
#102=DIRECTION('Vector Direction',(1.,0.,0.)) ;
#109=DIRECTION('Axis2P3D Direction',(1.,0.,0.)) ;
#121=DIRECTION('Axis2P3D Direction',(2.65122578118E-033,0.707106781187,-0.707106781187)) ;
#122=DIRECTION('Axis2P3D XDirection',(0.,0.707106781187,0.707106781187)) ;
#126=DIRECTION('Vector Direction',(0.,0.707106781187,0.707106781187)) ;
#133=DIRECTION('Vector Direction',(1.,0.,0.)) ;
#140=DIRECTION('Vector Direction',(0.,0.707106781187,0.707106781187)) ;
#152=DIRECTION('Axis2P3D Direction',(2.65122578118E-033,0.707106781187,0.707106781187)) ;
#153=DIRECTION('Axis2P3D XDirection',(0.,-0.707106781187,0.707106781187)) ;
#157=DIRECTION('Vector Direction',(0.,-0.707106781187,0.707106781187)) ;
#164=DIRECTION('Vector Direction',(1.,0.,0.)) ;
#171=DIRECTION('Vector Direction',(0.,-0.707106781187,0.707106781187)) ;
#183=DIRECTION('Axis2P3D Direction',(-2.65122578118E-033,-0.707106781187,0.707106781187)) ;
#184=DIRECTION('Axis2P3D XDirection',(0.,-0.707106781187,-0.707106781187)) ;
#188=DIRECTION('Vector Direction',(0.,-0.707106781187,-0.707106781187)) ;
#195=DIRECTION('Vector Direction',(1.,0.,0.)) ;
#202=DIRECTION('Vector Direction',(0.,-0.707106781187,-0.707106781187)) ;
#214=DIRECTION('Axis2P3D Direction',(1.,0.,0.)) ;
#215=DIRECTION('Axis2P3D XDirection',(-0.,-1.83697019872E-016,-1.)) ;
#219=DIRECTION('Axis2P3D Direction',(1.,0.,0.)) ;
#226=DIRECTION('Vector Direction',(1.,0.,0.)) ;
#233=DIRECTION('Axis2P3D Direction',(1.,0.,0.)) ;
#245=DIRECTION('Axis2P3D Direction',(0.,0.,1.)) ;
#246=DIRECTION('Axis2P3D XDirection',(0.,-1.,0.)) ;
#250=DIRECTION('Vector Direction',(0.,-1.,0.)) ;
#257=DIRECTION('Vector Direction',(1.,0.,0.)) ;
#264=DIRECTION('Vector Direction',(0.,-1.,0.)) ;
#276=DIRECTION('Axis2P3D Direction',(-3.74939945665E-033,-1.,-0.)) ;
#277=DIRECTION('Axis2P3D XDirection',(0.,0.,-1.)) ;
#281=DIRECTION('Vector Direction',(0.,0.,-1.)) ;
#286=DIRECTION('Vector Direction',(0.,0.,-1.)) ;
#298=DIRECTION('Axis2P3D Direction',(1.,0.,0.)) ;
#299=DIRECTION('Axis2P3D XDirection',(0.,1.,0.)) ;
#314=DIRECTION('Axis2P3D Direction',(1.,0.,0.)) ;
#315=DIRECTION('Axis2P3D XDirection',(0.,1.,0.)) ;
#47=PRESENTATION_LAYER_ASSIGNMENT('1',' ',(#38)) ;
#8=PRODUCT_RELATED_PRODUCT_CATEGORY('part',$,(#5)) ;
#7=PRODUCT_CATEGORY('part','specification') ;
#46=STYLED_ITEM(' ',(#45),#38) ;
#45=PRESENTATION_STYLE_ASSIGNMENT((#44)) ;
#44=SURFACE_STYLE_USAGE(.BOTH.,#43) ;
#43=SURFACE_SIDE_STYLE(' ',(#42)) ;
#42=SURFACE_STYLE_FILL_AREA(#41) ;
#41=FILL_AREA_STYLE(' ',(#40)) ;
#40=FILL_AREA_STYLE_COLOUR(' ',#39) ;
#56=VECTOR('Line Direction',#55,1.) ;
#65=VECTOR('Line Direction',#64,1.) ;
#72=VECTOR('Line Direction',#71,1.) ;
#79=VECTOR('Line Direction',#78,1.) ;
#103=VECTOR('Line Direction',#102,1.) ;
#127=VECTOR('Line Direction',#126,1.) ;
#134=VECTOR('Line Direction',#133,1.) ;
#141=VECTOR('Line Direction',#140,1.) ;
#158=VECTOR('Line Direction',#157,1.) ;
#165=VECTOR('Line Direction',#164,1.) ;
#172=VECTOR('Line Direction',#171,1.) ;
#189=VECTOR('Line Direction',#188,1.) ;
#196=VECTOR('Line Direction',#195,1.) ;
#203=VECTOR('Line Direction',#202,1.) ;
#227=VECTOR('Line Direction',#226,1.) ;
#251=VECTOR('Line Direction',#250,1.) ;
#258=VECTOR('Line Direction',#257,1.) ;
#265=VECTOR('Line Direction',#264,1.) ;
#282=VECTOR('Line Direction',#281,1.) ;
#287=VECTOR('Line Direction',#286,1.) ;
#15=UNCERTAINTY_MEASURE_WITH_UNIT(LENGTH_MEASURE(0.005),#12,'distance_accuracy_value','CONFUSED CURVE UNCERTAINTY') ;
#330=SHAPE_REPRESENTATION_RELATIONSHIP(' ',' ',#19,#329) ;
#83=ORIENTED_EDGE('',*,*,#62,.F.) ;
#84=ORIENTED_EDGE('',*,*,#69,.T.) ;
#85=ORIENTED_EDGE('',*,*,#76,.T.) ;
#86=ORIENTED_EDGE('',*,*,#81,.F.) ;
#114=ORIENTED_EDGE('',*,*,#76,.F.) ;
#115=ORIENTED_EDGE('',*,*,#100,.T.) ;
#116=ORIENTED_EDGE('',*,*,#107,.T.) ;
#117=ORIENTED_EDGE('',*,*,#112,.F.) ;
#145=ORIENTED_EDGE('',*,*,#107,.F.) ;
#146=ORIENTED_EDGE('',*,*,#131,.T.) ;
#147=ORIENTED_EDGE('',*,*,#138,.T.) ;
#148=ORIENTED_EDGE('',*,*,#143,.F.) ;
#176=ORIENTED_EDGE('',*,*,#138,.F.) ;
#177=ORIENTED_EDGE('',*,*,#162,.T.) ;
#178=ORIENTED_EDGE('',*,*,#169,.T.) ;
#179=ORIENTED_EDGE('',*,*,#174,.F.) ;
#207=ORIENTED_EDGE('',*,*,#169,.F.) ;
#208=ORIENTED_EDGE('',*,*,#193,.T.) ;
#209=ORIENTED_EDGE('',*,*,#200,.T.) ;
#210=ORIENTED_EDGE('',*,*,#205,.F.) ;
#238=ORIENTED_EDGE('',*,*,#200,.F.) ;
#239=ORIENTED_EDGE('',*,*,#224,.T.) ;
#240=ORIENTED_EDGE('',*,*,#231,.T.) ;
#241=ORIENTED_EDGE('',*,*,#236,.F.) ;
#269=ORIENTED_EDGE('',*,*,#231,.F.) ;
#270=ORIENTED_EDGE('',*,*,#255,.T.) ;
#271=ORIENTED_EDGE('',*,*,#262,.T.) ;
#272=ORIENTED_EDGE('',*,*,#267,.F.) ;
#291=ORIENTED_EDGE('',*,*,#262,.F.) ;
#292=ORIENTED_EDGE('',*,*,#284,.T.) ;
#293=ORIENTED_EDGE('',*,*,#62,.T.) ;
#294=ORIENTED_EDGE('',*,*,#289,.F.) ;
#303=ORIENTED_EDGE('',*,*,#284,.F.) ;
#304=ORIENTED_EDGE('',*,*,#255,.F.) ;
#305=ORIENTED_EDGE('',*,*,#224,.F.) ;
#306=ORIENTED_EDGE('',*,*,#193,.F.) ;
#307=ORIENTED_EDGE('',*,*,#162,.F.) ;
#308=ORIENTED_EDGE('',*,*,#131,.F.) ;
#309=ORIENTED_EDGE('',*,*,#100,.F.) ;
#310=ORIENTED_EDGE('',*,*,#69,.F.) ;
#319=ORIENTED_EDGE('',*,*,#81,.T.) ;
#320=ORIENTED_EDGE('',*,*,#112,.T.) ;
#321=ORIENTED_EDGE('',*,*,#143,.T.) ;
#322=ORIENTED_EDGE('',*,*,#174,.T.) ;
#323=ORIENTED_EDGE('',*,*,#205,.T.) ;
#324=ORIENTED_EDGE('',*,*,#236,.T.) ;
#325=ORIENTED_EDGE('',*,*,#267,.T.) ;
#326=ORIENTED_EDGE('',*,*,#289,.T.) ;
#48=CLOSED_SHELL('Closed Shell',(#88,#119,#150,#181,#212,#243,#274,#296,#312,#328)) ;
#329=ADVANCED_BREP_SHAPE_REPRESENTATION('NONE',(#38),#16) ;
#88=ADVANCED_FACE('Koerper.2',(#87),#53,.T.) ;
#119=ADVANCED_FACE('Koerper.2',(#118),#93,.T.) ;
#150=ADVANCED_FACE('Koerper.2',(#149),#124,.T.) ;
#181=ADVANCED_FACE('Koerper.2',(#180),#155,.T.) ;
#212=ADVANCED_FACE('Koerper.2',(#211),#186,.T.) ;
#243=ADVANCED_FACE('Koerper.2',(#242),#217,.F.) ;
#274=ADVANCED_FACE('Koerper.2',(#273),#248,.T.) ;
#296=ADVANCED_FACE('Koerper.2',(#295),#279,.T.) ;
#312=ADVANCED_FACE('Koerper.2',(#311),#301,.F.) ;
#328=ADVANCED_FACE('Koerper.2',(#327),#317,.T.) ;
#4=APPLICATION_PROTOCOL_DEFINITION('international standard','automotive_design',2001,#1) ;
#38=MANIFOLD_SOLID_BREP('Koerper.2',#48) ;
#97=CIRCLE('generated circle',#96,6.) ;
#111=CIRCLE('generated circle',#110,6.) ;
#221=CIRCLE('generated circle',#220,3.) ;
#235=CIRCLE('generated circle',#234,3.) ;
#39=COLOUR_RGB('Colour',0.823529411765,0.823529411765,1.) ;
#26=CONSTRUCTIVE_GEOMETRY_REPRESENTATION('supplemental geometry',(#25,#32,#37),#16) ;
#27=CONSTRUCTIVE_GEOMETRY_REPRESENTATION_RELATIONSHIP('supplemental geometry','',#19,#26) ;
#93=CYLINDRICAL_SURFACE('generated cylinder',#92,6.) ;
#217=CYLINDRICAL_SURFACE('generated cylinder',#216,3.) ;
#62=EDGE_CURVE('',#59,#61,#57,.T.) ;
#69=EDGE_CURVE('',#59,#68,#66,.T.) ;
#76=EDGE_CURVE('',#68,#75,#73,.T.) ;
#81=EDGE_CURVE('',#61,#75,#80,.T.) ;
#100=EDGE_CURVE('',#68,#99,#97,.T.) ;
#107=EDGE_CURVE('',#99,#106,#104,.T.) ;
#112=EDGE_CURVE('',#75,#106,#111,.T.) ;
#131=EDGE_CURVE('',#99,#130,#128,.T.) ;
#138=EDGE_CURVE('',#130,#137,#135,.T.) ;
#143=EDGE_CURVE('',#106,#137,#142,.T.) ;
#162=EDGE_CURVE('',#130,#161,#159,.T.) ;
#169=EDGE_CURVE('',#161,#168,#166,.T.) ;
#174=EDGE_CURVE('',#137,#168,#173,.T.) ;
#193=EDGE_CURVE('',#161,#192,#190,.T.) ;
#200=EDGE_CURVE('',#192,#199,#197,.T.) ;
#205=EDGE_CURVE('',#168,#199,#204,.T.) ;
#224=EDGE_CURVE('',#192,#223,#221,.F.) ;
#231=EDGE_CURVE('',#223,#230,#228,.T.) ;
#236=EDGE_CURVE('',#199,#230,#235,.F.) ;
#255=EDGE_CURVE('',#223,#254,#252,.T.) ;
#262=EDGE_CURVE('',#254,#261,#259,.T.) ;
#267=EDGE_CURVE('',#230,#261,#266,.T.) ;
#284=EDGE_CURVE('',#254,#59,#283,.T.) ;
#289=EDGE_CURVE('',#261,#61,#288,.T.) ;
#82=EDGE_LOOP('',(#83,#84,#85,#86)) ;
#113=EDGE_LOOP('',(#114,#115,#116,#117)) ;
#144=EDGE_LOOP('',(#145,#146,#147,#148)) ;
#175=EDGE_LOOP('',(#176,#177,#178,#179)) ;
#206=EDGE_LOOP('',(#207,#208,#209,#210)) ;
#237=EDGE_LOOP('',(#238,#239,#240,#241)) ;
#268=EDGE_LOOP('',(#269,#270,#271,#272)) ;
#290=EDGE_LOOP('',(#291,#292,#293,#294)) ;
#302=EDGE_LOOP('',(#303,#304,#305,#306,#307,#308,#309,#310)) ;
#318=EDGE_LOOP('',(#319,#320,#321,#322,#323,#324,#325,#326)) ;
#87=FACE_OUTER_BOUND('',#82,.T.) ;
#118=FACE_OUTER_BOUND('',#113,.T.) ;
#149=FACE_OUTER_BOUND('',#144,.T.) ;
#180=FACE_OUTER_BOUND('',#175,.T.) ;
#211=FACE_OUTER_BOUND('',#206,.T.) ;
#242=FACE_OUTER_BOUND('',#237,.T.) ;
#273=FACE_OUTER_BOUND('',#268,.T.) ;
#295=FACE_OUTER_BOUND('',#290,.T.) ;
#311=FACE_OUTER_BOUND('',#302,.T.) ;
#327=FACE_OUTER_BOUND('',#318,.T.) ;
#57=LINE('Line',#54,#56) ;
#66=LINE('Line',#63,#65) ;
#73=LINE('Line',#70,#72) ;
#80=LINE('Line',#77,#79) ;
#104=LINE('Line',#101,#103) ;
#128=LINE('Line',#125,#127) ;
#135=LINE('Line',#132,#134) ;
#142=LINE('Line',#139,#141) ;
#159=LINE('Line',#156,#158) ;
#166=LINE('Line',#163,#165) ;
#173=LINE('Line',#170,#172) ;
#190=LINE('Line',#187,#189) ;
#197=LINE('Line',#194,#196) ;
#204=LINE('Line',#201,#203) ;
#228=LINE('Line',#225,#227) ;
#252=LINE('Line',#249,#251) ;
#259=LINE('Line',#256,#258) ;
#266=LINE('Line',#263,#265) ;
#283=LINE('Line',#280,#282) ;
#288=LINE('Line',#285,#287) ;
#25=PLANE('Referenz_xy',#24) ;
#32=PLANE('Referenz_yz',#31) ;
#37=PLANE('Referenz_zx',#36) ;
#53=PLANE('',#52) ;
#124=PLANE('',#123) ;
#155=PLANE('',#154) ;
#186=PLANE('',#185) ;
#248=PLANE('',#247) ;
#279=PLANE('',#278) ;
#301=PLANE('',#300) ;
#317=PLANE('',#316) ;
#9=PRODUCT_CATEGORY_RELATIONSHIP(' ',' ',#7,#8) ;
#6=PRODUCT_DEFINITION_FORMATION_WITH_SPECIFIED_SOURCE('',' ',#5,.NOT_KNOWN.) ;
#20=SHAPE_DEFINITION_REPRESENTATION(#11,#19) ;
#59=VERTEX_POINT('',#58) ;
#61=VERTEX_POINT('',#60) ;
#68=VERTEX_POINT('',#67) ;
#75=VERTEX_POINT('',#74) ;
#99=VERTEX_POINT('',#98) ;
#106=VERTEX_POINT('',#105) ;
#130=VERTEX_POINT('',#129) ;
#137=VERTEX_POINT('',#136) ;
#161=VERTEX_POINT('',#160) ;
#168=VERTEX_POINT('',#167) ;
#192=VERTEX_POINT('',#191) ;
#199=VERTEX_POINT('',#198) ;
#223=VERTEX_POINT('',#222) ;
#230=VERTEX_POINT('',#229) ;
#254=VERTEX_POINT('',#253) ;
#261=VERTEX_POINT('',#260) ;
#12=(LENGTH_UNIT()NAMED_UNIT(*)SI_UNIT(.MILLI.,.METRE.)) ;
#13=(NAMED_UNIT(*)PLANE_ANGLE_UNIT()SI_UNIT($,.RADIAN.)) ;
#14=(NAMED_UNIT(*)SI_UNIT($,.STERADIAN.)SOLID_ANGLE_UNIT()) ;
#16=(GEOMETRIC_REPRESENTATION_CONTEXT(3)GLOBAL_UNCERTAINTY_ASSIGNED_CONTEXT((#15))GLOBAL_UNIT_ASSIGNED_CONTEXT((#12,#13,#14))REPRESENTATION_CONTEXT(' ',' ')) ;
ENDSEC;
END-ISO-10303-21;
