ISO-10303-21;
HEADER;
FILE_DESCRIPTION(('CATIA V5R22 STEP214','CAx-IF Rec.Pracs.--- Model Styling and Organization---1.4--- 2014-01-23'),'2;1');

FILE_NAME ('001655-2_0', '2021-06-22T06:11:33+00:00', ('Weidmueller Interface'), ('Weidmueller'), 'CATIA Version 5-6 Release 2016 SP3 HF44', 'CATIA V5 STEP AP214', 'none');

FILE_SCHEMA(('AUTOMOTIVE_DESIGN { 1 0 10303 214 1 1 1 1 }'));

ENDSEC;
DATA;
#5=PRODUCT('0270460000','','',(#2)) ;
#2=PRODUCT_CONTEXT(' ',#1,'mechanical') ;
#1=APPLICATION_CONTEXT('automotive design') ;
#10=PRODUCT_DEFINITION('',' ',#6,#3) ;
#3=PRODUCT_DEFINITION_CONTEXT('part definition',#1,' ') ;
#11=PRODUCT_DEFINITION_SHAPE(' ',' ',#10) ;
#482=MECHANICAL_DESIGN_GEOMETRIC_PRESENTATION_REPRESENTATION(' ',(#29),#16) ;
#483=MECHANICAL_DESIGN_GEOMETRIC_PRESENTATION_REPRESENTATION(' ',(#479),#16) ;
#19=SHAPE_REPRESENTATION(' ',(#18),#16) ;
#18=AXIS2_PLACEMENT_3D(' ',#17,$,$) ;
#35=AXIS2_PLACEMENT_3D('Cone Axis2P3D',#32,#33,#34) ;
#39=AXIS2_PLACEMENT_3D('Circle Axis2P3D',#37,#38,$) ;
#55=AXIS2_PLACEMENT_3D('Circle Axis2P3D',#53,#54,$) ;
#74=AXIS2_PLACEMENT_3D('Circle Axis2P3D',#72,#73,$) ;
#79=AXIS2_PLACEMENT_3D('Circle Axis2P3D',#77,#78,$) ;
#92=AXIS2_PLACEMENT_3D('Torus Axis2P3D',#89,#90,#91) ;
#96=AXIS2_PLACEMENT_3D('Circle Axis2P3D',#94,#95,$) ;
#103=AXIS2_PLACEMENT_3D('Circle Axis2P3D',#101,#102,$) ;
#110=AXIS2_PLACEMENT_3D('Circle Axis2P3D',#108,#109,$) ;
#122=AXIS2_PLACEMENT_3D('Circle Axis2P3D',#120,#121,$) ;
#135=AXIS2_PLACEMENT_3D('Plane Axis2P3D',#132,#133,#134) ;
#145=AXIS2_PLACEMENT_3D('Plane Axis2P3D',#142,#143,#144) ;
#203=AXIS2_PLACEMENT_3D('Circle Axis2P3D',#201,#202,$) ;
#212=AXIS2_PLACEMENT_3D('Circle Axis2P3D',#210,#211,$) ;
#223=AXIS2_PLACEMENT_3D('Plane Axis2P3D',#220,#221,#222) ;
#254=AXIS2_PLACEMENT_3D('Plane Axis2P3D',#251,#252,#253) ;
#278=AXIS2_PLACEMENT_3D('Plane Axis2P3D',#275,#276,#277) ;
#302=AXIS2_PLACEMENT_3D('Plane Axis2P3D',#299,#300,#301) ;
#326=AXIS2_PLACEMENT_3D('Plane Axis2P3D',#323,#324,#325) ;
#350=AXIS2_PLACEMENT_3D('Plane Axis2P3D',#347,#348,#349) ;
#367=AXIS2_PLACEMENT_3D('Plane Axis2P3D',#364,#365,#366) ;
#380=AXIS2_PLACEMENT_3D('Circle Axis2P3D',#378,#379,$) ;
#389=AXIS2_PLACEMENT_3D('Circle Axis2P3D',#387,#388,$) ;
#400=AXIS2_PLACEMENT_3D('Torus Axis2P3D',#397,#398,#399) ;
#404=AXIS2_PLACEMENT_3D('Circle Axis2P3D',#402,#403,$) ;
#413=AXIS2_PLACEMENT_3D('Circle Axis2P3D',#411,#412,$) ;
#418=AXIS2_PLACEMENT_3D('Circle Axis2P3D',#416,#417,$) ;
#430=AXIS2_PLACEMENT_3D('Circle Axis2P3D',#428,#429,$) ;
#443=AXIS2_PLACEMENT_3D('Cone Axis2P3D',#440,#441,#442) ;
#474=AXIS2_PLACEMENT_3D('Achsensystem.1',#471,#472,#473) ;
#17=CARTESIAN_POINT(' ',(0.,0.,0.)) ;
#32=CARTESIAN_POINT('Axis2P3D Location',(2.49999980735,8.,34.5)) ;
#37=CARTESIAN_POINT('Axis2P3D Location',(2.49999980735,8.,34.5)) ;
#41=CARTESIAN_POINT('Vertex',(2.49999980735,7.30483296418,35.7724947236)) ;
#43=CARTESIAN_POINT('Vertex',(2.5,8.69516703098,33.2275052853)) ;
#46=CARTESIAN_POINT('Line Origine',(1.51308389274,7.28003608223,35.8178851115)) ;
#50=CARTESIAN_POINT('Vertex',(0.526167978121,7.25523920028,35.8632754995)) ;
#53=CARTESIAN_POINT('Axis2P3D Location',(0.526167978121,8.,34.5)) ;
#57=CARTESIAN_POINT('Vertex',(0.526167978121,8.74476079972,33.1367245005)) ;
#60=CARTESIAN_POINT('Line Origine',(1.51308389274,8.71996391777,33.1821148885)) ;
#72=CARTESIAN_POINT('Axis2P3D Location',(2.49999980735,8.,34.5)) ;
#77=CARTESIAN_POINT('Axis2P3D Location',(0.526167978121,8.,34.5)) ;
#89=CARTESIAN_POINT('Axis2P3D Location',(0.5,8.,34.5)) ;
#94=CARTESIAN_POINT('Axis2P3D Location',(0.5,7.49462345157,35.4250855667)) ;
#98=CARTESIAN_POINT('Vertex',(-2.00395255945E-014,7.49462345157,35.4250855667)) ;
#101=CARTESIAN_POINT('Axis2P3D Location',(-1.86517468137E-014,8.,34.5)) ;
#105=CARTESIAN_POINT('Vertex',(-1.72639680329E-014,8.50537654843,33.5749144333)) ;
#108=CARTESIAN_POINT('Axis2P3D Location',(0.5,8.50537654843,33.5749144333)) ;
#120=CARTESIAN_POINT('Axis2P3D Location',(-1.86517468137E-014,8.,34.5)) ;
#132=CARTESIAN_POINT('Axis2P3D Location',(-1.06581410364E-014,42.,35.5541293856)) ;
#142=CARTESIAN_POINT('Axis2P3D Location',(2.5,25.,22.25)) ;
#147=CARTESIAN_POINT('Line Origine',(2.5,44.5,39.)) ;
#151=CARTESIAN_POINT('Vertex',(2.5,39.,44.5)) ;
#153=CARTESIAN_POINT('Vertex',(2.5,50.,33.5)) ;
#156=CARTESIAN_POINT('Line Origine',(2.5,50.,16.75)) ;
#160=CARTESIAN_POINT('Vertex',(2.5,50.,0.)) ;
#163=CARTESIAN_POINT('Line Origine',(2.5,25.,0.)) ;
#167=CARTESIAN_POINT('Vertex',(2.5,1.06581410364E-014,0.)) ;
#170=CARTESIAN_POINT('Line Origine',(2.5,6.18650910348E-032,16.75)) ;
#174=CARTESIAN_POINT('Vertex',(2.5,-1.26542231662E-031,33.5)) ;
#177=CARTESIAN_POINT('Line Origine',(2.5,5.5,39.)) ;
#181=CARTESIAN_POINT('Vertex',(2.5,11.,44.5)) ;
#184=CARTESIAN_POINT('Line Origine',(2.5,25.,44.5)) ;
#201=CARTESIAN_POINT('Axis2P3D Location',(2.5,42.,34.5)) ;
#205=CARTESIAN_POINT('Vertex',(2.5,42.695167031,33.2275052853)) ;
#207=CARTESIAN_POINT('Vertex',(2.49999980735,41.3048329642,35.7724947236)) ;
#210=CARTESIAN_POINT('Axis2P3D Location',(2.5,42.,34.5)) ;
#220=CARTESIAN_POINT('Axis2P3D Location',(2.5,50.,33.5)) ;
#225=CARTESIAN_POINT('Line Origine',(5.5,44.5,39.)) ;
#229=CARTESIAN_POINT('Vertex',(5.5,39.,44.5)) ;
#231=CARTESIAN_POINT('Vertex',(5.5,50.,33.5)) ;
#234=CARTESIAN_POINT('Line Origine',(4.,50.,33.5)) ;
#239=CARTESIAN_POINT('Line Origine',(4.,39.,44.5)) ;
#251=CARTESIAN_POINT('Axis2P3D Location',(2.5,50.,33.5)) ;
#256=CARTESIAN_POINT('Line Origine',(5.5,50.,16.75)) ;
#260=CARTESIAN_POINT('Vertex',(5.5,50.,0.)) ;
#263=CARTESIAN_POINT('Line Origine',(4.,50.,-9.18485099361E-017)) ;
#275=CARTESIAN_POINT('Axis2P3D Location',(2.5,1.06581410364E-014,0.)) ;
#280=CARTESIAN_POINT('Line Origine',(5.5,25.,-1.83697019872E-016)) ;
#284=CARTESIAN_POINT('Vertex',(5.5,1.06581410364E-014,0.)) ;
#287=CARTESIAN_POINT('Line Origine',(4.,1.03825955066E-014,-9.18485099361E-017)) ;
#299=CARTESIAN_POINT('Axis2P3D Location',(2.5,0.,-3.5527136788E-015)) ;
#304=CARTESIAN_POINT('Line Origine',(5.5,-5.51091059616E-016,16.75)) ;
#308=CARTESIAN_POINT('Vertex',(5.5,-1.26542231662E-031,33.5)) ;
#311=CARTESIAN_POINT('Line Origine',(4.,-2.75545529808E-016,33.5)) ;
#323=CARTESIAN_POINT('Axis2P3D Location',(2.5,-1.42108547152E-014,33.5)) ;
#328=CARTESIAN_POINT('Line Origine',(5.5,5.5,39.)) ;
#332=CARTESIAN_POINT('Vertex',(5.5,11.,44.5)) ;
#335=CARTESIAN_POINT('Line Origine',(4.,11.,44.5)) ;
#347=CARTESIAN_POINT('Axis2P3D Location',(2.5,39.,44.5)) ;
#352=CARTESIAN_POINT('Line Origine',(5.5,25.,44.5)) ;
#364=CARTESIAN_POINT('Axis2P3D Location',(5.5,25.,22.25)) ;
#378=CARTESIAN_POINT('Axis2P3D Location',(-9.22467989037E-015,42.,34.5)) ;
#382=CARTESIAN_POINT('Vertex',(-1.33781874467E-014,41.4946234516,35.4250855667)) ;
#384=CARTESIAN_POINT('Vertex',(-1.06026298852E-014,42.5053765484,33.5749144333)) ;
#387=CARTESIAN_POINT('Axis2P3D Location',(-9.22467989037E-015,42.,34.5)) ;
#397=CARTESIAN_POINT('Axis2P3D Location',(0.5,42.,34.5)) ;
#402=CARTESIAN_POINT('Axis2P3D Location',(0.526167978121,42.,34.5)) ;
#406=CARTESIAN_POINT('Vertex',(0.526167978121,42.7447607997,33.1367245005)) ;
#408=CARTESIAN_POINT('Vertex',(0.526167978121,41.2552392003,35.8632754995)) ;
#411=CARTESIAN_POINT('Axis2P3D Location',(0.5,42.5053765484,33.5749144333)) ;
#416=CARTESIAN_POINT('Axis2P3D Location',(0.5,41.4946234516,35.4250855667)) ;
#428=CARTESIAN_POINT('Axis2P3D Location',(0.526167978121,42.,34.5)) ;
#440=CARTESIAN_POINT('Axis2P3D Location',(2.49999980735,42.,34.5)) ;
#445=CARTESIAN_POINT('Line Origine',(1.51308389274,42.7199639178,33.1821148885)) ;
#450=CARTESIAN_POINT('Line Origine',(1.51308389274,41.2800360822,35.8178851115)) ;
#471=CARTESIAN_POINT('Axis2P3D Location',(0.,0.,0.)) ;
#33=DIRECTION('Axis2P3D Direction',(-1.,1.83697019872E-016,-1.35985313156E-015)) ;
#34=DIRECTION('Axis2P3D XDirection',(0.,-0.479425538604,0.87758256189)) ;
#38=DIRECTION('Axis2P3D Direction',(-1.,1.83697019872E-016,-1.35985313156E-015)) ;
#47=DIRECTION('Vector Direction',(-0.998629534755,-0.0250911940101,0.0459291225587)) ;
#54=DIRECTION('Axis2P3D Direction',(-1.,1.83697019872E-016,-1.35985313156E-015)) ;
#61=DIRECTION('Vector Direction',(-0.998629534755,0.0250911940101,-0.0459291225587)) ;
#73=DIRECTION('Axis2P3D Direction',(-1.,1.83697019872E-016,-1.35985313156E-015)) ;
#78=DIRECTION('Axis2P3D Direction',(-1.,1.83697019872E-016,-1.35985313156E-015)) ;
#90=DIRECTION('Axis2P3D Direction',(1.,-1.83697019872E-016,1.35985313156E-015)) ;
#91=DIRECTION('Axis2P3D XDirection',(-1.36917721086E-015,-0.479425538604,0.87758256189)) ;
#95=DIRECTION('Axis2P3D Direction',(-4.90739018711E-016,0.87758256189,0.479425538604)) ;
#102=DIRECTION('Axis2P3D Direction',(1.,-1.83697019872E-016,1.35985313156E-015)) ;
#109=DIRECTION('Axis2P3D Direction',(4.90739018711E-016,-0.87758256189,-0.479425538604)) ;
#121=DIRECTION('Axis2P3D Direction',(1.,-1.83697019872E-016,1.35985313156E-015)) ;
#133=DIRECTION('Axis2P3D Direction',(1.,-1.83697019872E-016,1.35985313156E-015)) ;
#134=DIRECTION('Axis2P3D XDirection',(-1.83697019872E-016,-1.,0.)) ;
#143=DIRECTION('Axis2P3D Direction',(-1.,1.83697019872E-016,6.12323399574E-017)) ;
#144=DIRECTION('Axis2P3D XDirection',(-1.83697019872E-016,-1.,0.)) ;
#148=DIRECTION('Vector Direction',(-8.56414068373E-017,-0.707106781187,0.707106781187)) ;
#157=DIRECTION('Vector Direction',(-6.62819716194E-017,0.,-1.)) ;
#164=DIRECTION('Vector Direction',(1.7763568394E-016,1.,0.)) ;
#171=DIRECTION('Vector Direction',(6.62819716194E-017,-1.124819837E-032,1.)) ;
#178=DIRECTION('Vector Direction',(1.42735678062E-016,0.707106781187,0.707106781187)) ;
#185=DIRECTION('Vector Direction',(-1.90323947079E-016,-1.,0.)) ;
#202=DIRECTION('Axis2P3D Direction',(-1.,1.83697019872E-016,6.12323399574E-017)) ;
#211=DIRECTION('Axis2P3D Direction',(-1.,1.83697019872E-016,6.12323399574E-017)) ;
#221=DIRECTION('Axis2P3D Direction',(1.73191211247E-016,0.707106781187,0.707106781187)) ;
#222=DIRECTION('Axis2P3D XDirection',(-8.65956056235E-017,-0.707106781187,0.707106781187)) ;
#226=DIRECTION('Vector Direction',(-1.1418854245E-016,-0.707106781187,0.707106781187)) ;
#235=DIRECTION('Vector Direction',(1.,0.,0.)) ;
#240=DIRECTION('Vector Direction',(1.,0.,0.)) ;
#252=DIRECTION('Axis2P3D Direction',(-1.83697019872E-016,-1.,0.)) ;
#253=DIRECTION('Axis2P3D XDirection',(-6.12323399574E-017,1.124819837E-032,-1.)) ;
#257=DIRECTION('Vector Direction',(-5.30255772955E-017,0.,-1.)) ;
#264=DIRECTION('Vector Direction',(1.,0.,-6.12323399574E-017)) ;
#276=DIRECTION('Axis2P3D Direction',(-6.12323399574E-017,1.124819837E-032,-1.)) ;
#277=DIRECTION('Axis2P3D XDirection',(1.83697019872E-016,1.,0.)) ;
#281=DIRECTION('Vector Direction',(1.7763568394E-016,1.,0.)) ;
#288=DIRECTION('Vector Direction',(1.,-1.83697019872E-016,-6.12323399574E-017)) ;
#300=DIRECTION('Axis2P3D Direction',(1.83697019872E-016,1.,0.)) ;
#301=DIRECTION('Axis2P3D XDirection',(6.12323399574E-017,-1.124819837E-032,1.)) ;
#305=DIRECTION('Vector Direction',(5.30255772955E-017,-1.17740433615E-032,1.)) ;
#312=DIRECTION('Vector Direction',(1.,-1.83697019872E-016,0.)) ;
#324=DIRECTION('Axis2P3D Direction',(8.65956056235E-017,0.707106781187,-0.707106781187)) ;
#325=DIRECTION('Axis2P3D XDirection',(1.73191211247E-016,0.707106781187,0.707106781187)) ;
#329=DIRECTION('Vector Direction',(1.1418854245E-016,0.707106781187,0.707106781187)) ;
#336=DIRECTION('Vector Direction',(1.,0.,0.)) ;
#348=DIRECTION('Axis2P3D Direction',(6.12323399574E-017,-1.124819837E-032,1.)) ;
#349=DIRECTION('Axis2P3D XDirection',(-1.83697019872E-016,-1.,0.)) ;
#353=DIRECTION('Vector Direction',(-1.90323947079E-016,-1.,0.)) ;
#365=DIRECTION('Axis2P3D Direction',(-1.,1.83697019872E-016,6.12323399574E-017)) ;
#366=DIRECTION('Axis2P3D XDirection',(-1.83697019872E-016,-1.,0.)) ;
#379=DIRECTION('Axis2P3D Direction',(1.,-1.83697019872E-016,1.35985313156E-015)) ;
#388=DIRECTION('Axis2P3D Direction',(1.,-1.83697019872E-016,1.35985313156E-015)) ;
#398=DIRECTION('Axis2P3D Direction',(1.,-1.83697019872E-016,1.35985313156E-015)) ;
#399=DIRECTION('Axis2P3D XDirection',(-1.36917721086E-015,-0.479425538604,0.87758256189)) ;
#403=DIRECTION('Axis2P3D Direction',(1.,-1.83697019872E-016,1.35985313156E-015)) ;
#412=DIRECTION('Axis2P3D Direction',(4.90739018711E-016,-0.87758256189,-0.479425538604)) ;
#417=DIRECTION('Axis2P3D Direction',(-4.90739018711E-016,0.87758256189,0.479425538604)) ;
#429=DIRECTION('Axis2P3D Direction',(1.,-1.83697019872E-016,1.35985313156E-015)) ;
#441=DIRECTION('Axis2P3D Direction',(-1.,1.83697019872E-016,-1.35985313156E-015)) ;
#442=DIRECTION('Axis2P3D XDirection',(0.,-0.479425538604,0.87758256189)) ;
#446=DIRECTION('Vector Direction',(-0.998629534755,0.0250911940101,-0.0459291225587)) ;
#451=DIRECTION('Vector Direction',(-0.998629534755,-0.0250911940101,0.0459291225587)) ;
#472=DIRECTION('Axis2P3D Direction',(0.,0.,1.)) ;
#473=DIRECTION('Axis2P3D XDirection',(1.,0.,0.)) ;
#30=PRESENTATION_LAYER_ASSIGNMENT('1',' ',(#21)) ;
#8=PRODUCT_RELATED_PRODUCT_CATEGORY('part',$,(#5)) ;
#7=PRODUCT_CATEGORY('part','specification') ;
#29=STYLED_ITEM(' ',(#28),#21) ;
#479=STYLED_ITEM(' ',(#478),#474) ;
#28=PRESENTATION_STYLE_ASSIGNMENT((#27)) ;
#478=PRESENTATION_STYLE_ASSIGNMENT((#477)) ;
#477=CURVE_STYLE(' ',#475,POSITIVE_LENGTH_MEASURE(0.129999995232),#476) ;
#27=SURFACE_STYLE_USAGE(.BOTH.,#26) ;
#26=SURFACE_SIDE_STYLE(' ',(#25)) ;
#25=SURFACE_STYLE_FILL_AREA(#24) ;
#24=FILL_AREA_STYLE(' ',(#23)) ;
#23=FILL_AREA_STYLE_COLOUR(' ',#22) ;
#48=VECTOR('Line Direction',#47,1.) ;
#62=VECTOR('Line Direction',#61,1.) ;
#149=VECTOR('Line Direction',#148,1.) ;
#158=VECTOR('Line Direction',#157,1.) ;
#165=VECTOR('Line Direction',#164,1.) ;
#172=VECTOR('Line Direction',#171,1.) ;
#179=VECTOR('Line Direction',#178,1.) ;
#186=VECTOR('Line Direction',#185,1.) ;
#227=VECTOR('Line Direction',#226,1.) ;
#236=VECTOR('Line Direction',#235,1.) ;
#241=VECTOR('Line Direction',#240,1.) ;
#258=VECTOR('Line Direction',#257,1.) ;
#265=VECTOR('Line Direction',#264,1.) ;
#282=VECTOR('Line Direction',#281,1.) ;
#289=VECTOR('Line Direction',#288,1.) ;
#306=VECTOR('Line Direction',#305,1.) ;
#313=VECTOR('Line Direction',#312,1.) ;
#330=VECTOR('Line Direction',#329,1.) ;
#337=VECTOR('Line Direction',#336,1.) ;
#354=VECTOR('Line Direction',#353,1.) ;
#447=VECTOR('Line Direction',#446,1.) ;
#452=VECTOR('Line Direction',#451,1.) ;
#15=UNCERTAINTY_MEASURE_WITH_UNIT(LENGTH_MEASURE(0.005),#12,'distance_accuracy_value','CONFUSED CURVE UNCERTAINTY') ;
#470=SHAPE_REPRESENTATION_RELATIONSHIP(' ',' ',#19,#469) ;
#66=ORIENTED_EDGE('',*,*,#45,.F.) ;
#67=ORIENTED_EDGE('',*,*,#52,.T.) ;
#68=ORIENTED_EDGE('',*,*,#59,.T.) ;
#69=ORIENTED_EDGE('',*,*,#64,.F.) ;
#83=ORIENTED_EDGE('',*,*,#76,.F.) ;
#84=ORIENTED_EDGE('',*,*,#64,.T.) ;
#85=ORIENTED_EDGE('',*,*,#81,.T.) ;
#86=ORIENTED_EDGE('',*,*,#52,.F.) ;
#114=ORIENTED_EDGE('',*,*,#59,.F.) ;
#115=ORIENTED_EDGE('',*,*,#100,.T.) ;
#116=ORIENTED_EDGE('',*,*,#107,.T.) ;
#117=ORIENTED_EDGE('',*,*,#112,.F.) ;
#126=ORIENTED_EDGE('',*,*,#81,.F.) ;
#127=ORIENTED_EDGE('',*,*,#112,.T.) ;
#128=ORIENTED_EDGE('',*,*,#124,.T.) ;
#129=ORIENTED_EDGE('',*,*,#100,.F.) ;
#138=ORIENTED_EDGE('',*,*,#107,.F.) ;
#139=ORIENTED_EDGE('',*,*,#124,.F.) ;
#190=ORIENTED_EDGE('',*,*,#155,.T.) ;
#191=ORIENTED_EDGE('',*,*,#162,.T.) ;
#192=ORIENTED_EDGE('',*,*,#169,.T.) ;
#193=ORIENTED_EDGE('',*,*,#176,.T.) ;
#194=ORIENTED_EDGE('',*,*,#183,.T.) ;
#195=ORIENTED_EDGE('',*,*,#188,.T.) ;
#198=ORIENTED_EDGE('',*,*,#76,.T.) ;
#199=ORIENTED_EDGE('',*,*,#45,.T.) ;
#216=ORIENTED_EDGE('',*,*,#209,.T.) ;
#217=ORIENTED_EDGE('',*,*,#214,.T.) ;
#245=ORIENTED_EDGE('',*,*,#233,.T.) ;
#246=ORIENTED_EDGE('',*,*,#238,.F.) ;
#247=ORIENTED_EDGE('',*,*,#155,.F.) ;
#248=ORIENTED_EDGE('',*,*,#243,.T.) ;
#269=ORIENTED_EDGE('',*,*,#262,.T.) ;
#270=ORIENTED_EDGE('',*,*,#267,.F.) ;
#271=ORIENTED_EDGE('',*,*,#162,.F.) ;
#272=ORIENTED_EDGE('',*,*,#238,.T.) ;
#293=ORIENTED_EDGE('',*,*,#286,.T.) ;
#294=ORIENTED_EDGE('',*,*,#291,.F.) ;
#295=ORIENTED_EDGE('',*,*,#169,.F.) ;
#296=ORIENTED_EDGE('',*,*,#267,.T.) ;
#317=ORIENTED_EDGE('',*,*,#310,.T.) ;
#318=ORIENTED_EDGE('',*,*,#315,.F.) ;
#319=ORIENTED_EDGE('',*,*,#176,.F.) ;
#320=ORIENTED_EDGE('',*,*,#291,.T.) ;
#341=ORIENTED_EDGE('',*,*,#334,.T.) ;
#342=ORIENTED_EDGE('',*,*,#339,.F.) ;
#343=ORIENTED_EDGE('',*,*,#183,.F.) ;
#344=ORIENTED_EDGE('',*,*,#315,.T.) ;
#358=ORIENTED_EDGE('',*,*,#356,.T.) ;
#359=ORIENTED_EDGE('',*,*,#243,.F.) ;
#360=ORIENTED_EDGE('',*,*,#188,.F.) ;
#361=ORIENTED_EDGE('',*,*,#339,.T.) ;
#370=ORIENTED_EDGE('',*,*,#356,.F.) ;
#371=ORIENTED_EDGE('',*,*,#334,.F.) ;
#372=ORIENTED_EDGE('',*,*,#310,.F.) ;
#373=ORIENTED_EDGE('',*,*,#286,.F.) ;
#374=ORIENTED_EDGE('',*,*,#262,.F.) ;
#375=ORIENTED_EDGE('',*,*,#233,.F.) ;
#393=ORIENTED_EDGE('',*,*,#386,.F.) ;
#394=ORIENTED_EDGE('',*,*,#391,.F.) ;
#422=ORIENTED_EDGE('',*,*,#410,.F.) ;
#423=ORIENTED_EDGE('',*,*,#415,.T.) ;
#424=ORIENTED_EDGE('',*,*,#391,.T.) ;
#425=ORIENTED_EDGE('',*,*,#420,.F.) ;
#434=ORIENTED_EDGE('',*,*,#432,.F.) ;
#435=ORIENTED_EDGE('',*,*,#420,.T.) ;
#436=ORIENTED_EDGE('',*,*,#386,.T.) ;
#437=ORIENTED_EDGE('',*,*,#415,.F.) ;
#456=ORIENTED_EDGE('',*,*,#209,.F.) ;
#457=ORIENTED_EDGE('',*,*,#449,.T.) ;
#458=ORIENTED_EDGE('',*,*,#410,.T.) ;
#459=ORIENTED_EDGE('',*,*,#454,.F.) ;
#463=ORIENTED_EDGE('',*,*,#214,.F.) ;
#464=ORIENTED_EDGE('',*,*,#454,.T.) ;
#465=ORIENTED_EDGE('',*,*,#432,.T.) ;
#466=ORIENTED_EDGE('',*,*,#449,.F.) ;
#200=FACE_BOUND('',#197,.T.) ;
#218=FACE_BOUND('',#215,.T.) ;
#31=CLOSED_SHELL('Closed Shell',(#71,#88,#119,#131,#141,#219,#250,#274,#298,#322,#346,#363,#377,#396,#427,#439,#461,#468)) ;
#469=ADVANCED_BREP_SHAPE_REPRESENTATION('NONE',(#21),#16) ;
#71=ADVANCED_FACE('ABSCHLUSSPLATTE',(#70),#36,.T.) ;
#88=ADVANCED_FACE('ABSCHLUSSPLATTE',(#87),#36,.T.) ;
#119=ADVANCED_FACE('ABSCHLUSSPLATTE',(#118),#93,.T.) ;
#131=ADVANCED_FACE('ABSCHLUSSPLATTE',(#130),#93,.T.) ;
#141=ADVANCED_FACE('ABSCHLUSSPLATTE',(#140),#136,.F.) ;
#219=ADVANCED_FACE('ABSCHLUSSPLATTE',(#196,#200,#218),#146,.T.) ;
#250=ADVANCED_FACE('ABSCHLUSSPLATTE',(#249),#224,.T.) ;
#274=ADVANCED_FACE('ABSCHLUSSPLATTE',(#273),#255,.F.) ;
#298=ADVANCED_FACE('ABSCHLUSSPLATTE',(#297),#279,.T.) ;
#322=ADVANCED_FACE('ABSCHLUSSPLATTE',(#321),#303,.F.) ;
#346=ADVANCED_FACE('ABSCHLUSSPLATTE',(#345),#327,.F.) ;
#363=ADVANCED_FACE('ABSCHLUSSPLATTE',(#362),#351,.T.) ;
#377=ADVANCED_FACE('ABSCHLUSSPLATTE',(#376),#368,.F.) ;
#396=ADVANCED_FACE('ABSCHLUSSPLATTE',(#395),#136,.F.) ;
#427=ADVANCED_FACE('ABSCHLUSSPLATTE',(#426),#401,.T.) ;
#439=ADVANCED_FACE('ABSCHLUSSPLATTE',(#438),#401,.T.) ;
#461=ADVANCED_FACE('ABSCHLUSSPLATTE',(#460),#444,.T.) ;
#468=ADVANCED_FACE('ABSCHLUSSPLATTE',(#467),#444,.T.) ;
#4=APPLICATION_PROTOCOL_DEFINITION('international standard','automotive_design',2001,#1) ;
#21=MANIFOLD_SOLID_BREP('ABSCHLUSSPLATTE',#31) ;
#40=CIRCLE('generated circle',#39,1.4500000101) ;
#56=CIRCLE('generated circle',#55,1.55344415294) ;
#75=CIRCLE('generated circle',#74,1.4500000101) ;
#80=CIRCLE('generated circle',#79,1.55344415294) ;
#97=CIRCLE('generated circle',#96,0.5) ;
#104=CIRCLE('generated circle',#103,1.05412938557) ;
#111=CIRCLE('generated circle',#110,0.5) ;
#123=CIRCLE('generated circle',#122,1.05412938557) ;
#204=CIRCLE('generated circle',#203,1.45) ;
#213=CIRCLE('generated circle',#212,1.45) ;
#381=CIRCLE('generated circle',#380,1.05412938557) ;
#390=CIRCLE('generated circle',#389,1.05412938557) ;
#405=CIRCLE('generated circle',#404,1.55344415294) ;
#414=CIRCLE('generated circle',#413,0.5) ;
#419=CIRCLE('generated circle',#418,0.5) ;
#431=CIRCLE('generated circle',#430,1.55344415294) ;
#22=COLOUR_RGB('Colour',0.686274509804,0.549019607843,0.533333333333) ;
#36=CONICAL_SURFACE('Cone',#35,1.4500000101,0.0523598775598) ;
#444=CONICAL_SURFACE('Cone',#443,1.4500000101,0.0523598775598) ;
#480=CONSTRUCTIVE_GEOMETRY_REPRESENTATION('supplemental geometry',(#474),#16) ;
#481=CONSTRUCTIVE_GEOMETRY_REPRESENTATION_RELATIONSHIP('supplemental geometry','',#19,#480) ;
#93=TOROIDAL_SURFACE('homeo Torus',#92,1.05412938557,0.5) ;
#401=TOROIDAL_SURFACE('homeo Torus',#400,1.05412938557,0.5) ;
#476=DRAUGHTING_PRE_DEFINED_COLOUR('white') ;
#475=DRAUGHTING_PRE_DEFINED_CURVE_FONT('continuous') ;
#45=EDGE_CURVE('',#42,#44,#40,.F.) ;
#52=EDGE_CURVE('',#42,#51,#49,.T.) ;
#59=EDGE_CURVE('',#51,#58,#56,.F.) ;
#64=EDGE_CURVE('',#44,#58,#63,.T.) ;
#76=EDGE_CURVE('',#44,#42,#75,.F.) ;
#81=EDGE_CURVE('',#58,#51,#80,.F.) ;
#100=EDGE_CURVE('',#51,#99,#97,.F.) ;
#107=EDGE_CURVE('',#99,#106,#104,.T.) ;
#112=EDGE_CURVE('',#58,#106,#111,.F.) ;
#124=EDGE_CURVE('',#106,#99,#123,.T.) ;
#155=EDGE_CURVE('',#152,#154,#150,.F.) ;
#162=EDGE_CURVE('',#154,#161,#159,.T.) ;
#169=EDGE_CURVE('',#161,#168,#166,.F.) ;
#176=EDGE_CURVE('',#168,#175,#173,.T.) ;
#183=EDGE_CURVE('',#175,#182,#180,.T.) ;
#188=EDGE_CURVE('',#182,#152,#187,.F.) ;
#209=EDGE_CURVE('',#206,#208,#204,.F.) ;
#214=EDGE_CURVE('',#208,#206,#213,.F.) ;
#233=EDGE_CURVE('',#230,#232,#228,.F.) ;
#238=EDGE_CURVE('',#154,#232,#237,.T.) ;
#243=EDGE_CURVE('',#152,#230,#242,.T.) ;
#262=EDGE_CURVE('',#232,#261,#259,.T.) ;
#267=EDGE_CURVE('',#161,#261,#266,.T.) ;
#286=EDGE_CURVE('',#261,#285,#283,.F.) ;
#291=EDGE_CURVE('',#168,#285,#290,.T.) ;
#310=EDGE_CURVE('',#285,#309,#307,.T.) ;
#315=EDGE_CURVE('',#175,#309,#314,.T.) ;
#334=EDGE_CURVE('',#309,#333,#331,.T.) ;
#339=EDGE_CURVE('',#182,#333,#338,.T.) ;
#356=EDGE_CURVE('',#333,#230,#355,.F.) ;
#386=EDGE_CURVE('',#383,#385,#381,.T.) ;
#391=EDGE_CURVE('',#385,#383,#390,.T.) ;
#410=EDGE_CURVE('',#407,#409,#405,.T.) ;
#415=EDGE_CURVE('',#407,#385,#414,.F.) ;
#420=EDGE_CURVE('',#409,#383,#419,.F.) ;
#432=EDGE_CURVE('',#409,#407,#431,.T.) ;
#449=EDGE_CURVE('',#206,#407,#448,.T.) ;
#454=EDGE_CURVE('',#208,#409,#453,.T.) ;
#65=EDGE_LOOP('',(#66,#67,#68,#69)) ;
#82=EDGE_LOOP('',(#83,#84,#85,#86)) ;
#113=EDGE_LOOP('',(#114,#115,#116,#117)) ;
#125=EDGE_LOOP('',(#126,#127,#128,#129)) ;
#137=EDGE_LOOP('',(#138,#139)) ;
#189=EDGE_LOOP('',(#190,#191,#192,#193,#194,#195)) ;
#197=EDGE_LOOP('',(#198,#199)) ;
#215=EDGE_LOOP('',(#216,#217)) ;
#244=EDGE_LOOP('',(#245,#246,#247,#248)) ;
#268=EDGE_LOOP('',(#269,#270,#271,#272)) ;
#292=EDGE_LOOP('',(#293,#294,#295,#296)) ;
#316=EDGE_LOOP('',(#317,#318,#319,#320)) ;
#340=EDGE_LOOP('',(#341,#342,#343,#344)) ;
#357=EDGE_LOOP('',(#358,#359,#360,#361)) ;
#369=EDGE_LOOP('',(#370,#371,#372,#373,#374,#375)) ;
#392=EDGE_LOOP('',(#393,#394)) ;
#421=EDGE_LOOP('',(#422,#423,#424,#425)) ;
#433=EDGE_LOOP('',(#434,#435,#436,#437)) ;
#455=EDGE_LOOP('',(#456,#457,#458,#459)) ;
#462=EDGE_LOOP('',(#463,#464,#465,#466)) ;
#70=FACE_OUTER_BOUND('',#65,.T.) ;
#87=FACE_OUTER_BOUND('',#82,.T.) ;
#118=FACE_OUTER_BOUND('',#113,.T.) ;
#130=FACE_OUTER_BOUND('',#125,.T.) ;
#140=FACE_OUTER_BOUND('',#137,.T.) ;
#196=FACE_OUTER_BOUND('',#189,.T.) ;
#249=FACE_OUTER_BOUND('',#244,.T.) ;
#273=FACE_OUTER_BOUND('',#268,.T.) ;
#297=FACE_OUTER_BOUND('',#292,.T.) ;
#321=FACE_OUTER_BOUND('',#316,.T.) ;
#345=FACE_OUTER_BOUND('',#340,.T.) ;
#362=FACE_OUTER_BOUND('',#357,.T.) ;
#376=FACE_OUTER_BOUND('',#369,.T.) ;
#395=FACE_OUTER_BOUND('',#392,.T.) ;
#426=FACE_OUTER_BOUND('',#421,.T.) ;
#438=FACE_OUTER_BOUND('',#433,.T.) ;
#460=FACE_OUTER_BOUND('',#455,.T.) ;
#467=FACE_OUTER_BOUND('',#462,.T.) ;
#49=LINE('Line',#46,#48) ;
#63=LINE('Line',#60,#62) ;
#150=LINE('Line',#147,#149) ;
#159=LINE('Line',#156,#158) ;
#166=LINE('Line',#163,#165) ;
#173=LINE('Line',#170,#172) ;
#180=LINE('Line',#177,#179) ;
#187=LINE('Line',#184,#186) ;
#228=LINE('Line',#225,#227) ;
#237=LINE('Line',#234,#236) ;
#242=LINE('Line',#239,#241) ;
#259=LINE('Line',#256,#258) ;
#266=LINE('Line',#263,#265) ;
#283=LINE('Line',#280,#282) ;
#290=LINE('Line',#287,#289) ;
#307=LINE('Line',#304,#306) ;
#314=LINE('Line',#311,#313) ;
#331=LINE('Line',#328,#330) ;
#338=LINE('Line',#335,#337) ;
#355=LINE('Line',#352,#354) ;
#448=LINE('Line',#445,#447) ;
#453=LINE('Line',#450,#452) ;
#136=PLANE('',#135) ;
#146=PLANE('',#145) ;
#224=PLANE('',#223) ;
#255=PLANE('',#254) ;
#279=PLANE('',#278) ;
#303=PLANE('',#302) ;
#327=PLANE('',#326) ;
#351=PLANE('',#350) ;
#368=PLANE('',#367) ;
#9=PRODUCT_CATEGORY_RELATIONSHIP(' ',' ',#7,#8) ;
#6=PRODUCT_DEFINITION_FORMATION_WITH_SPECIFIED_SOURCE('',' ',#5,.NOT_KNOWN.) ;
#20=SHAPE_DEFINITION_REPRESENTATION(#11,#19) ;
#42=VERTEX_POINT('',#41) ;
#44=VERTEX_POINT('',#43) ;
#51=VERTEX_POINT('',#50) ;
#58=VERTEX_POINT('',#57) ;
#99=VERTEX_POINT('',#98) ;
#106=VERTEX_POINT('',#105) ;
#152=VERTEX_POINT('',#151) ;
#154=VERTEX_POINT('',#153) ;
#161=VERTEX_POINT('',#160) ;
#168=VERTEX_POINT('',#167) ;
#175=VERTEX_POINT('',#174) ;
#182=VERTEX_POINT('',#181) ;
#206=VERTEX_POINT('',#205) ;
#208=VERTEX_POINT('',#207) ;
#230=VERTEX_POINT('',#229) ;
#232=VERTEX_POINT('',#231) ;
#261=VERTEX_POINT('',#260) ;
#285=VERTEX_POINT('',#284) ;
#309=VERTEX_POINT('',#308) ;
#333=VERTEX_POINT('',#332) ;
#383=VERTEX_POINT('',#382) ;
#385=VERTEX_POINT('',#384) ;
#407=VERTEX_POINT('',#406) ;
#409=VERTEX_POINT('',#408) ;
#12=(LENGTH_UNIT()NAMED_UNIT(*)SI_UNIT(.MILLI.,.METRE.)) ;
#13=(NAMED_UNIT(*)PLANE_ANGLE_UNIT()SI_UNIT($,.RADIAN.)) ;
#14=(NAMED_UNIT(*)SI_UNIT($,.STERADIAN.)SOLID_ANGLE_UNIT()) ;
#16=(GEOMETRIC_REPRESENTATION_CONTEXT(3)GLOBAL_UNCERTAINTY_ASSIGNED_CONTEXT((#15))GLOBAL_UNIT_ASSIGNED_CONTEXT((#12,#13,#14))REPRESENTATION_CONTEXT(' ',' ')) ;
ENDSEC;
END-ISO-10303-21;
