ISO-10303-21;
HEADER;
FILE_DESCRIPTION(('CATIA V5 STEP Exchange','CAx-IF Rec.Pracs.--- Model Styling and Organization---1.4--- 2014-01-23'),'2;1');

FILE_NAME ('029695-2_0', '2021-12-14T12:08:11+00:00', ('none'), ('Weidmueller'), 'CATIA Version 5-6 Release 2016 SP3 HF44', 'CATIA V5 STEP AP214', 'none');

FILE_SCHEMA(('AUTOMOTIVE_DESIGN { 1 0 10303 214 1 1 1 1 }'));

ENDSEC;
DATA;
#5=PRODUCT('61475_SM_27X18-22_MM','','GERAETEMARKIERER\X2\000D\X0\\X2\000A\X0\<Q-CHECKER_SEAL> Q-Checker Version 2.14.8  \X2\000A\X0\CATIA-Version         : Catia V5 R20 SP5 Build Date 01-06-2014.17.15\X2\000A\X0\Model size (in KByte) : 0\X2\000A\X0\Checking date         : 2015-11-16 09:37:18\X2\000A\X0\Checking profile      : ADMIN / Release_CATDrawings [CATPart]\X2\000A\X0\Model assessment      : In Ordnung (IO)\X2\000A\X0\Total weight sum      : 0\X2\000A\X0\<CROSS_CHECK_SUM>\X2\000A\X0\  <CHKSUM_DATE> 1634647702 </CHKSUM_DATE>\X2\000A\X0\  <CHKSUM_ENTITIES> -592162366 </CHKSUM_ENTITIES>\X2\000A\X0\  <CHKSUM_PROFILE> 1832121173 </CHKSUM_PROFILE>\X2\000A\X0\  <CHKSUM_DIMENSION> -186917087 </CHKSUM_DIMENSION>\X2\000A\X0\  <CHKSUM_PROJINTERSEC> -896974048 </CHKSUM_PROJINTERSEC>\X2\000A\X0\  <CHKSUM_IDENTCRV> -896974048 </CHKSUM_IDENTCRV>\X2\000A\X0\  <CHKSUM_INFINITY> 138018827 </CHKSUM_INFINITY>\X2\000A\X0\</CROSS_CHECK_SUM>\X2\000A\X0\</Q-CHECKER_SEAL> \X2\000A\X0\ \X2\000A\X0\ \X2\000A\X0\ \X2\000A\X0\ \X2\000A\X0\ \X2\000D\X0\\X2\000A\X0\ \X2\000D\X0\\X2\000A\X0\',(#2)) ;
#2=PRODUCT_CONTEXT(' ',#1,'mechanical') ;
#1=APPLICATION_CONTEXT('automotive design') ;
#10=PRODUCT_DEFINITION('',' ',#6,#3) ;
#3=PRODUCT_DEFINITION_CONTEXT('part definition',#1,' ') ;
#11=PRODUCT_DEFINITION_SHAPE(' ',' ',#10) ;
#247=MECHANICAL_DESIGN_GEOMETRIC_PRESENTATION_REPRESENTATION(' ',(#29),#16) ;
#19=SHAPE_REPRESENTATION(' ',(#18),#16) ;
#18=AXIS2_PLACEMENT_3D(' ',#17,$,$) ;
#35=AXIS2_PLACEMENT_3D('Plane Axis2P3D',#32,#33,#34) ;
#75=AXIS2_PLACEMENT_3D('Plane Axis2P3D',#72,#73,#74) ;
#106=AXIS2_PLACEMENT_3D('Cylinder Axis2P3D',#103,#104,#105) ;
#110=AXIS2_PLACEMENT_3D('Circle Axis2P3D',#108,#109,$) ;
#124=AXIS2_PLACEMENT_3D('Circle Axis2P3D',#122,#123,$) ;
#137=AXIS2_PLACEMENT_3D('Plane Axis2P3D',#134,#135,#136) ;
#159=AXIS2_PLACEMENT_3D('Cylinder Axis2P3D',#156,#157,#158) ;
#163=AXIS2_PLACEMENT_3D('Circle Axis2P3D',#161,#162,$) ;
#179=AXIS2_PLACEMENT_3D('Circle Axis2P3D',#177,#178,$) ;
#198=AXIS2_PLACEMENT_3D('Circle Axis2P3D',#196,#197,$) ;
#203=AXIS2_PLACEMENT_3D('Circle Axis2P3D',#201,#202,$) ;
#216=AXIS2_PLACEMENT_3D('Plane Axis2P3D',#213,#214,#215) ;
#232=AXIS2_PLACEMENT_3D('Plane Axis2P3D',#229,#230,#231) ;
#17=CARTESIAN_POINT(' ',(0.,0.,0.)) ;
#32=CARTESIAN_POINT('Axis2P3D Location',(29.5,47.75,9.03177014371E-016)) ;
#37=CARTESIAN_POINT('Line Origine',(29.5,47.75,0.05)) ;
#41=CARTESIAN_POINT('Vertex',(29.5,47.75,9.03177014371E-016)) ;
#43=CARTESIAN_POINT('Vertex',(29.5,47.75,0.1)) ;
#46=CARTESIAN_POINT('Line Origine',(14.75,47.75,0.)) ;
#50=CARTESIAN_POINT('Vertex',(0.,47.75,-9.03177014371E-016)) ;
#53=CARTESIAN_POINT('Line Origine',(-3.06161699787E-018,47.75,0.05)) ;
#57=CARTESIAN_POINT('Vertex',(0.,47.75,0.1)) ;
#60=CARTESIAN_POINT('Line Origine',(14.75,47.75,0.1)) ;
#72=CARTESIAN_POINT('Axis2P3D Location',(0.,14.75,-9.03177014371E-016)) ;
#77=CARTESIAN_POINT('Line Origine',(1.0103336093E-015,31.25,-9.03177014371E-016)) ;
#81=CARTESIAN_POINT('Vertex',(0.,14.75,-9.03177014371E-016)) ;
#84=CARTESIAN_POINT('Line Origine',(-3.06161699787E-018,14.75,0.05)) ;
#88=CARTESIAN_POINT('Vertex',(0.,14.75,0.1)) ;
#91=CARTESIAN_POINT('Line Origine',(1.0042103753E-015,31.25,0.1)) ;
#103=CARTESIAN_POINT('Axis2P3D Location',(14.75,14.75,0.05)) ;
#108=CARTESIAN_POINT('Axis2P3D Location',(14.75,14.75,0.)) ;
#112=CARTESIAN_POINT('Vertex',(29.5,14.75,9.03177014371E-016)) ;
#115=CARTESIAN_POINT('Line Origine',(29.5,14.75,0.05)) ;
#119=CARTESIAN_POINT('Vertex',(29.5,14.75,0.1)) ;
#122=CARTESIAN_POINT('Axis2P3D Location',(14.75,14.75,0.1)) ;
#134=CARTESIAN_POINT('Axis2P3D Location',(29.5,47.75,9.03177014371E-016)) ;
#139=CARTESIAN_POINT('Line Origine',(29.5,31.25,9.03177014371E-016)) ;
#144=CARTESIAN_POINT('Line Origine',(29.5,31.25,0.1)) ;
#156=CARTESIAN_POINT('Axis2P3D Location',(14.75,14.75,0.05)) ;
#161=CARTESIAN_POINT('Axis2P3D Location',(14.75,14.75,0.1)) ;
#165=CARTESIAN_POINT('Vertex',(14.75,26.25,0.1)) ;
#167=CARTESIAN_POINT('Vertex',(14.75,3.25,0.1)) ;
#170=CARTESIAN_POINT('Line Origine',(14.75,3.25,0.05)) ;
#174=CARTESIAN_POINT('Vertex',(14.75,3.25,0.)) ;
#177=CARTESIAN_POINT('Axis2P3D Location',(14.75,14.75,0.)) ;
#181=CARTESIAN_POINT('Vertex',(14.75,26.25,8.62361875031E-032)) ;
#184=CARTESIAN_POINT('Line Origine',(14.75,26.25,0.05)) ;
#196=CARTESIAN_POINT('Axis2P3D Location',(14.75,14.75,0.1)) ;
#201=CARTESIAN_POINT('Axis2P3D Location',(14.75,14.75,0.)) ;
#213=CARTESIAN_POINT('Axis2P3D Location',(14.75,23.875,0.)) ;
#229=CARTESIAN_POINT('Axis2P3D Location',(14.75,23.875,0.1)) ;
#33=DIRECTION('Axis2P3D Direction',(6.12323399574E-017,1.,0.)) ;
#34=DIRECTION('Axis2P3D XDirection',(-1.,6.12323399574E-017,-6.12323399574E-017)) ;
#38=DIRECTION('Vector Direction',(0.,0.,1.)) ;
#47=DIRECTION('Vector Direction',(-1.,0.,-6.12323399574E-017)) ;
#54=DIRECTION('Vector Direction',(-6.12323399574E-017,0.,1.)) ;
#61=DIRECTION('Vector Direction',(-1.,0.,-6.11563530514E-017)) ;
#73=DIRECTION('Axis2P3D Direction',(1.,-6.12323399574E-017,6.12323399574E-017)) ;
#74=DIRECTION('Axis2P3D XDirection',(6.12323399574E-017,1.,0.)) ;
#78=DIRECTION('Vector Direction',(6.12323399574E-017,1.,0.)) ;
#85=DIRECTION('Vector Direction',(-6.12323399574E-017,0.,1.)) ;
#92=DIRECTION('Vector Direction',(6.12323399574E-017,1.,0.)) ;
#104=DIRECTION('Axis2P3D Direction',(-6.12323399574E-017,3.74939945665E-033,1.)) ;
#105=DIRECTION('Axis2P3D XDirection',(-1.,2.44929359829E-016,-6.12323399574E-017)) ;
#109=DIRECTION('Axis2P3D Direction',(-6.12323399574E-017,3.74939945665E-033,1.)) ;
#116=DIRECTION('Vector Direction',(0.,0.,1.)) ;
#123=DIRECTION('Axis2P3D Direction',(-6.12323399574E-017,3.74939945665E-033,1.)) ;
#135=DIRECTION('Axis2P3D Direction',(-1.,6.12323399574E-017,-6.12323399574E-017)) ;
#136=DIRECTION('Axis2P3D XDirection',(-6.12323399574E-017,-1.,0.)) ;
#140=DIRECTION('Vector Direction',(-1.07657990267E-016,-1.,0.)) ;
#145=DIRECTION('Vector Direction',(-1.07657990267E-016,-1.,0.)) ;
#157=DIRECTION('Axis2P3D Direction',(-6.12323399574E-017,3.74939945665E-033,1.)) ;
#158=DIRECTION('Axis2P3D XDirection',(-6.12323399574E-017,-1.,0.)) ;
#162=DIRECTION('Axis2P3D Direction',(-6.12323399574E-017,3.74939945665E-033,1.)) ;
#171=DIRECTION('Vector Direction',(0.,0.,1.)) ;
#178=DIRECTION('Axis2P3D Direction',(-6.12323399574E-017,3.74939945665E-033,1.)) ;
#185=DIRECTION('Vector Direction',(0.,0.,1.)) ;
#197=DIRECTION('Axis2P3D Direction',(-6.12323399574E-017,3.74939945665E-033,1.)) ;
#202=DIRECTION('Axis2P3D Direction',(-6.12323399574E-017,3.74939945665E-033,1.)) ;
#214=DIRECTION('Axis2P3D Direction',(-6.12323399574E-017,3.74939945665E-033,1.)) ;
#215=DIRECTION('Axis2P3D XDirection',(-6.12323399574E-017,-1.,0.)) ;
#230=DIRECTION('Axis2P3D Direction',(-6.12323399574E-017,3.74939945665E-033,1.)) ;
#231=DIRECTION('Axis2P3D XDirection',(-6.12323399574E-017,-1.,0.)) ;
#30=PRESENTATION_LAYER_ASSIGNMENT('1',' ',(#21)) ;
#8=PRODUCT_RELATED_PRODUCT_CATEGORY('part',$,(#5)) ;
#7=PRODUCT_CATEGORY('part','specification') ;
#29=STYLED_ITEM(' ',(#28),#21) ;
#28=PRESENTATION_STYLE_ASSIGNMENT((#27)) ;
#27=SURFACE_STYLE_USAGE(.BOTH.,#26) ;
#26=SURFACE_SIDE_STYLE(' ',(#25)) ;
#25=SURFACE_STYLE_FILL_AREA(#24) ;
#24=FILL_AREA_STYLE(' ',(#23)) ;
#23=FILL_AREA_STYLE_COLOUR(' ',#22) ;
#39=VECTOR('Line Direction',#38,1.) ;
#48=VECTOR('Line Direction',#47,1.) ;
#55=VECTOR('Line Direction',#54,1.) ;
#62=VECTOR('Line Direction',#61,1.) ;
#79=VECTOR('Line Direction',#78,1.) ;
#86=VECTOR('Line Direction',#85,1.) ;
#93=VECTOR('Line Direction',#92,1.) ;
#117=VECTOR('Line Direction',#116,1.) ;
#141=VECTOR('Line Direction',#140,1.) ;
#146=VECTOR('Line Direction',#145,1.) ;
#172=VECTOR('Line Direction',#171,1.) ;
#186=VECTOR('Line Direction',#185,1.) ;
#15=UNCERTAINTY_MEASURE_WITH_UNIT(LENGTH_MEASURE(0.005),#12,'distance_accuracy_value','CONFUSED CURVE UNCERTAINTY') ;
#246=SHAPE_REPRESENTATION_RELATIONSHIP(' ',' ',#19,#245) ;
#66=ORIENTED_EDGE('',*,*,#45,.F.) ;
#67=ORIENTED_EDGE('',*,*,#52,.T.) ;
#68=ORIENTED_EDGE('',*,*,#59,.T.) ;
#69=ORIENTED_EDGE('',*,*,#64,.F.) ;
#97=ORIENTED_EDGE('',*,*,#59,.F.) ;
#98=ORIENTED_EDGE('',*,*,#83,.T.) ;
#99=ORIENTED_EDGE('',*,*,#90,.T.) ;
#100=ORIENTED_EDGE('',*,*,#95,.F.) ;
#128=ORIENTED_EDGE('',*,*,#90,.F.) ;
#129=ORIENTED_EDGE('',*,*,#114,.T.) ;
#130=ORIENTED_EDGE('',*,*,#121,.T.) ;
#131=ORIENTED_EDGE('',*,*,#126,.F.) ;
#150=ORIENTED_EDGE('',*,*,#121,.F.) ;
#151=ORIENTED_EDGE('',*,*,#143,.T.) ;
#152=ORIENTED_EDGE('',*,*,#45,.T.) ;
#153=ORIENTED_EDGE('',*,*,#148,.F.) ;
#190=ORIENTED_EDGE('',*,*,#169,.T.) ;
#191=ORIENTED_EDGE('',*,*,#176,.F.) ;
#192=ORIENTED_EDGE('',*,*,#183,.F.) ;
#193=ORIENTED_EDGE('',*,*,#188,.T.) ;
#207=ORIENTED_EDGE('',*,*,#200,.T.) ;
#208=ORIENTED_EDGE('',*,*,#188,.F.) ;
#209=ORIENTED_EDGE('',*,*,#205,.F.) ;
#210=ORIENTED_EDGE('',*,*,#176,.T.) ;
#219=ORIENTED_EDGE('',*,*,#143,.F.) ;
#220=ORIENTED_EDGE('',*,*,#114,.F.) ;
#221=ORIENTED_EDGE('',*,*,#83,.F.) ;
#222=ORIENTED_EDGE('',*,*,#52,.F.) ;
#225=ORIENTED_EDGE('',*,*,#205,.T.) ;
#226=ORIENTED_EDGE('',*,*,#183,.T.) ;
#235=ORIENTED_EDGE('',*,*,#64,.T.) ;
#236=ORIENTED_EDGE('',*,*,#95,.T.) ;
#237=ORIENTED_EDGE('',*,*,#126,.T.) ;
#238=ORIENTED_EDGE('',*,*,#148,.T.) ;
#241=ORIENTED_EDGE('',*,*,#169,.F.) ;
#242=ORIENTED_EDGE('',*,*,#200,.F.) ;
#227=FACE_BOUND('',#224,.T.) ;
#243=FACE_BOUND('',#240,.T.) ;
#31=CLOSED_SHELL('Closed Shell',(#71,#102,#133,#155,#195,#212,#228,#244)) ;
#245=ADVANCED_BREP_SHAPE_REPRESENTATION('NONE',(#21),#16) ;
#71=ADVANCED_FACE('S3D gedreht',(#70),#36,.T.) ;
#102=ADVANCED_FACE('S3D gedreht',(#101),#76,.F.) ;
#133=ADVANCED_FACE('S3D gedreht',(#132),#107,.T.) ;
#155=ADVANCED_FACE('S3D gedreht',(#154),#138,.F.) ;
#195=ADVANCED_FACE('S3D gedreht',(#194),#160,.F.) ;
#212=ADVANCED_FACE('S3D gedreht',(#211),#160,.F.) ;
#228=ADVANCED_FACE('S3D gedreht',(#223,#227),#217,.F.) ;
#244=ADVANCED_FACE('S3D gedreht',(#239,#243),#233,.T.) ;
#4=APPLICATION_PROTOCOL_DEFINITION('international standard','automotive_design',2001,#1) ;
#21=MANIFOLD_SOLID_BREP('S3D gedreht',#31) ;
#111=CIRCLE('generated circle',#110,14.75) ;
#125=CIRCLE('generated circle',#124,14.75) ;
#164=CIRCLE('generated circle',#163,11.5) ;
#180=CIRCLE('generated circle',#179,11.5) ;
#199=CIRCLE('generated circle',#198,11.5) ;
#204=CIRCLE('generated circle',#203,11.5) ;
#22=COLOUR_RGB('Colour',0.756862745098,0.76862745098,0.752941176471) ;
#107=CYLINDRICAL_SURFACE('generated cylinder',#106,14.75) ;
#160=CYLINDRICAL_SURFACE('generated cylinder',#159,11.5) ;
#45=EDGE_CURVE('',#42,#44,#40,.T.) ;
#52=EDGE_CURVE('',#42,#51,#49,.T.) ;
#59=EDGE_CURVE('',#51,#58,#56,.T.) ;
#64=EDGE_CURVE('',#44,#58,#63,.T.) ;
#83=EDGE_CURVE('',#51,#82,#80,.F.) ;
#90=EDGE_CURVE('',#82,#89,#87,.T.) ;
#95=EDGE_CURVE('',#58,#89,#94,.F.) ;
#114=EDGE_CURVE('',#82,#113,#111,.T.) ;
#121=EDGE_CURVE('',#113,#120,#118,.T.) ;
#126=EDGE_CURVE('',#89,#120,#125,.T.) ;
#143=EDGE_CURVE('',#113,#42,#142,.F.) ;
#148=EDGE_CURVE('',#120,#44,#147,.F.) ;
#169=EDGE_CURVE('',#166,#168,#164,.T.) ;
#176=EDGE_CURVE('',#175,#168,#173,.T.) ;
#183=EDGE_CURVE('',#182,#175,#180,.T.) ;
#188=EDGE_CURVE('',#182,#166,#187,.T.) ;
#200=EDGE_CURVE('',#168,#166,#199,.T.) ;
#205=EDGE_CURVE('',#175,#182,#204,.T.) ;
#65=EDGE_LOOP('',(#66,#67,#68,#69)) ;
#96=EDGE_LOOP('',(#97,#98,#99,#100)) ;
#127=EDGE_LOOP('',(#128,#129,#130,#131)) ;
#149=EDGE_LOOP('',(#150,#151,#152,#153)) ;
#189=EDGE_LOOP('',(#190,#191,#192,#193)) ;
#206=EDGE_LOOP('',(#207,#208,#209,#210)) ;
#218=EDGE_LOOP('',(#219,#220,#221,#222)) ;
#224=EDGE_LOOP('',(#225,#226)) ;
#234=EDGE_LOOP('',(#235,#236,#237,#238)) ;
#240=EDGE_LOOP('',(#241,#242)) ;
#70=FACE_OUTER_BOUND('',#65,.T.) ;
#101=FACE_OUTER_BOUND('',#96,.T.) ;
#132=FACE_OUTER_BOUND('',#127,.T.) ;
#154=FACE_OUTER_BOUND('',#149,.T.) ;
#194=FACE_OUTER_BOUND('',#189,.T.) ;
#211=FACE_OUTER_BOUND('',#206,.T.) ;
#223=FACE_OUTER_BOUND('',#218,.T.) ;
#239=FACE_OUTER_BOUND('',#234,.T.) ;
#40=LINE('Line',#37,#39) ;
#49=LINE('Line',#46,#48) ;
#56=LINE('Line',#53,#55) ;
#63=LINE('Line',#60,#62) ;
#80=LINE('Line',#77,#79) ;
#87=LINE('Line',#84,#86) ;
#94=LINE('Line',#91,#93) ;
#118=LINE('Line',#115,#117) ;
#142=LINE('Line',#139,#141) ;
#147=LINE('Line',#144,#146) ;
#173=LINE('Line',#170,#172) ;
#187=LINE('Line',#184,#186) ;
#36=PLANE('',#35) ;
#76=PLANE('',#75) ;
#138=PLANE('',#137) ;
#217=PLANE('',#216) ;
#233=PLANE('',#232) ;
#9=PRODUCT_CATEGORY_RELATIONSHIP(' ',' ',#7,#8) ;
#6=PRODUCT_DEFINITION_FORMATION_WITH_SPECIFIED_SOURCE('',' ',#5,.BOUGHT.) ;
#20=SHAPE_DEFINITION_REPRESENTATION(#11,#19) ;
#42=VERTEX_POINT('',#41) ;
#44=VERTEX_POINT('',#43) ;
#51=VERTEX_POINT('',#50) ;
#58=VERTEX_POINT('',#57) ;
#82=VERTEX_POINT('',#81) ;
#89=VERTEX_POINT('',#88) ;
#113=VERTEX_POINT('',#112) ;
#120=VERTEX_POINT('',#119) ;
#166=VERTEX_POINT('',#165) ;
#168=VERTEX_POINT('',#167) ;
#175=VERTEX_POINT('',#174) ;
#182=VERTEX_POINT('',#181) ;
#12=(LENGTH_UNIT()NAMED_UNIT(*)SI_UNIT(.MILLI.,.METRE.)) ;
#13=(NAMED_UNIT(*)PLANE_ANGLE_UNIT()SI_UNIT($,.RADIAN.)) ;
#14=(NAMED_UNIT(*)SI_UNIT($,.STERADIAN.)SOLID_ANGLE_UNIT()) ;
#16=(GEOMETRIC_REPRESENTATION_CONTEXT(3)GLOBAL_UNCERTAINTY_ASSIGNED_CONTEXT((#15))GLOBAL_UNIT_ASSIGNED_CONTEXT((#12,#13,#14))REPRESENTATION_CONTEXT(' ',' ')) ;
ENDSEC;
END-ISO-10303-21;
