ISO-10303-21;
HEADER;
FILE_DESCRIPTION(('CATIA V5R24 STEP','CAx-IF Rec.Pracs.--- Model Styling and Organization---1.2---2011-12-15'),'2;1');

FILE_NAME ('D1456433_0_1798620000_1798620000.stp','2015-12-03T14:50:05+00:00',('none'),('Weidmueller'),'CATIA Version 5-6 Release 2014 SP4','CATIA V5 STEP AP214','none');

FILE_SCHEMA(('AUTOMOTIVE_DESIGN { 1 0 10303 214 1 1 1 1 }'));

ENDSEC;
DATA;
#5=PRODUCT('TM-201/15','','<Q-CHECKER_SEAL> Q-Checker Version 2.14.8  \X2\000A\X0\CATIA-Version         : Catia V5 R20 SP5 Build Date 01-06-2014.17.15\X2\000A\X0\Model size (in KByte) : 0\X2\000A\X0\Checking date         : 2014-06-05 09:06:53\X2\000A\X0\Checking profile      : ADMIN / Release_2D-3D [CATPart]\X2\000A\X0\Model assessment      : Fehlerhaft\X2\000A\X0\Total weight sum      : 9\X2\000A\X0\<CROSS_CHECK_SUM>\X2\000A\X0\  <CHKSUM_DATE> -1418329162 </CHKSUM_DATE>\X2\000A\X0\  <CHKSUM_ENTITIES> -928960369 </CHKSUM_ENTITIES>\X2\000A\X0\  <CHKSUM_PROFILE> 1594213346 </CHKSUM_PROFILE>\X2\000A\X0\  <CHKSUM_DIMENSION> -186917087 </CHKSUM_DIMENSION>\X2\000A\X0\  <CHKSUM_PROJINTERSEC> -896974048 </CHKSUM_PROJINTERSEC>\X2\000A\X0\  <CHKSUM_IDENTCRV> -896974048 </CHKSUM_IDENTCRV>\X2\000A\X0\  <CHKSUM_INFINITY> 138018827 </CHKSUM_INFINITY>\X2\000A\X0\</CROSS_CHECK_SUM>\X2\000A\X0\</Q-CHECKER_SEAL> \X2\000A\X0\ \X2\000A\X0\ \X2\000A\X0\ \X2\000A\X0\ \X2\000A\X0\ \X2\000A\X0\ \X2\000A\X0\ \X2\000A\X0\ \X2\000A\X0\ \X2\000A\X0\',(#2)) ;
#2=PRODUCT_CONTEXT(' ',#1,'mechanical') ;
#1=APPLICATION_CONTEXT('automotive design') ;
#10=PRODUCT_DEFINITION('52984',' ',#6,#3) ;
#3=PRODUCT_DEFINITION_CONTEXT('part definition',#1,' ') ;
#11=PRODUCT_DEFINITION_SHAPE(' ',' ',#10) ;
#464=MECHANICAL_DESIGN_GEOMETRIC_PRESENTATION_REPRESENTATION(' ',(#146,#178,#203,#228,#246,#327,#350,#368,#386,#399,#422,#435,#453,#461,#29),#16) ;
#19=SHAPE_REPRESENTATION(' ',(#18),#16) ;
#18=AXIS2_PLACEMENT_3D(' ',#17,$,$) ;
#34=AXIS2_PLACEMENT_3D('Plane Axis2P3D',#31,#32,#33) ;
#47=AXIS2_PLACEMENT_3D('Circle Axis2P3D',#45,#46,$) ;
#61=AXIS2_PLACEMENT_3D('Circle Axis2P3D',#59,#60,$) ;
#88=AXIS2_PLACEMENT_3D('Circle Axis2P3D',#86,#87,$) ;
#106=AXIS2_PLACEMENT_3D('Circle Axis2P3D',#104,#105,$) ;
#150=AXIS2_PLACEMENT_3D('Cylinder Axis2P3D',#147,#148,#149) ;
#168=AXIS2_PLACEMENT_3D('Circle Axis2P3D',#166,#167,$) ;
#182=AXIS2_PLACEMENT_3D('Plane Axis2P3D',#179,#180,#181) ;
#207=AXIS2_PLACEMENT_3D('Cylinder Axis2P3D',#204,#205,#206) ;
#218=AXIS2_PLACEMENT_3D('Circle Axis2P3D',#216,#217,$) ;
#232=AXIS2_PLACEMENT_3D('Plane Axis2P3D',#229,#230,#231) ;
#250=AXIS2_PLACEMENT_3D('Plane Axis2P3D',#247,#248,#249) ;
#276=AXIS2_PLACEMENT_3D('Circle Axis2P3D',#274,#275,$) ;
#294=AXIS2_PLACEMENT_3D('Circle Axis2P3D',#292,#293,$) ;
#331=AXIS2_PLACEMENT_3D('Plane Axis2P3D',#328,#329,#330) ;
#354=AXIS2_PLACEMENT_3D('Plane Axis2P3D',#351,#352,#353) ;
#372=AXIS2_PLACEMENT_3D('Cylinder Axis2P3D',#369,#370,#371) ;
#390=AXIS2_PLACEMENT_3D('Plane Axis2P3D',#387,#388,#389) ;
#403=AXIS2_PLACEMENT_3D('Cylinder Axis2P3D',#400,#401,#402) ;
#439=AXIS2_PLACEMENT_3D('Plane Axis2P3D',#436,#437,#438) ;
#17=CARTESIAN_POINT(' ',(0.,0.,0.)) ;
#31=CARTESIAN_POINT('Axis2P3D Location',(2.5,0.,4.)) ;
#36=CARTESIAN_POINT('Line Origine',(7.34788079488E-017,-3.67394039744E-017,3.4)) ;
#40=CARTESIAN_POINT('Vertex',(-2.60392189978E-016,-9.18485099361E-017,2.5)) ;
#42=CARTESIAN_POINT('Vertex',(8.51439015726E-016,1.83697019872E-017,4.3)) ;
#45=CARTESIAN_POINT('Axis2P3D Location',(2.5,-9.18485099361E-017,2.5)) ;
#49=CARTESIAN_POINT('Vertex',(5.,-9.18485099361E-017,2.5)) ;
#52=CARTESIAN_POINT('Line Origine',(5.,-3.67394039744E-017,3.4)) ;
#56=CARTESIAN_POINT('Vertex',(5.,1.83697019872E-017,4.3)) ;
#59=CARTESIAN_POINT('Axis2P3D Location',(2.5,1.83697019872E-017,4.3)) ;
#70=CARTESIAN_POINT('Line Origine',(2.5,-4.28626379702E-017,3.3)) ;
#74=CARTESIAN_POINT('Vertex',(0.7,-4.28626379702E-017,3.3)) ;
#76=CARTESIAN_POINT('Vertex',(4.3,-4.28626379702E-017,3.3)) ;
#79=CARTESIAN_POINT('Line Origine',(4.3,-6.73555739531E-017,2.9)) ;
#83=CARTESIAN_POINT('Vertex',(4.3,-9.18485099361E-017,2.5)) ;
#86=CARTESIAN_POINT('Axis2P3D Location',(2.5,-9.18485099361E-017,2.5)) ;
#90=CARTESIAN_POINT('Vertex',(0.7,-9.18485099361E-017,2.5)) ;
#93=CARTESIAN_POINT('Line Origine',(0.7,-6.73555739531E-017,2.9)) ;
#104=CARTESIAN_POINT('Axis2P3D Location',(2.5,1.83697019872E-017,4.3)) ;
#108=CARTESIAN_POINT('Vertex',(0.7,1.83697019872E-017,4.3)) ;
#110=CARTESIAN_POINT('Vertex',(4.3,1.83697019872E-017,4.3)) ;
#113=CARTESIAN_POINT('Line Origine',(4.3,9.18485099361E-018,4.15)) ;
#117=CARTESIAN_POINT('Vertex',(4.3,0.,4.)) ;
#120=CARTESIAN_POINT('Line Origine',(2.5,0.,4.)) ;
#124=CARTESIAN_POINT('Vertex',(0.7,0.,4.)) ;
#127=CARTESIAN_POINT('Line Origine',(0.7,9.18485099361E-018,4.15)) ;
#147=CARTESIAN_POINT('Axis2P3D Location',(2.5,8.11000000001,4.3)) ;
#152=CARTESIAN_POINT('Line Origine',(8.881784197E-016,8.11000000001,4.3)) ;
#156=CARTESIAN_POINT('Vertex',(8.881784197E-016,15.,4.3)) ;
#159=CARTESIAN_POINT('Line Origine',(5.,8.11000000001,4.3)) ;
#163=CARTESIAN_POINT('Vertex',(5.,15.,4.3)) ;
#166=CARTESIAN_POINT('Axis2P3D Location',(2.5,15.,4.3)) ;
#179=CARTESIAN_POINT('Axis2P3D Location',(0.,-9.18485099361E-017,2.5)) ;
#184=CARTESIAN_POINT('Line Origine',(5.62409918498E-032,7.5,2.5)) ;
#188=CARTESIAN_POINT('Vertex',(-4.4408920985E-016,15.,2.5)) ;
#191=CARTESIAN_POINT('Line Origine',(-1.10218211923E-016,15.,3.4)) ;
#204=CARTESIAN_POINT('Axis2P3D Location',(2.5,8.11000000001,2.5)) ;
#209=CARTESIAN_POINT('Line Origine',(5.,8.11000000001,2.5)) ;
#213=CARTESIAN_POINT('Vertex',(5.,15.,2.5)) ;
#216=CARTESIAN_POINT('Axis2P3D Location',(2.5,15.,2.5)) ;
#229=CARTESIAN_POINT('Axis2P3D Location',(5.,-9.18485099361E-017,2.5)) ;
#234=CARTESIAN_POINT('Line Origine',(5.,15.,3.4)) ;
#247=CARTESIAN_POINT('Axis2P3D Location',(2.5,15.,4.)) ;
#258=CARTESIAN_POINT('Line Origine',(2.5,15.,3.3)) ;
#262=CARTESIAN_POINT('Vertex',(4.3,15.,3.3)) ;
#264=CARTESIAN_POINT('Vertex',(0.7,15.,3.3)) ;
#267=CARTESIAN_POINT('Line Origine',(0.7,15.,2.9)) ;
#271=CARTESIAN_POINT('Vertex',(0.7,15.,2.5)) ;
#274=CARTESIAN_POINT('Axis2P3D Location',(2.5,15.,2.5)) ;
#278=CARTESIAN_POINT('Vertex',(4.3,15.,2.5)) ;
#281=CARTESIAN_POINT('Line Origine',(4.3,15.,2.9)) ;
#292=CARTESIAN_POINT('Axis2P3D Location',(2.5,15.,4.3)) ;
#296=CARTESIAN_POINT('Vertex',(0.7,15.,4.3)) ;
#298=CARTESIAN_POINT('Vertex',(4.3,15.,4.3)) ;
#301=CARTESIAN_POINT('Line Origine',(0.7,15.,4.15)) ;
#305=CARTESIAN_POINT('Vertex',(0.7,15.,4.)) ;
#308=CARTESIAN_POINT('Line Origine',(2.5,15.,4.)) ;
#312=CARTESIAN_POINT('Vertex',(4.3,15.,4.)) ;
#315=CARTESIAN_POINT('Line Origine',(4.3,15.,4.15)) ;
#328=CARTESIAN_POINT('Axis2P3D Location',(4.3,-4.28626379702E-017,3.3)) ;
#333=CARTESIAN_POINT('Line Origine',(4.3,7.5,3.3)) ;
#338=CARTESIAN_POINT('Line Origine',(0.7,7.5,3.3)) ;
#351=CARTESIAN_POINT('Axis2P3D Location',(0.7,-4.28626379702E-017,3.3)) ;
#356=CARTESIAN_POINT('Line Origine',(0.7,7.5,2.5)) ;
#369=CARTESIAN_POINT('Axis2P3D Location',(2.5,8.11000000001,2.5)) ;
#374=CARTESIAN_POINT('Line Origine',(4.3,8.11000000001,2.5)) ;
#387=CARTESIAN_POINT('Axis2P3D Location',(4.3,-9.18485099361E-017,2.5)) ;
#400=CARTESIAN_POINT('Axis2P3D Location',(2.5,8.11000000001,4.3)) ;
#405=CARTESIAN_POINT('Line Origine',(4.3,8.11000000001,4.3)) ;
#410=CARTESIAN_POINT('Line Origine',(0.7,8.11000000001,4.3)) ;
#423=CARTESIAN_POINT('Line Origine',(0.7,7.5,4.)) ;
#436=CARTESIAN_POINT('Axis2P3D Location',(4.3,0.,4.)) ;
#441=CARTESIAN_POINT('Line Origine',(4.3,7.5,4.)) ;
#32=DIRECTION('Axis2P3D Direction',(7.49879891331E-033,1.,-6.12323399574E-017)) ;
#33=DIRECTION('Axis2P3D XDirection',(-1.,0.,-1.22464679915E-016)) ;
#37=DIRECTION('Vector Direction',(-1.22464679915E-016,6.12323399574E-017,1.)) ;
#46=DIRECTION('Axis2P3D Direction',(7.49879891331E-033,1.,-6.12323399574E-017)) ;
#53=DIRECTION('Vector Direction',(0.,6.12323399574E-017,1.)) ;
#60=DIRECTION('Axis2P3D Direction',(7.49879891331E-033,1.,-6.12323399574E-017)) ;
#71=DIRECTION('Vector Direction',(-1.,0.,0.)) ;
#80=DIRECTION('Vector Direction',(0.,6.12323399574E-017,1.)) ;
#87=DIRECTION('Axis2P3D Direction',(7.49879891331E-033,1.,-6.12323399574E-017)) ;
#94=DIRECTION('Vector Direction',(1.38777878078E-016,-6.12323399574E-017,-1.)) ;
#105=DIRECTION('Axis2P3D Direction',(7.49879891331E-033,1.,-6.12323399574E-017)) ;
#114=DIRECTION('Vector Direction',(0.,-6.12323399574E-017,-1.)) ;
#121=DIRECTION('Vector Direction',(-1.,0.,0.)) ;
#128=DIRECTION('Vector Direction',(0.,-6.12323399574E-017,-1.)) ;
#148=DIRECTION('Axis2P3D Direction',(7.49879891331E-033,1.,-6.12323399574E-017)) ;
#149=DIRECTION('Axis2P3D XDirection',(-1.,1.49559418079E-032,1.21784385503E-016)) ;
#153=DIRECTION('Vector Direction',(0.,1.,-1.09516451258E-016)) ;
#160=DIRECTION('Vector Direction',(0.,1.,-1.09516451258E-016)) ;
#167=DIRECTION('Axis2P3D Direction',(7.49879891331E-033,1.,-6.12323399574E-017)) ;
#180=DIRECTION('Axis2P3D Direction',(-1.,0.,-1.22464679915E-016)) ;
#181=DIRECTION('Axis2P3D XDirection',(-1.22464679915E-016,6.12323399574E-017,1.)) ;
#185=DIRECTION('Vector Direction',(7.49879891331E-033,1.,-5.92118946467E-017)) ;
#192=DIRECTION('Vector Direction',(-1.22464679915E-016,0.,1.)) ;
#205=DIRECTION('Axis2P3D Direction',(7.49879891331E-033,1.,-6.12323399574E-017)) ;
#206=DIRECTION('Axis2P3D XDirection',(1.,7.49879891331E-033,2.44929359829E-016)) ;
#210=DIRECTION('Vector Direction',(0.,1.,-5.47582256288E-017)) ;
#217=DIRECTION('Axis2P3D Direction',(7.49879891331E-033,1.,-6.12323399574E-017)) ;
#230=DIRECTION('Axis2P3D Direction',(-1.,0.,-1.22464679915E-016)) ;
#231=DIRECTION('Axis2P3D XDirection',(-1.22464679915E-016,6.12323399574E-017,1.)) ;
#235=DIRECTION('Vector Direction',(0.,0.,1.)) ;
#248=DIRECTION('Axis2P3D Direction',(7.49879891331E-033,1.,-6.12323399574E-017)) ;
#249=DIRECTION('Axis2P3D XDirection',(-1.,0.,-1.22464679915E-016)) ;
#259=DIRECTION('Vector Direction',(-1.,0.,0.)) ;
#268=DIRECTION('Vector Direction',(1.38777878078E-016,0.,-1.)) ;
#275=DIRECTION('Axis2P3D Direction',(7.49879891331E-033,1.,-6.12323399574E-017)) ;
#282=DIRECTION('Vector Direction',(0.,0.,1.)) ;
#293=DIRECTION('Axis2P3D Direction',(7.49879891331E-033,1.,-6.12323399574E-017)) ;
#302=DIRECTION('Vector Direction',(0.,0.,-1.)) ;
#309=DIRECTION('Vector Direction',(-1.,0.,0.)) ;
#316=DIRECTION('Vector Direction',(0.,0.,1.)) ;
#329=DIRECTION('Axis2P3D Direction',(1.22464679915E-016,-6.12323399574E-017,-1.)) ;
#330=DIRECTION('Axis2P3D XDirection',(-1.,0.,-1.22464679915E-016)) ;
#334=DIRECTION('Vector Direction',(0.,1.,-5.92118946467E-017)) ;
#339=DIRECTION('Vector Direction',(0.,1.,-5.92118946467E-017)) ;
#352=DIRECTION('Axis2P3D Direction',(1.,0.,1.22464679915E-016)) ;
#353=DIRECTION('Axis2P3D XDirection',(1.22464679915E-016,-6.12323399574E-017,-1.)) ;
#357=DIRECTION('Vector Direction',(0.,1.,-5.92118946467E-017)) ;
#370=DIRECTION('Axis2P3D Direction',(7.49879891331E-033,1.,-6.12323399574E-017)) ;
#371=DIRECTION('Axis2P3D XDirection',(1.,7.49879891331E-033,2.44929359829E-016)) ;
#375=DIRECTION('Vector Direction',(0.,1.,-5.47582256288E-017)) ;
#388=DIRECTION('Axis2P3D Direction',(-1.,0.,-1.22464679915E-016)) ;
#389=DIRECTION('Axis2P3D XDirection',(-1.22464679915E-016,6.12323399574E-017,1.)) ;
#401=DIRECTION('Axis2P3D Direction',(7.49879891331E-033,1.,-6.12323399574E-017)) ;
#402=DIRECTION('Axis2P3D XDirection',(-1.,0.,-1.22464679915E-016)) ;
#406=DIRECTION('Vector Direction',(0.,1.,-1.09516451258E-016)) ;
#411=DIRECTION('Vector Direction',(0.,1.,-1.09516451258E-016)) ;
#424=DIRECTION('Vector Direction',(0.,1.,-5.92118946467E-017)) ;
#437=DIRECTION('Axis2P3D Direction',(1.22464679915E-016,-6.12323399574E-017,-1.)) ;
#438=DIRECTION('Axis2P3D XDirection',(-1.,0.,-1.22464679915E-016)) ;
#442=DIRECTION('Vector Direction',(0.,1.,-5.92118946467E-017)) ;
#8=PRODUCT_RELATED_PRODUCT_CATEGORY('part',$,(#5)) ;
#7=PRODUCT_CATEGORY('part','specification') ;
#29=STYLED_ITEM(' ',(#28),#21) ;
#28=PRESENTATION_STYLE_ASSIGNMENT((#27)) ;
#145=PRESENTATION_STYLE_ASSIGNMENT((#144)) ;
#27=SURFACE_STYLE_USAGE(.BOTH.,#26) ;
#144=SURFACE_STYLE_USAGE(.BOTH.,#143) ;
#26=SURFACE_SIDE_STYLE(' ',(#25)) ;
#143=SURFACE_SIDE_STYLE(' ',(#142)) ;
#25=SURFACE_STYLE_FILL_AREA(#24) ;
#142=SURFACE_STYLE_FILL_AREA(#141) ;
#24=FILL_AREA_STYLE(' ',(#23)) ;
#141=FILL_AREA_STYLE(' ',(#140)) ;
#23=FILL_AREA_STYLE_COLOUR(' ',#22) ;
#140=FILL_AREA_STYLE_COLOUR(' ',#139) ;
#38=VECTOR('Line Direction',#37,1.) ;
#54=VECTOR('Line Direction',#53,1.) ;
#72=VECTOR('Line Direction',#71,1.) ;
#81=VECTOR('Line Direction',#80,1.) ;
#95=VECTOR('Line Direction',#94,1.) ;
#115=VECTOR('Line Direction',#114,1.) ;
#122=VECTOR('Line Direction',#121,1.) ;
#129=VECTOR('Line Direction',#128,1.) ;
#154=VECTOR('Line Direction',#153,1.) ;
#161=VECTOR('Line Direction',#160,1.) ;
#186=VECTOR('Line Direction',#185,1.) ;
#193=VECTOR('Line Direction',#192,1.) ;
#211=VECTOR('Line Direction',#210,1.) ;
#236=VECTOR('Line Direction',#235,1.) ;
#260=VECTOR('Line Direction',#259,1.) ;
#269=VECTOR('Line Direction',#268,1.) ;
#283=VECTOR('Line Direction',#282,1.) ;
#303=VECTOR('Line Direction',#302,1.) ;
#310=VECTOR('Line Direction',#309,1.) ;
#317=VECTOR('Line Direction',#316,1.) ;
#335=VECTOR('Line Direction',#334,1.) ;
#340=VECTOR('Line Direction',#339,1.) ;
#358=VECTOR('Line Direction',#357,1.) ;
#376=VECTOR('Line Direction',#375,1.) ;
#407=VECTOR('Line Direction',#406,1.) ;
#412=VECTOR('Line Direction',#411,1.) ;
#425=VECTOR('Line Direction',#424,1.) ;
#443=VECTOR('Line Direction',#442,1.) ;
#15=UNCERTAINTY_MEASURE_WITH_UNIT(LENGTH_MEASURE(0.005),#12,'distance_accuracy_value','CONFUSED CURVE UNCERTAINTY') ;
#463=SHAPE_REPRESENTATION_RELATIONSHIP(' ',' ',#19,#462) ;
#65=ORIENTED_EDGE('',*,*,#44,.F.) ;
#66=ORIENTED_EDGE('',*,*,#51,.F.) ;
#67=ORIENTED_EDGE('',*,*,#58,.F.) ;
#68=ORIENTED_EDGE('',*,*,#63,.F.) ;
#99=ORIENTED_EDGE('',*,*,#78,.T.) ;
#100=ORIENTED_EDGE('',*,*,#85,.T.) ;
#101=ORIENTED_EDGE('',*,*,#92,.T.) ;
#102=ORIENTED_EDGE('',*,*,#97,.T.) ;
#133=ORIENTED_EDGE('',*,*,#112,.T.) ;
#134=ORIENTED_EDGE('',*,*,#119,.T.) ;
#135=ORIENTED_EDGE('',*,*,#126,.T.) ;
#136=ORIENTED_EDGE('',*,*,#131,.T.) ;
#172=ORIENTED_EDGE('',*,*,#158,.F.) ;
#173=ORIENTED_EDGE('',*,*,#63,.T.) ;
#174=ORIENTED_EDGE('',*,*,#165,.T.) ;
#175=ORIENTED_EDGE('',*,*,#170,.F.) ;
#197=ORIENTED_EDGE('',*,*,#190,.F.) ;
#198=ORIENTED_EDGE('',*,*,#44,.T.) ;
#199=ORIENTED_EDGE('',*,*,#158,.T.) ;
#200=ORIENTED_EDGE('',*,*,#195,.F.) ;
#222=ORIENTED_EDGE('',*,*,#215,.F.) ;
#223=ORIENTED_EDGE('',*,*,#51,.T.) ;
#224=ORIENTED_EDGE('',*,*,#190,.T.) ;
#225=ORIENTED_EDGE('',*,*,#220,.F.) ;
#240=ORIENTED_EDGE('',*,*,#238,.T.) ;
#241=ORIENTED_EDGE('',*,*,#165,.F.) ;
#242=ORIENTED_EDGE('',*,*,#58,.T.) ;
#243=ORIENTED_EDGE('',*,*,#215,.T.) ;
#253=ORIENTED_EDGE('',*,*,#195,.T.) ;
#254=ORIENTED_EDGE('',*,*,#170,.T.) ;
#255=ORIENTED_EDGE('',*,*,#238,.F.) ;
#256=ORIENTED_EDGE('',*,*,#220,.T.) ;
#287=ORIENTED_EDGE('',*,*,#266,.T.) ;
#288=ORIENTED_EDGE('',*,*,#273,.T.) ;
#289=ORIENTED_EDGE('',*,*,#280,.F.) ;
#290=ORIENTED_EDGE('',*,*,#285,.T.) ;
#321=ORIENTED_EDGE('',*,*,#300,.F.) ;
#322=ORIENTED_EDGE('',*,*,#307,.T.) ;
#323=ORIENTED_EDGE('',*,*,#314,.F.) ;
#324=ORIENTED_EDGE('',*,*,#319,.T.) ;
#344=ORIENTED_EDGE('',*,*,#337,.F.) ;
#345=ORIENTED_EDGE('',*,*,#78,.F.) ;
#346=ORIENTED_EDGE('',*,*,#342,.T.) ;
#347=ORIENTED_EDGE('',*,*,#266,.F.) ;
#362=ORIENTED_EDGE('',*,*,#342,.F.) ;
#363=ORIENTED_EDGE('',*,*,#97,.F.) ;
#364=ORIENTED_EDGE('',*,*,#360,.T.) ;
#365=ORIENTED_EDGE('',*,*,#273,.F.) ;
#380=ORIENTED_EDGE('',*,*,#280,.T.) ;
#381=ORIENTED_EDGE('',*,*,#360,.F.) ;
#382=ORIENTED_EDGE('',*,*,#92,.F.) ;
#383=ORIENTED_EDGE('',*,*,#378,.T.) ;
#393=ORIENTED_EDGE('',*,*,#378,.F.) ;
#394=ORIENTED_EDGE('',*,*,#85,.F.) ;
#395=ORIENTED_EDGE('',*,*,#337,.T.) ;
#396=ORIENTED_EDGE('',*,*,#285,.F.) ;
#416=ORIENTED_EDGE('',*,*,#300,.T.) ;
#417=ORIENTED_EDGE('',*,*,#409,.F.) ;
#418=ORIENTED_EDGE('',*,*,#112,.F.) ;
#419=ORIENTED_EDGE('',*,*,#414,.T.) ;
#429=ORIENTED_EDGE('',*,*,#414,.F.) ;
#430=ORIENTED_EDGE('',*,*,#131,.F.) ;
#431=ORIENTED_EDGE('',*,*,#427,.T.) ;
#432=ORIENTED_EDGE('',*,*,#307,.F.) ;
#447=ORIENTED_EDGE('',*,*,#314,.T.) ;
#448=ORIENTED_EDGE('',*,*,#427,.F.) ;
#449=ORIENTED_EDGE('',*,*,#126,.F.) ;
#450=ORIENTED_EDGE('',*,*,#445,.T.) ;
#455=ORIENTED_EDGE('',*,*,#445,.F.) ;
#456=ORIENTED_EDGE('',*,*,#119,.F.) ;
#457=ORIENTED_EDGE('',*,*,#409,.T.) ;
#458=ORIENTED_EDGE('',*,*,#319,.F.) ;
#103=FACE_BOUND('',#98,.T.) ;
#137=FACE_BOUND('',#132,.T.) ;
#291=FACE_BOUND('',#286,.T.) ;
#325=FACE_BOUND('',#320,.T.) ;
#30=CLOSED_SHELL('Closed Shell',(#138,#177,#202,#227,#245,#326,#349,#367,#385,#398,#421,#434,#452,#460)) ;
#462=ADVANCED_BREP_SHAPE_REPRESENTATION('NONE',(#21),#16) ;
#138=ADVANCED_FACE('S3D-Kopie',(#69,#103,#137),#35,.F.) ;
#177=ADVANCED_FACE('S3D-Kopie',(#176),#151,.T.) ;
#202=ADVANCED_FACE('S3D-Kopie',(#201),#183,.T.) ;
#227=ADVANCED_FACE('S3D-Kopie',(#226),#208,.T.) ;
#245=ADVANCED_FACE('S3D-Kopie',(#244),#233,.F.) ;
#326=ADVANCED_FACE('S3D-Kopie',(#257,#291,#325),#251,.T.) ;
#349=ADVANCED_FACE('S3D-Kopie',(#348),#332,.T.) ;
#367=ADVANCED_FACE('S3D-Kopie',(#366),#355,.T.) ;
#385=ADVANCED_FACE('S3D-Kopie',(#384),#373,.F.) ;
#398=ADVANCED_FACE('S3D-Kopie',(#397),#391,.T.) ;
#421=ADVANCED_FACE('S3D-Kopie',(#420),#404,.F.) ;
#434=ADVANCED_FACE('S3D-Kopie',(#433),#355,.T.) ;
#452=ADVANCED_FACE('S3D-Kopie',(#451),#440,.F.) ;
#460=ADVANCED_FACE('S3D-Kopie',(#459),#391,.T.) ;
#4=APPLICATION_PROTOCOL_DEFINITION('international standard','automotive_design',2001,#1) ;
#21=MANIFOLD_SOLID_BREP('S3D-Kopie',#30) ;
#48=CIRCLE('generated circle',#47,2.5) ;
#62=CIRCLE('generated circle',#61,2.5) ;
#89=CIRCLE('generated circle',#88,1.8) ;
#107=CIRCLE('generated circle',#106,1.8) ;
#169=CIRCLE('generated circle',#168,2.5) ;
#219=CIRCLE('generated circle',#218,2.5) ;
#277=CIRCLE('generated circle',#276,1.8) ;
#295=CIRCLE('generated circle',#294,1.8) ;
#22=COLOUR_RGB('Colour',0.823529411765,0.823529411765,1.) ;
#146=OVER_RIDING_STYLED_ITEM(' ',(#145),#138,#29) ;
#178=OVER_RIDING_STYLED_ITEM(' ',(#145),#177,#29) ;
#203=OVER_RIDING_STYLED_ITEM(' ',(#145),#202,#29) ;
#228=OVER_RIDING_STYLED_ITEM(' ',(#145),#227,#29) ;
#246=OVER_RIDING_STYLED_ITEM(' ',(#145),#245,#29) ;
#327=OVER_RIDING_STYLED_ITEM(' ',(#145),#326,#29) ;
#350=OVER_RIDING_STYLED_ITEM(' ',(#145),#349,#29) ;
#368=OVER_RIDING_STYLED_ITEM(' ',(#145),#367,#29) ;
#386=OVER_RIDING_STYLED_ITEM(' ',(#145),#385,#29) ;
#399=OVER_RIDING_STYLED_ITEM(' ',(#145),#398,#29) ;
#422=OVER_RIDING_STYLED_ITEM(' ',(#145),#421,#29) ;
#435=OVER_RIDING_STYLED_ITEM(' ',(#145),#434,#29) ;
#453=OVER_RIDING_STYLED_ITEM(' ',(#145),#452,#29) ;
#461=OVER_RIDING_STYLED_ITEM(' ',(#145),#460,#29) ;
#151=CYLINDRICAL_SURFACE('generated cylinder',#150,2.5) ;
#208=CYLINDRICAL_SURFACE('generated cylinder',#207,2.5) ;
#373=CYLINDRICAL_SURFACE('generated cylinder',#372,1.8) ;
#404=CYLINDRICAL_SURFACE('generated cylinder',#403,1.8) ;
#139=DRAUGHTING_PRE_DEFINED_COLOUR('white') ;
#44=EDGE_CURVE('',#41,#43,#39,.T.) ;
#51=EDGE_CURVE('',#50,#41,#48,.T.) ;
#58=EDGE_CURVE('',#57,#50,#55,.F.) ;
#63=EDGE_CURVE('',#43,#57,#62,.T.) ;
#78=EDGE_CURVE('',#75,#77,#73,.F.) ;
#85=EDGE_CURVE('',#77,#84,#82,.F.) ;
#92=EDGE_CURVE('',#84,#91,#89,.T.) ;
#97=EDGE_CURVE('',#91,#75,#96,.F.) ;
#112=EDGE_CURVE('',#109,#111,#107,.T.) ;
#119=EDGE_CURVE('',#111,#118,#116,.T.) ;
#126=EDGE_CURVE('',#118,#125,#123,.T.) ;
#131=EDGE_CURVE('',#125,#109,#130,.F.) ;
#158=EDGE_CURVE('',#43,#157,#155,.T.) ;
#165=EDGE_CURVE('',#57,#164,#162,.T.) ;
#170=EDGE_CURVE('',#157,#164,#169,.T.) ;
#190=EDGE_CURVE('',#41,#189,#187,.T.) ;
#195=EDGE_CURVE('',#189,#157,#194,.T.) ;
#215=EDGE_CURVE('',#50,#214,#212,.T.) ;
#220=EDGE_CURVE('',#214,#189,#219,.T.) ;
#238=EDGE_CURVE('',#214,#164,#237,.T.) ;
#266=EDGE_CURVE('',#263,#265,#261,.T.) ;
#273=EDGE_CURVE('',#265,#272,#270,.T.) ;
#280=EDGE_CURVE('',#279,#272,#277,.T.) ;
#285=EDGE_CURVE('',#279,#263,#284,.T.) ;
#300=EDGE_CURVE('',#297,#299,#295,.T.) ;
#307=EDGE_CURVE('',#297,#306,#304,.T.) ;
#314=EDGE_CURVE('',#313,#306,#311,.T.) ;
#319=EDGE_CURVE('',#313,#299,#318,.T.) ;
#337=EDGE_CURVE('',#77,#263,#336,.T.) ;
#342=EDGE_CURVE('',#75,#265,#341,.T.) ;
#360=EDGE_CURVE('',#91,#272,#359,.T.) ;
#378=EDGE_CURVE('',#84,#279,#377,.T.) ;
#409=EDGE_CURVE('',#111,#299,#408,.T.) ;
#414=EDGE_CURVE('',#109,#297,#413,.T.) ;
#427=EDGE_CURVE('',#125,#306,#426,.T.) ;
#445=EDGE_CURVE('',#118,#313,#444,.T.) ;
#64=EDGE_LOOP('',(#65,#66,#67,#68)) ;
#98=EDGE_LOOP('',(#99,#100,#101,#102)) ;
#132=EDGE_LOOP('',(#133,#134,#135,#136)) ;
#171=EDGE_LOOP('',(#172,#173,#174,#175)) ;
#196=EDGE_LOOP('',(#197,#198,#199,#200)) ;
#221=EDGE_LOOP('',(#222,#223,#224,#225)) ;
#239=EDGE_LOOP('',(#240,#241,#242,#243)) ;
#252=EDGE_LOOP('',(#253,#254,#255,#256)) ;
#286=EDGE_LOOP('',(#287,#288,#289,#290)) ;
#320=EDGE_LOOP('',(#321,#322,#323,#324)) ;
#343=EDGE_LOOP('',(#344,#345,#346,#347)) ;
#361=EDGE_LOOP('',(#362,#363,#364,#365)) ;
#379=EDGE_LOOP('',(#380,#381,#382,#383)) ;
#392=EDGE_LOOP('',(#393,#394,#395,#396)) ;
#415=EDGE_LOOP('',(#416,#417,#418,#419)) ;
#428=EDGE_LOOP('',(#429,#430,#431,#432)) ;
#446=EDGE_LOOP('',(#447,#448,#449,#450)) ;
#454=EDGE_LOOP('',(#455,#456,#457,#458)) ;
#69=FACE_OUTER_BOUND('',#64,.T.) ;
#176=FACE_OUTER_BOUND('',#171,.T.) ;
#201=FACE_OUTER_BOUND('',#196,.T.) ;
#226=FACE_OUTER_BOUND('',#221,.T.) ;
#244=FACE_OUTER_BOUND('',#239,.T.) ;
#257=FACE_OUTER_BOUND('',#252,.T.) ;
#348=FACE_OUTER_BOUND('',#343,.T.) ;
#366=FACE_OUTER_BOUND('',#361,.T.) ;
#384=FACE_OUTER_BOUND('',#379,.T.) ;
#397=FACE_OUTER_BOUND('',#392,.T.) ;
#420=FACE_OUTER_BOUND('',#415,.T.) ;
#433=FACE_OUTER_BOUND('',#428,.T.) ;
#451=FACE_OUTER_BOUND('',#446,.T.) ;
#459=FACE_OUTER_BOUND('',#454,.T.) ;
#39=LINE('Line',#36,#38) ;
#55=LINE('Line',#52,#54) ;
#73=LINE('Line',#70,#72) ;
#82=LINE('Line',#79,#81) ;
#96=LINE('Line',#93,#95) ;
#116=LINE('Line',#113,#115) ;
#123=LINE('Line',#120,#122) ;
#130=LINE('Line',#127,#129) ;
#155=LINE('Line',#152,#154) ;
#162=LINE('Line',#159,#161) ;
#187=LINE('Line',#184,#186) ;
#194=LINE('Line',#191,#193) ;
#212=LINE('Line',#209,#211) ;
#237=LINE('Line',#234,#236) ;
#261=LINE('Line',#258,#260) ;
#270=LINE('Line',#267,#269) ;
#284=LINE('Line',#281,#283) ;
#304=LINE('Line',#301,#303) ;
#311=LINE('Line',#308,#310) ;
#318=LINE('Line',#315,#317) ;
#336=LINE('Line',#333,#335) ;
#341=LINE('Line',#338,#340) ;
#359=LINE('Line',#356,#358) ;
#377=LINE('Line',#374,#376) ;
#408=LINE('Line',#405,#407) ;
#413=LINE('Line',#410,#412) ;
#426=LINE('Line',#423,#425) ;
#444=LINE('Line',#441,#443) ;
#35=PLANE('',#34) ;
#183=PLANE('',#182) ;
#233=PLANE('',#232) ;
#251=PLANE('',#250) ;
#332=PLANE('',#331) ;
#355=PLANE('',#354) ;
#391=PLANE('',#390) ;
#440=PLANE('',#439) ;
#9=PRODUCT_CATEGORY_RELATIONSHIP(' ',' ',#7,#8) ;
#6=PRODUCT_DEFINITION_FORMATION_WITH_SPECIFIED_SOURCE('1798620000',' ',#5,.BOUGHT.) ;
#20=SHAPE_DEFINITION_REPRESENTATION(#11,#19) ;
#41=VERTEX_POINT('',#40) ;
#43=VERTEX_POINT('',#42) ;
#50=VERTEX_POINT('',#49) ;
#57=VERTEX_POINT('',#56) ;
#75=VERTEX_POINT('',#74) ;
#77=VERTEX_POINT('',#76) ;
#84=VERTEX_POINT('',#83) ;
#91=VERTEX_POINT('',#90) ;
#109=VERTEX_POINT('',#108) ;
#111=VERTEX_POINT('',#110) ;
#118=VERTEX_POINT('',#117) ;
#125=VERTEX_POINT('',#124) ;
#157=VERTEX_POINT('',#156) ;
#164=VERTEX_POINT('',#163) ;
#189=VERTEX_POINT('',#188) ;
#214=VERTEX_POINT('',#213) ;
#263=VERTEX_POINT('',#262) ;
#265=VERTEX_POINT('',#264) ;
#272=VERTEX_POINT('',#271) ;
#279=VERTEX_POINT('',#278) ;
#297=VERTEX_POINT('',#296) ;
#299=VERTEX_POINT('',#298) ;
#306=VERTEX_POINT('',#305) ;
#313=VERTEX_POINT('',#312) ;
#12=(LENGTH_UNIT()NAMED_UNIT(*)SI_UNIT(.MILLI.,.METRE.)) ;
#13=(NAMED_UNIT(*)PLANE_ANGLE_UNIT()SI_UNIT($,.RADIAN.)) ;
#14=(NAMED_UNIT(*)SI_UNIT($,.STERADIAN.)SOLID_ANGLE_UNIT()) ;
#16=(GEOMETRIC_REPRESENTATION_CONTEXT(3)GLOBAL_UNCERTAINTY_ASSIGNED_CONTEXT((#15))GLOBAL_UNIT_ASSIGNED_CONTEXT((#12,#13,#14))REPRESENTATION_CONTEXT(' ',' ')) ;
ENDSEC;
END-ISO-10303-21;
