ISO-10303-21;
HEADER;
FILE_DESCRIPTION(('CATIA V5 STEP Exchange','CAx-IF Rec.Pracs.--- Model Styling and Organization---1.5--- 2016-08-15','CAx-IF Rec.Pracs.---Supplemental Geometry---1.0---2011-11-01','CAx-IF Rec.Pracs.--- Composite Materials ---1.1---2010-07-15'),'2;1');

FILE_NAME ('D1454896_0', '2025-09-22T05:22:48+00:00', ('none'), ('Weidmueller'), 'CATIA Version 5-6 Release 2024 SP4', 'CATIA V5 STEP AP214 v3', 'none');

FILE_SCHEMA(('AUTOMOTIVE_DESIGN { 1 0 10303 214 1 1 1 1 }'));

ENDSEC;
DATA;
#5=PRODUCT('DEK 5x7.5','','<Q-CHECKER_SEAL> Q-Checker Version 2.2.1  \X2\000A\X0\CATIA-Version         : Catia V5 R16 SP9 Build Date 03-16-2007.22.00\X2\000A\X0\Model size (in KByte) : 0\X2\000A\X0\Checking date         : 2008-07-31 13:25:15\X2\000A\X0\Checking profile      : ADMIN / Release_CATDrawings_de [CATPart]\X2\000A\X0\Model assessment      : In Ordnung (IO)\X2\000A\X0\Total weight sum      : 0\X2\000A\X0\<CROSS_CHECK_SUM>\X2\000A\X0\  <CHKSUM_DATE> -533373236 </CHKSUM_DATE>\X2\000A\X0\  <CHKSUM_ENTITIES> -288805001 </CHKSUM_ENTITIES>\X2\000A\X0\  <CHKSUM_PROFILE> 304773537 </CHKSUM_PROFILE>\X2\000A\X0\  <CHKSUM_DIMENSION> -186917087 </CHKSUM_DIMENSION>\X2\000A\X0\  <CHKSUM_PROJINTERSEC> -896974048 </CHKSUM_PROJINTERSEC>\X2\000A\X0\  <CHKSUM_IDENTCRV> -896974048 </CHKSUM_IDENTCRV>\X2\000A\X0\  <CHKSUM_INFINITY> 138018827 </CHKSUM_INFINITY>\X2\000A\X0\</CROSS_CHECK_SUM>\X2\000A\X0\</Q-CHECKER_SEAL> \X2\000A\X0\ \X2\000A\X0\ \X2\000A\X0\',(#2)) ;
#2=PRODUCT_CONTEXT(' ',#1,'mechanical') ;
#1=APPLICATION_CONTEXT('automotive design') ;
#10=PRODUCT_DEFINITION('',' ',#6,#3) ;
#3=PRODUCT_DEFINITION_CONTEXT('part definition',#1,' ') ;
#11=PRODUCT_DEFINITION_SHAPE(' ',' ',#10) ;
#451=MECHANICAL_DESIGN_GEOMETRIC_PRESENTATION_REPRESENTATION(' ',(#29),#16) ;
#19=SHAPE_REPRESENTATION(' ',(#18),#16) ;
#18=AXIS2_PLACEMENT_3D(' ',#17,$,$) ;
#35=AXIS2_PLACEMENT_3D('Plane Axis2P3D',#32,#33,#34) ;
#75=AXIS2_PLACEMENT_3D('Plane Axis2P3D',#72,#73,#74) ;
#174=AXIS2_PLACEMENT_3D('Plane Axis2P3D',#171,#172,#173) ;
#198=AXIS2_PLACEMENT_3D('Plane Axis2P3D',#195,#196,#197) ;
#222=AXIS2_PLACEMENT_3D('Plane Axis2P3D',#219,#220,#221) ;
#239=AXIS2_PLACEMENT_3D('Plane Axis2P3D',#236,#237,#238) ;
#270=AXIS2_PLACEMENT_3D('Plane Axis2P3D',#267,#268,#269) ;
#294=AXIS2_PLACEMENT_3D('Plane Axis2P3D',#291,#292,#293) ;
#318=AXIS2_PLACEMENT_3D('Plane Axis2P3D',#315,#316,#317) ;
#335=AXIS2_PLACEMENT_3D('Plane Axis2P3D',#332,#333,#334) ;
#373=AXIS2_PLACEMENT_3D('Plane Axis2P3D',#370,#371,#372) ;
#416=AXIS2_PLACEMENT_3D('Plane Axis2P3D',#413,#414,#415) ;
#433=AXIS2_PLACEMENT_3D('Plane Axis2P3D',#430,#431,#432) ;
#17=CARTESIAN_POINT(' ',(0.,0.,0.)) ;
#32=CARTESIAN_POINT('Axis2P3D Location',(3.65,0.385,1.78)) ;
#37=CARTESIAN_POINT('Line Origine',(3.65,0.385,1.78)) ;
#41=CARTESIAN_POINT('Vertex',(1.95000000075,0.385,1.78)) ;
#43=CARTESIAN_POINT('Vertex',(5.34999999925,0.385,1.78)) ;
#46=CARTESIAN_POINT('Line Origine',(1.95000000075,0.385,0.890000000335)) ;
#50=CARTESIAN_POINT('Vertex',(1.95000000075,0.385,6.70552176274E-10)) ;
#53=CARTESIAN_POINT('Line Origine',(3.65,0.385,6.70552280368E-10)) ;
#57=CARTESIAN_POINT('Vertex',(5.34999999925,0.385,6.70552384463E-10)) ;
#60=CARTESIAN_POINT('Line Origine',(5.34999999925,0.385,0.890000000335)) ;
#72=CARTESIAN_POINT('Axis2P3D Location',(3.65,2.6,1.78)) ;
#77=CARTESIAN_POINT('Line Origine',(7.30000000037,2.6,1.78)) ;
#81=CARTESIAN_POINT('Vertex',(7.30000000037,3.72528895166E-10,1.78)) ;
#83=CARTESIAN_POINT('Vertex',(7.30000000037,5.19999999963,1.78)) ;
#86=CARTESIAN_POINT('Line Origine',(3.65,3.72529118664E-10,1.78)) ;
#90=CARTESIAN_POINT('Vertex',(-3.72529562753E-10,3.72529342162E-10,1.78)) ;
#93=CARTESIAN_POINT('Line Origine',(-3.72529562753E-10,2.6,1.78)) ;
#97=CARTESIAN_POINT('Vertex',(-3.72529562753E-10,5.19999999963,1.78)) ;
#100=CARTESIAN_POINT('Line Origine',(3.65,5.19999999963,1.78)) ;
#111=CARTESIAN_POINT('Line Origine',(5.34999999925,0.942500000261,1.78)) ;
#115=CARTESIAN_POINT('Vertex',(5.35,1.50000000037,1.78)) ;
#118=CARTESIAN_POINT('Line Origine',(3.65,1.50000000037,1.78)) ;
#122=CARTESIAN_POINT('Vertex',(1.95,1.50000000037,1.78)) ;
#125=CARTESIAN_POINT('Line Origine',(1.95000000075,0.942500000261,1.78)) ;
#136=CARTESIAN_POINT('Line Origine',(1.95000000075,4.25749999974,1.78)) ;
#140=CARTESIAN_POINT('Vertex',(1.95,4.81499999985,1.78)) ;
#142=CARTESIAN_POINT('Vertex',(1.95000000075,3.70000000013,1.77999999955)) ;
#145=CARTESIAN_POINT('Line Origine',(3.65,3.69999999963,1.78)) ;
#149=CARTESIAN_POINT('Vertex',(5.34999999925,3.70000000013,1.77999999955)) ;
#152=CARTESIAN_POINT('Line Origine',(5.34999999925,4.25749999974,1.78)) ;
#156=CARTESIAN_POINT('Vertex',(5.35,4.81499999985,1.78)) ;
#159=CARTESIAN_POINT('Line Origine',(3.65,4.81499999985,1.78)) ;
#171=CARTESIAN_POINT('Axis2P3D Location',(1.95,2.6,1.78)) ;
#176=CARTESIAN_POINT('Line Origine',(1.95,1.24479660708,0.890000000335)) ;
#180=CARTESIAN_POINT('Vertex',(1.95,0.989593213797,6.70552280368E-10)) ;
#183=CARTESIAN_POINT('Line Origine',(1.95,0.687296606973,6.70552280368E-10)) ;
#195=CARTESIAN_POINT('Axis2P3D Location',(3.65,0.385,0.)) ;
#200=CARTESIAN_POINT('Line Origine',(3.65,0.989593213648,0.)) ;
#204=CARTESIAN_POINT('Vertex',(5.34999999925,0.989593213648,1.04094977882E-16)) ;
#207=CARTESIAN_POINT('Line Origine',(5.34999999925,0.687296606824,1.04094977882E-16)) ;
#219=CARTESIAN_POINT('Axis2P3D Location',(5.35,2.6,1.78)) ;
#224=CARTESIAN_POINT('Line Origine',(5.35,1.24479660708,0.890000000335)) ;
#236=CARTESIAN_POINT('Axis2P3D Location',(7.3,5.2,1.78)) ;
#241=CARTESIAN_POINT('Line Origine',(7.3,7.45058237328E-10,2.18000000037)) ;
#245=CARTESIAN_POINT('Vertex',(7.30000000037,3.72528895166E-10,2.58)) ;
#248=CARTESIAN_POINT('Line Origine',(7.3,5.2,2.18000000037)) ;
#252=CARTESIAN_POINT('Vertex',(7.30000000037,5.19999999963,2.58)) ;
#255=CARTESIAN_POINT('Line Origine',(7.3,2.60000000037,2.58000000075)) ;
#267=CARTESIAN_POINT('Axis2P3D Location',(-3.1918911958E-16,4.4408920985E-16,1.78)) ;
#272=CARTESIAN_POINT('Line Origine',(-3.43682055586E-16,4.4408920985E-16,2.18000000037)) ;
#276=CARTESIAN_POINT('Vertex',(-3.72529562753E-10,3.72529342162E-10,2.58)) ;
#279=CARTESIAN_POINT('Line Origine',(3.65000000037,2.20591168983E-16,2.58000000075)) ;
#291=CARTESIAN_POINT('Axis2P3D Location',(-3.1918911958E-16,8.881784197E-16,1.78)) ;
#296=CARTESIAN_POINT('Line Origine',(-2.52738878526E-17,5.19999999925,2.18000000037)) ;
#300=CARTESIAN_POINT('Vertex',(-3.72529562753E-10,5.19999999963,2.58)) ;
#303=CARTESIAN_POINT('Line Origine',(-2.08970907725E-16,2.59999999963,2.58000000075)) ;
#315=CARTESIAN_POINT('Axis2P3D Location',(7.3,5.2,1.78)) ;
#320=CARTESIAN_POINT('Line Origine',(3.64999999963,5.2,2.58000000075)) ;
#332=CARTESIAN_POINT('Axis2P3D Location',(3.65,0.989593213349,-6.66133814775E-16)) ;
#344=CARTESIAN_POINT('Line Origine',(1.95,4.81499999985,0.890000000335)) ;
#348=CARTESIAN_POINT('Vertex',(1.95000000075,4.8149999997,-1.04094977882E-16)) ;
#351=CARTESIAN_POINT('Line Origine',(1.95,4.51270339303,6.70552280368E-10)) ;
#355=CARTESIAN_POINT('Vertex',(1.95000000075,4.21040678665,1.17949627043E-16)) ;
#358=CARTESIAN_POINT('Line Origine',(1.95,3.95520339292,0.890000000335)) ;
#370=CARTESIAN_POINT('Axis2P3D Location',(3.65,4.21040678665,2.22044604925E-16)) ;
#375=CARTESIAN_POINT('Line Origine',(3.65,4.21040678665,2.22044604925E-16)) ;
#379=CARTESIAN_POINT('Vertex',(5.34999999925,4.21040678665,3.26139582807E-16)) ;
#382=CARTESIAN_POINT('Line Origine',(5.34999999925,3.95520339339,0.889999999773)) ;
#394=CARTESIAN_POINT('Line Origine',(5.35,4.51270339303,6.70552280368E-10)) ;
#398=CARTESIAN_POINT('Vertex',(5.35,4.81499999985,6.70552280368E-10)) ;
#401=CARTESIAN_POINT('Line Origine',(5.35,4.81499999985,0.890000000335)) ;
#413=CARTESIAN_POINT('Axis2P3D Location',(3.65,4.815,1.78)) ;
#418=CARTESIAN_POINT('Line Origine',(3.65,4.815,6.70552280368E-10)) ;
#430=CARTESIAN_POINT('Axis2P3D Location',(3.65,2.6,2.58)) ;
#33=DIRECTION('Axis2P3D Direction',(-6.12323399574E-17,-1.,-8.60484838249E-45)) ;
#34=DIRECTION('Axis2P3D XDirection',(6.12323399574E-17,-3.74939945665E-33,-1.)) ;
#38=DIRECTION('Vector Direction',(1.,-6.53072367713E-17,0.)) ;
#47=DIRECTION('Vector Direction',(0.,0.,-1.)) ;
#54=DIRECTION('Vector Direction',(1.,-6.53072367713E-17,6.12323399799E-17)) ;
#61=DIRECTION('Vector Direction',(0.,0.,-1.)) ;
#73=DIRECTION('Axis2P3D Direction',(-6.12323399574E-17,3.74939945666E-33,1.)) ;
#74=DIRECTION('Axis2P3D XDirection',(-6.12323399574E-17,-1.,0.)) ;
#78=DIRECTION('Vector Direction',(0.,-1.,0.)) ;
#87=DIRECTION('Vector Direction',(1.,-6.12323399602E-17,6.08341383294E-17)) ;
#94=DIRECTION('Vector Direction',(0.,1.,0.)) ;
#101=DIRECTION('Vector Direction',(-1.,0.,-6.08341383294E-17)) ;
#112=DIRECTION('Vector Direction',(0.,-1.,0.)) ;
#119=DIRECTION('Vector Direction',(1.,0.,0.)) ;
#126=DIRECTION('Vector Direction',(0.,-1.,0.)) ;
#137=DIRECTION('Vector Direction',(0.,1.,0.)) ;
#146=DIRECTION('Vector Direction',(1.,0.,0.)) ;
#153=DIRECTION('Vector Direction',(0.,1.,0.)) ;
#160=DIRECTION('Vector Direction',(1.,0.,0.)) ;
#172=DIRECTION('Axis2P3D Direction',(1.,-6.12323399574E-17,6.12323399574E-17)) ;
#173=DIRECTION('Axis2P3D XDirection',(6.12323399574E-17,1.,0.)) ;
#177=DIRECTION('Vector Direction',(0.,0.275637355876,0.961261695922)) ;
#184=DIRECTION('Vector Direction',(3.67262813926E-16,1.,0.)) ;
#196=DIRECTION('Axis2P3D Direction',(6.12323399574E-17,-3.74939945666E-33,-1.)) ;
#197=DIRECTION('Axis2P3D XDirection',(6.12323399574E-17,1.,0.)) ;
#201=DIRECTION('Vector Direction',(1.,-6.53072367713E-17,6.12323399574E-17)) ;
#208=DIRECTION('Vector Direction',(0.,1.,0.)) ;
#220=DIRECTION('Axis2P3D Direction',(1.,-6.12323399574E-17,6.12323399574E-17)) ;
#221=DIRECTION('Axis2P3D XDirection',(6.12323399574E-17,1.,0.)) ;
#225=DIRECTION('Vector Direction',(0.,0.275637355876,0.961261695922)) ;
#237=DIRECTION('Axis2P3D Direction',(-1.,6.12323399574E-17,-6.12323399574E-17)) ;
#238=DIRECTION('Axis2P3D XDirection',(-6.12323399574E-17,-1.,0.)) ;
#242=DIRECTION('Vector Direction',(0.,0.,1.)) ;
#249=DIRECTION('Vector Direction',(0.,0.,1.)) ;
#256=DIRECTION('Vector Direction',(0.,-1.,0.)) ;
#268=DIRECTION('Axis2P3D Direction',(-6.12323399574E-17,-1.,0.)) ;
#269=DIRECTION('Axis2P3D XDirection',(1.,-6.12323399574E-17,6.12323399574E-17)) ;
#273=DIRECTION('Vector Direction',(-6.12323399574E-17,0.,1.)) ;
#280=DIRECTION('Vector Direction',(1.,-6.12323399574E-17,0.)) ;
#292=DIRECTION('Axis2P3D Direction',(1.,-6.12323399574E-17,6.12323399574E-17)) ;
#293=DIRECTION('Axis2P3D XDirection',(6.12323399574E-17,1.,0.)) ;
#297=DIRECTION('Vector Direction',(-6.12323399574E-17,0.,1.)) ;
#304=DIRECTION('Vector Direction',(6.12323399574E-17,1.,0.)) ;
#316=DIRECTION('Axis2P3D Direction',(6.12323399574E-17,1.,0.)) ;
#317=DIRECTION('Axis2P3D XDirection',(-1.,6.12323399574E-17,-6.12323399574E-17)) ;
#321=DIRECTION('Vector Direction',(-1.,1.21668276659E-16,-1.21668276659E-16)) ;
#333=DIRECTION('Axis2P3D Direction',(7.573822323E-17,0.961261695938,-0.275637355817)) ;
#334=DIRECTION('Axis2P3D XDirection',(-4.19823826774E-17,0.275637355817,0.961261695938)) ;
#345=DIRECTION('Vector Direction',(0.,0.,-1.)) ;
#352=DIRECTION('Vector Direction',(3.67262813926E-16,1.,0.)) ;
#359=DIRECTION('Vector Direction',(0.,-0.275637355876,0.961261695922)) ;
#371=DIRECTION('Axis2P3D Direction',(4.19823826774E-17,0.961261695938,0.275637355817)) ;
#372=DIRECTION('Axis2P3D XDirection',(-7.573822323E-17,-0.275637355817,0.961261695938)) ;
#376=DIRECTION('Vector Direction',(1.,0.,6.12323399573E-17)) ;
#383=DIRECTION('Vector Direction',(0.,-0.275637355817,0.961261695938)) ;
#395=DIRECTION('Vector Direction',(0.,1.,0.)) ;
#402=DIRECTION('Vector Direction',(0.,0.,-1.)) ;
#414=DIRECTION('Axis2P3D Direction',(-6.12323399574E-17,-1.,-8.60484838249E-45)) ;
#415=DIRECTION('Axis2P3D XDirection',(6.12323399574E-17,-3.74939945665E-33,-1.)) ;
#419=DIRECTION('Vector Direction',(1.,0.,6.12323399799E-17)) ;
#431=DIRECTION('Axis2P3D Direction',(-6.12323399574E-17,3.74939945666E-33,1.)) ;
#432=DIRECTION('Axis2P3D XDirection',(-6.12323399574E-17,-1.,0.)) ;
#30=PRESENTATION_LAYER_ASSIGNMENT('1',' ',(#21)) ;
#8=PRODUCT_RELATED_PRODUCT_CATEGORY('part',$,(#5)) ;
#7=PRODUCT_CATEGORY('part','specification') ;
#29=STYLED_ITEM(' ',(#28),#21) ;
#28=PRESENTATION_STYLE_ASSIGNMENT((#27)) ;
#27=SURFACE_STYLE_USAGE(.BOTH.,#26) ;
#26=SURFACE_SIDE_STYLE(' ',(#25)) ;
#25=SURFACE_STYLE_FILL_AREA(#24) ;
#24=FILL_AREA_STYLE(' ',(#23)) ;
#23=FILL_AREA_STYLE_COLOUR(' ',#22) ;
#39=VECTOR('Line Direction',#38,1.) ;
#48=VECTOR('Line Direction',#47,1.) ;
#55=VECTOR('Line Direction',#54,1.) ;
#62=VECTOR('Line Direction',#61,1.) ;
#79=VECTOR('Line Direction',#78,1.) ;
#88=VECTOR('Line Direction',#87,1.) ;
#95=VECTOR('Line Direction',#94,1.) ;
#102=VECTOR('Line Direction',#101,1.) ;
#113=VECTOR('Line Direction',#112,1.) ;
#120=VECTOR('Line Direction',#119,1.) ;
#127=VECTOR('Line Direction',#126,1.) ;
#138=VECTOR('Line Direction',#137,1.) ;
#147=VECTOR('Line Direction',#146,1.) ;
#154=VECTOR('Line Direction',#153,1.) ;
#161=VECTOR('Line Direction',#160,1.) ;
#178=VECTOR('Line Direction',#177,1.) ;
#185=VECTOR('Line Direction',#184,1.) ;
#202=VECTOR('Line Direction',#201,1.) ;
#209=VECTOR('Line Direction',#208,1.) ;
#226=VECTOR('Line Direction',#225,1.) ;
#243=VECTOR('Line Direction',#242,1.) ;
#250=VECTOR('Line Direction',#249,1.) ;
#257=VECTOR('Line Direction',#256,1.) ;
#274=VECTOR('Line Direction',#273,1.) ;
#281=VECTOR('Line Direction',#280,1.) ;
#298=VECTOR('Line Direction',#297,1.) ;
#305=VECTOR('Line Direction',#304,1.) ;
#322=VECTOR('Line Direction',#321,1.) ;
#346=VECTOR('Line Direction',#345,1.) ;
#353=VECTOR('Line Direction',#352,1.) ;
#360=VECTOR('Line Direction',#359,1.) ;
#377=VECTOR('Line Direction',#376,1.) ;
#384=VECTOR('Line Direction',#383,1.) ;
#396=VECTOR('Line Direction',#395,1.) ;
#403=VECTOR('Line Direction',#402,1.) ;
#420=VECTOR('Line Direction',#419,1.) ;
#15=UNCERTAINTY_MEASURE_WITH_UNIT(LENGTH_MEASURE(0.005),#12,'distance_accuracy_value','CONFUSED CURVE UNCERTAINTY') ;
#450=SHAPE_REPRESENTATION_RELATIONSHIP(' ',' ',#19,#449) ;
#66=ORIENTED_EDGE('',*,*,#45,.F.) ;
#67=ORIENTED_EDGE('',*,*,#52,.T.) ;
#68=ORIENTED_EDGE('',*,*,#59,.T.) ;
#69=ORIENTED_EDGE('',*,*,#64,.F.) ;
#106=ORIENTED_EDGE('',*,*,#85,.F.) ;
#107=ORIENTED_EDGE('',*,*,#92,.F.) ;
#108=ORIENTED_EDGE('',*,*,#99,.F.) ;
#109=ORIENTED_EDGE('',*,*,#104,.F.) ;
#131=ORIENTED_EDGE('',*,*,#117,.F.) ;
#132=ORIENTED_EDGE('',*,*,#124,.F.) ;
#133=ORIENTED_EDGE('',*,*,#129,.T.) ;
#134=ORIENTED_EDGE('',*,*,#45,.T.) ;
#165=ORIENTED_EDGE('',*,*,#144,.T.) ;
#166=ORIENTED_EDGE('',*,*,#151,.T.) ;
#167=ORIENTED_EDGE('',*,*,#158,.F.) ;
#168=ORIENTED_EDGE('',*,*,#163,.F.) ;
#189=ORIENTED_EDGE('',*,*,#182,.F.) ;
#190=ORIENTED_EDGE('',*,*,#187,.F.) ;
#191=ORIENTED_EDGE('',*,*,#52,.F.) ;
#192=ORIENTED_EDGE('',*,*,#129,.F.) ;
#213=ORIENTED_EDGE('',*,*,#59,.F.) ;
#214=ORIENTED_EDGE('',*,*,#187,.T.) ;
#215=ORIENTED_EDGE('',*,*,#206,.T.) ;
#216=ORIENTED_EDGE('',*,*,#211,.F.) ;
#230=ORIENTED_EDGE('',*,*,#117,.T.) ;
#231=ORIENTED_EDGE('',*,*,#64,.T.) ;
#232=ORIENTED_EDGE('',*,*,#211,.T.) ;
#233=ORIENTED_EDGE('',*,*,#228,.T.) ;
#261=ORIENTED_EDGE('',*,*,#247,.F.) ;
#262=ORIENTED_EDGE('',*,*,#85,.T.) ;
#263=ORIENTED_EDGE('',*,*,#254,.T.) ;
#264=ORIENTED_EDGE('',*,*,#259,.F.) ;
#285=ORIENTED_EDGE('',*,*,#278,.F.) ;
#286=ORIENTED_EDGE('',*,*,#92,.T.) ;
#287=ORIENTED_EDGE('',*,*,#247,.T.) ;
#288=ORIENTED_EDGE('',*,*,#283,.F.) ;
#309=ORIENTED_EDGE('',*,*,#302,.F.) ;
#310=ORIENTED_EDGE('',*,*,#99,.T.) ;
#311=ORIENTED_EDGE('',*,*,#278,.T.) ;
#312=ORIENTED_EDGE('',*,*,#307,.F.) ;
#326=ORIENTED_EDGE('',*,*,#254,.F.) ;
#327=ORIENTED_EDGE('',*,*,#104,.T.) ;
#328=ORIENTED_EDGE('',*,*,#302,.T.) ;
#329=ORIENTED_EDGE('',*,*,#324,.F.) ;
#338=ORIENTED_EDGE('',*,*,#206,.F.) ;
#339=ORIENTED_EDGE('',*,*,#182,.T.) ;
#340=ORIENTED_EDGE('',*,*,#124,.T.) ;
#341=ORIENTED_EDGE('',*,*,#228,.F.) ;
#364=ORIENTED_EDGE('',*,*,#144,.F.) ;
#365=ORIENTED_EDGE('',*,*,#350,.F.) ;
#366=ORIENTED_EDGE('',*,*,#357,.F.) ;
#367=ORIENTED_EDGE('',*,*,#362,.F.) ;
#388=ORIENTED_EDGE('',*,*,#151,.F.) ;
#389=ORIENTED_EDGE('',*,*,#362,.T.) ;
#390=ORIENTED_EDGE('',*,*,#381,.T.) ;
#391=ORIENTED_EDGE('',*,*,#386,.F.) ;
#407=ORIENTED_EDGE('',*,*,#386,.T.) ;
#408=ORIENTED_EDGE('',*,*,#400,.T.) ;
#409=ORIENTED_EDGE('',*,*,#405,.T.) ;
#410=ORIENTED_EDGE('',*,*,#158,.T.) ;
#424=ORIENTED_EDGE('',*,*,#422,.F.) ;
#425=ORIENTED_EDGE('',*,*,#350,.T.) ;
#426=ORIENTED_EDGE('',*,*,#163,.T.) ;
#427=ORIENTED_EDGE('',*,*,#405,.F.) ;
#436=ORIENTED_EDGE('',*,*,#324,.T.) ;
#437=ORIENTED_EDGE('',*,*,#307,.T.) ;
#438=ORIENTED_EDGE('',*,*,#283,.T.) ;
#439=ORIENTED_EDGE('',*,*,#259,.T.) ;
#443=ORIENTED_EDGE('',*,*,#381,.F.) ;
#444=ORIENTED_EDGE('',*,*,#357,.T.) ;
#445=ORIENTED_EDGE('',*,*,#422,.T.) ;
#446=ORIENTED_EDGE('',*,*,#400,.F.) ;
#135=FACE_BOUND('',#130,.T.) ;
#169=FACE_BOUND('',#164,.T.) ;
#31=CLOSED_SHELL('Closed Shell',(#71,#170,#194,#218,#235,#266,#290,#314,#331,#343,#369,#393,#412,#429,#441,#448)) ;
#449=ADVANCED_BREP_SHAPE_REPRESENTATION('NONE',(#21),#16) ;
#71=ADVANCED_FACE('S3D',(#70),#36,.T.) ;
#170=ADVANCED_FACE('S3D',(#110,#135,#169),#76,.F.) ;
#194=ADVANCED_FACE('S3D',(#193),#175,.F.) ;
#218=ADVANCED_FACE('S3D',(#217),#199,.T.) ;
#235=ADVANCED_FACE('S3D',(#234),#223,.T.) ;
#266=ADVANCED_FACE('S3D',(#265),#240,.F.) ;
#290=ADVANCED_FACE('S3D',(#289),#271,.T.) ;
#314=ADVANCED_FACE('S3D',(#313),#295,.F.) ;
#331=ADVANCED_FACE('S3D',(#330),#319,.T.) ;
#343=ADVANCED_FACE('S3D',(#342),#336,.T.) ;
#369=ADVANCED_FACE('S3D',(#368),#175,.F.) ;
#393=ADVANCED_FACE('S3D',(#392),#374,.F.) ;
#412=ADVANCED_FACE('S3D',(#411),#223,.T.) ;
#429=ADVANCED_FACE('S3D',(#428),#417,.F.) ;
#441=ADVANCED_FACE('S3D',(#440),#434,.T.) ;
#448=ADVANCED_FACE('S3D',(#447),#199,.T.) ;
#4=APPLICATION_PROTOCOL_DEFINITION('international standard','automotive_design',2001,#1) ;
#21=MANIFOLD_SOLID_BREP('S3D',#31) ;
#22=DRAUGHTING_PRE_DEFINED_COLOUR('white') ;
#45=EDGE_CURVE('',#42,#44,#40,.T.) ;
#52=EDGE_CURVE('',#42,#51,#49,.T.) ;
#59=EDGE_CURVE('',#51,#58,#56,.T.) ;
#64=EDGE_CURVE('',#44,#58,#63,.T.) ;
#85=EDGE_CURVE('',#82,#84,#80,.F.) ;
#92=EDGE_CURVE('',#91,#82,#89,.T.) ;
#99=EDGE_CURVE('',#98,#91,#96,.F.) ;
#104=EDGE_CURVE('',#84,#98,#103,.T.) ;
#117=EDGE_CURVE('',#116,#44,#114,.T.) ;
#124=EDGE_CURVE('',#123,#116,#121,.T.) ;
#129=EDGE_CURVE('',#123,#42,#128,.T.) ;
#144=EDGE_CURVE('',#141,#143,#139,.F.) ;
#151=EDGE_CURVE('',#143,#150,#148,.T.) ;
#158=EDGE_CURVE('',#157,#150,#155,.F.) ;
#163=EDGE_CURVE('',#141,#157,#162,.T.) ;
#182=EDGE_CURVE('',#181,#123,#179,.T.) ;
#187=EDGE_CURVE('',#51,#181,#186,.T.) ;
#206=EDGE_CURVE('',#181,#205,#203,.T.) ;
#211=EDGE_CURVE('',#58,#205,#210,.T.) ;
#228=EDGE_CURVE('',#205,#116,#227,.T.) ;
#247=EDGE_CURVE('',#82,#246,#244,.T.) ;
#254=EDGE_CURVE('',#84,#253,#251,.T.) ;
#259=EDGE_CURVE('',#246,#253,#258,.F.) ;
#278=EDGE_CURVE('',#91,#277,#275,.T.) ;
#283=EDGE_CURVE('',#277,#246,#282,.T.) ;
#302=EDGE_CURVE('',#98,#301,#299,.T.) ;
#307=EDGE_CURVE('',#301,#277,#306,.F.) ;
#324=EDGE_CURVE('',#253,#301,#323,.T.) ;
#350=EDGE_CURVE('',#349,#141,#347,.F.) ;
#357=EDGE_CURVE('',#356,#349,#354,.T.) ;
#362=EDGE_CURVE('',#143,#356,#361,.F.) ;
#381=EDGE_CURVE('',#356,#380,#378,.T.) ;
#386=EDGE_CURVE('',#150,#380,#385,.F.) ;
#400=EDGE_CURVE('',#380,#399,#397,.T.) ;
#405=EDGE_CURVE('',#399,#157,#404,.F.) ;
#422=EDGE_CURVE('',#349,#399,#421,.T.) ;
#65=EDGE_LOOP('',(#66,#67,#68,#69)) ;
#105=EDGE_LOOP('',(#106,#107,#108,#109)) ;
#130=EDGE_LOOP('',(#131,#132,#133,#134)) ;
#164=EDGE_LOOP('',(#165,#166,#167,#168)) ;
#188=EDGE_LOOP('',(#189,#190,#191,#192)) ;
#212=EDGE_LOOP('',(#213,#214,#215,#216)) ;
#229=EDGE_LOOP('',(#230,#231,#232,#233)) ;
#260=EDGE_LOOP('',(#261,#262,#263,#264)) ;
#284=EDGE_LOOP('',(#285,#286,#287,#288)) ;
#308=EDGE_LOOP('',(#309,#310,#311,#312)) ;
#325=EDGE_LOOP('',(#326,#327,#328,#329)) ;
#337=EDGE_LOOP('',(#338,#339,#340,#341)) ;
#363=EDGE_LOOP('',(#364,#365,#366,#367)) ;
#387=EDGE_LOOP('',(#388,#389,#390,#391)) ;
#406=EDGE_LOOP('',(#407,#408,#409,#410)) ;
#423=EDGE_LOOP('',(#424,#425,#426,#427)) ;
#435=EDGE_LOOP('',(#436,#437,#438,#439)) ;
#442=EDGE_LOOP('',(#443,#444,#445,#446)) ;
#70=FACE_OUTER_BOUND('',#65,.T.) ;
#110=FACE_OUTER_BOUND('',#105,.T.) ;
#193=FACE_OUTER_BOUND('',#188,.T.) ;
#217=FACE_OUTER_BOUND('',#212,.T.) ;
#234=FACE_OUTER_BOUND('',#229,.T.) ;
#265=FACE_OUTER_BOUND('',#260,.T.) ;
#289=FACE_OUTER_BOUND('',#284,.T.) ;
#313=FACE_OUTER_BOUND('',#308,.T.) ;
#330=FACE_OUTER_BOUND('',#325,.T.) ;
#342=FACE_OUTER_BOUND('',#337,.T.) ;
#368=FACE_OUTER_BOUND('',#363,.T.) ;
#392=FACE_OUTER_BOUND('',#387,.T.) ;
#411=FACE_OUTER_BOUND('',#406,.T.) ;
#428=FACE_OUTER_BOUND('',#423,.T.) ;
#440=FACE_OUTER_BOUND('',#435,.T.) ;
#447=FACE_OUTER_BOUND('',#442,.T.) ;
#40=LINE('Line',#37,#39) ;
#49=LINE('Line',#46,#48) ;
#56=LINE('Line',#53,#55) ;
#63=LINE('Line',#60,#62) ;
#80=LINE('Line',#77,#79) ;
#89=LINE('Line',#86,#88) ;
#96=LINE('Line',#93,#95) ;
#103=LINE('Line',#100,#102) ;
#114=LINE('Line',#111,#113) ;
#121=LINE('Line',#118,#120) ;
#128=LINE('Line',#125,#127) ;
#139=LINE('Line',#136,#138) ;
#148=LINE('Line',#145,#147) ;
#155=LINE('Line',#152,#154) ;
#162=LINE('Line',#159,#161) ;
#179=LINE('Line',#176,#178) ;
#186=LINE('Line',#183,#185) ;
#203=LINE('Line',#200,#202) ;
#210=LINE('Line',#207,#209) ;
#227=LINE('Line',#224,#226) ;
#244=LINE('Line',#241,#243) ;
#251=LINE('Line',#248,#250) ;
#258=LINE('Line',#255,#257) ;
#275=LINE('Line',#272,#274) ;
#282=LINE('Line',#279,#281) ;
#299=LINE('Line',#296,#298) ;
#306=LINE('Line',#303,#305) ;
#323=LINE('Line',#320,#322) ;
#347=LINE('Line',#344,#346) ;
#354=LINE('Line',#351,#353) ;
#361=LINE('Line',#358,#360) ;
#378=LINE('Line',#375,#377) ;
#385=LINE('Line',#382,#384) ;
#397=LINE('Line',#394,#396) ;
#404=LINE('Line',#401,#403) ;
#421=LINE('Line',#418,#420) ;
#36=PLANE('',#35) ;
#76=PLANE('',#75) ;
#175=PLANE('',#174) ;
#199=PLANE('',#198) ;
#223=PLANE('',#222) ;
#240=PLANE('',#239) ;
#271=PLANE('',#270) ;
#295=PLANE('',#294) ;
#319=PLANE('',#318) ;
#336=PLANE('',#335) ;
#374=PLANE('',#373) ;
#417=PLANE('',#416) ;
#434=PLANE('',#433) ;
#9=PRODUCT_CATEGORY_RELATIONSHIP(' ',' ',#7,#8) ;
#6=PRODUCT_DEFINITION_FORMATION_WITH_SPECIFIED_SOURCE('',' ',#5,.NOT_KNOWN.) ;
#20=SHAPE_DEFINITION_REPRESENTATION(#11,#19) ;
#42=VERTEX_POINT('',#41) ;
#44=VERTEX_POINT('',#43) ;
#51=VERTEX_POINT('',#50) ;
#58=VERTEX_POINT('',#57) ;
#82=VERTEX_POINT('',#81) ;
#84=VERTEX_POINT('',#83) ;
#91=VERTEX_POINT('',#90) ;
#98=VERTEX_POINT('',#97) ;
#116=VERTEX_POINT('',#115) ;
#123=VERTEX_POINT('',#122) ;
#141=VERTEX_POINT('',#140) ;
#143=VERTEX_POINT('',#142) ;
#150=VERTEX_POINT('',#149) ;
#157=VERTEX_POINT('',#156) ;
#181=VERTEX_POINT('',#180) ;
#205=VERTEX_POINT('',#204) ;
#246=VERTEX_POINT('',#245) ;
#253=VERTEX_POINT('',#252) ;
#277=VERTEX_POINT('',#276) ;
#301=VERTEX_POINT('',#300) ;
#349=VERTEX_POINT('',#348) ;
#356=VERTEX_POINT('',#355) ;
#380=VERTEX_POINT('',#379) ;
#399=VERTEX_POINT('',#398) ;
#12=(LENGTH_UNIT()NAMED_UNIT(*)SI_UNIT(.MILLI.,.METRE.)) ;
#13=(NAMED_UNIT(*)PLANE_ANGLE_UNIT()SI_UNIT($,.RADIAN.)) ;
#14=(NAMED_UNIT(*)SI_UNIT($,.STERADIAN.)SOLID_ANGLE_UNIT()) ;
#16=(GEOMETRIC_REPRESENTATION_CONTEXT(3)GLOBAL_UNCERTAINTY_ASSIGNED_CONTEXT((#15))GLOBAL_UNIT_ASSIGNED_CONTEXT((#12,#13,#14))REPRESENTATION_CONTEXT(' ',' ')) ;
ENDSEC;
END-ISO-10303-21;
