ISO-10303-21;
HEADER;
FILE_DESCRIPTION(('CATIA V5R22 STEP214','CAx-IF Rec.Pracs.--- Model Styling and Organization---1.4--- 2014-01-23'),'2;1');

FILE_NAME ('035410-1_0', '2023-11-09T09:08:47+00:00', ('Weidmueller Interface'), ('Weidmueller'), 'CATIA Version 5-6 Release 2016 SP3 HF44', 'CATIA V5 STEP AP214', 'none');

FILE_SCHEMA(('AUTOMOTIVE_DESIGN { 1 0 10303 214 1 1 1 1 }'));

ENDSEC;
DATA;
#5=PRODUCT('0553300000','','',(#2)) ;
#2=PRODUCT_CONTEXT(' ',#1,'mechanical') ;
#1=APPLICATION_CONTEXT('automotive design') ;
#10=PRODUCT_DEFINITION('',' ',#6,#3) ;
#3=PRODUCT_DEFINITION_CONTEXT('part definition',#1,' ') ;
#11=PRODUCT_DEFINITION_SHAPE(' ',' ',#10) ;
#259=MECHANICAL_DESIGN_GEOMETRIC_PRESENTATION_REPRESENTATION(' ',(#29),#16) ;
#260=MECHANICAL_DESIGN_GEOMETRIC_PRESENTATION_REPRESENTATION(' ',(#256),#16) ;
#19=SHAPE_REPRESENTATION(' ',(#18),#16) ;
#18=AXIS2_PLACEMENT_3D(' ',#17,$,$) ;
#35=AXIS2_PLACEMENT_3D('Cylinder Axis2P3D',#32,#33,#34) ;
#48=AXIS2_PLACEMENT_3D('Circle Axis2P3D',#46,#47,$) ;
#62=AXIS2_PLACEMENT_3D('Circle Axis2P3D',#60,#61,$) ;
#75=AXIS2_PLACEMENT_3D('Plane Axis2P3D',#72,#73,#74) ;
#106=AXIS2_PLACEMENT_3D('Cylinder Axis2P3D',#103,#104,#105) ;
#110=AXIS2_PLACEMENT_3D('Circle Axis2P3D',#108,#109,$) ;
#124=AXIS2_PLACEMENT_3D('Circle Axis2P3D',#122,#123,$) ;
#137=AXIS2_PLACEMENT_3D('Cylinder Axis2P3D',#134,#135,#136) ;
#141=AXIS2_PLACEMENT_3D('Circle Axis2P3D',#139,#140,$) ;
#155=AXIS2_PLACEMENT_3D('Circle Axis2P3D',#153,#154,$) ;
#168=AXIS2_PLACEMENT_3D('Plane Axis2P3D',#165,#166,#167) ;
#199=AXIS2_PLACEMENT_3D('Cylinder Axis2P3D',#196,#197,#198) ;
#203=AXIS2_PLACEMENT_3D('Circle Axis2P3D',#201,#202,$) ;
#208=AXIS2_PLACEMENT_3D('Circle Axis2P3D',#206,#207,$) ;
#221=AXIS2_PLACEMENT_3D('Plane Axis2P3D',#218,#219,#220) ;
#235=AXIS2_PLACEMENT_3D('Plane Axis2P3D',#232,#233,#234) ;
#251=AXIS2_PLACEMENT_3D('Achsensystem.3',#248,#249,#250) ;
#17=CARTESIAN_POINT(' ',(0.,0.,0.)) ;
#32=CARTESIAN_POINT('Axis2P3D Location',(2.5,2.5,12.5)) ;
#37=CARTESIAN_POINT('Line Origine',(5.,2.5,12.5)) ;
#41=CARTESIAN_POINT('Vertex',(5.,2.5,0.)) ;
#43=CARTESIAN_POINT('Vertex',(5.,2.5,25.)) ;
#46=CARTESIAN_POINT('Axis2P3D Location',(2.5,2.5,0.)) ;
#50=CARTESIAN_POINT('Vertex',(2.64705882353,4.99567099242,-1.5281577463E-016)) ;
#53=CARTESIAN_POINT('Line Origine',(2.64705882353,4.99567099242,12.5)) ;
#57=CARTESIAN_POINT('Vertex',(2.64705882353,4.99567099242,25.)) ;
#60=CARTESIAN_POINT('Axis2P3D Location',(2.5,2.5,25.)) ;
#72=CARTESIAN_POINT('Axis2P3D Location',(2.6,4.19705627485,-1.03914726748E-016)) ;
#77=CARTESIAN_POINT('Line Origine',(2.62352941176,4.59636363364,-1.28365250689E-016)) ;
#81=CARTESIAN_POINT('Vertex',(2.6,4.19705627485,-1.03914726748E-016)) ;
#84=CARTESIAN_POINT('Line Origine',(2.6,4.19705627485,12.5)) ;
#88=CARTESIAN_POINT('Vertex',(2.6,4.19705627485,25.)) ;
#91=CARTESIAN_POINT('Line Origine',(2.62352941176,4.59636363364,25.)) ;
#103=CARTESIAN_POINT('Axis2P3D Location',(2.5,2.5,12.5)) ;
#108=CARTESIAN_POINT('Axis2P3D Location',(2.5,2.5,0.)) ;
#112=CARTESIAN_POINT('Vertex',(4.2,2.5,0.)) ;
#115=CARTESIAN_POINT('Line Origine',(4.2,2.5,12.5)) ;
#119=CARTESIAN_POINT('Vertex',(4.2,2.5,25.)) ;
#122=CARTESIAN_POINT('Axis2P3D Location',(2.5,2.5,25.)) ;
#134=CARTESIAN_POINT('Axis2P3D Location',(2.5,2.5,12.5)) ;
#139=CARTESIAN_POINT('Axis2P3D Location',(2.5,2.5,0.)) ;
#143=CARTESIAN_POINT('Vertex',(2.4,4.19705627485,-1.03914726748E-016)) ;
#146=CARTESIAN_POINT('Line Origine',(2.4,4.19705627485,12.5)) ;
#150=CARTESIAN_POINT('Vertex',(2.4,4.19705627485,25.)) ;
#153=CARTESIAN_POINT('Axis2P3D Location',(2.5,2.5,25.)) ;
#165=CARTESIAN_POINT('Axis2P3D Location',(2.4,4.19705627485,-1.03914726748E-016)) ;
#170=CARTESIAN_POINT('Line Origine',(2.37647058824,4.59636363364,-1.28365250689E-016)) ;
#174=CARTESIAN_POINT('Vertex',(2.35294117647,4.99567099242,-1.5281577463E-016)) ;
#177=CARTESIAN_POINT('Line Origine',(2.35294117647,4.99567099242,12.5)) ;
#181=CARTESIAN_POINT('Vertex',(2.35294117647,4.99567099242,25.)) ;
#184=CARTESIAN_POINT('Line Origine',(2.37647058824,4.59636363364,25.)) ;
#196=CARTESIAN_POINT('Axis2P3D Location',(2.5,2.5,12.5)) ;
#201=CARTESIAN_POINT('Axis2P3D Location',(2.5,2.5,0.)) ;
#206=CARTESIAN_POINT('Axis2P3D Location',(2.5,2.5,25.)) ;
#218=CARTESIAN_POINT('Axis2P3D Location',(2.5,2.5,0.)) ;
#232=CARTESIAN_POINT('Axis2P3D Location',(2.5,2.5,25.)) ;
#248=CARTESIAN_POINT('Axis2P3D Location',(0.,0.,0.)) ;
#33=DIRECTION('Axis2P3D Direction',(3.74939945665E-033,6.12323399574E-017,1.)) ;
#34=DIRECTION('Axis2P3D XDirection',(1.,-6.12323399574E-017,0.)) ;
#38=DIRECTION('Vector Direction',(0.,7.1054273576E-017,1.)) ;
#47=DIRECTION('Axis2P3D Direction',(3.74939945665E-033,6.12323399574E-017,1.)) ;
#54=DIRECTION('Vector Direction',(0.,7.1054273576E-017,1.)) ;
#61=DIRECTION('Axis2P3D Direction',(3.74939945665E-033,6.12323399574E-017,1.)) ;
#73=DIRECTION('Axis2P3D Direction',(0.998268396969,-0.0588235294118,3.60190235043E-018)) ;
#74=DIRECTION('Axis2P3D XDirection',(0.0588235294118,0.998268396969,-6.11263098519E-017)) ;
#78=DIRECTION('Vector Direction',(0.0588235294118,0.998268396969,-6.11263098519E-017)) ;
#85=DIRECTION('Vector Direction',(0.,7.1054273576E-017,1.)) ;
#92=DIRECTION('Vector Direction',(0.0588235294118,0.998268396969,0.)) ;
#104=DIRECTION('Axis2P3D Direction',(3.74939945665E-033,6.12323399574E-017,1.)) ;
#105=DIRECTION('Axis2P3D XDirection',(1.,-6.12323399574E-017,0.)) ;
#109=DIRECTION('Axis2P3D Direction',(3.74939945665E-033,6.12323399574E-017,1.)) ;
#116=DIRECTION('Vector Direction',(0.,7.1054273576E-017,1.)) ;
#123=DIRECTION('Axis2P3D Direction',(3.74939945665E-033,6.12323399574E-017,1.)) ;
#135=DIRECTION('Axis2P3D Direction',(3.74939945665E-033,6.12323399574E-017,1.)) ;
#136=DIRECTION('Axis2P3D XDirection',(-0.0588235294118,0.998268396969,-6.11263098519E-017)) ;
#140=DIRECTION('Axis2P3D Direction',(3.74939945665E-033,6.12323399574E-017,1.)) ;
#147=DIRECTION('Vector Direction',(0.,7.1054273576E-017,1.)) ;
#154=DIRECTION('Axis2P3D Direction',(3.74939945665E-033,6.12323399574E-017,1.)) ;
#166=DIRECTION('Axis2P3D Direction',(0.998268396969,0.0588235294118,-3.60190235043E-018)) ;
#167=DIRECTION('Axis2P3D XDirection',(-0.0588235294118,0.998268396969,-6.11263098519E-017)) ;
#171=DIRECTION('Vector Direction',(-0.0588235294118,0.998268396969,-6.11263098519E-017)) ;
#178=DIRECTION('Vector Direction',(0.,7.1054273576E-017,1.)) ;
#185=DIRECTION('Vector Direction',(-0.0588235294118,0.998268396969,0.)) ;
#197=DIRECTION('Axis2P3D Direction',(3.74939945665E-033,6.12323399574E-017,1.)) ;
#198=DIRECTION('Axis2P3D XDirection',(-0.0588235294118,0.998268396969,-6.11263098519E-017)) ;
#202=DIRECTION('Axis2P3D Direction',(3.74939945665E-033,6.12323399574E-017,1.)) ;
#207=DIRECTION('Axis2P3D Direction',(3.74939945665E-033,6.12323399574E-017,1.)) ;
#219=DIRECTION('Axis2P3D Direction',(3.74939945665E-033,6.12323399574E-017,1.)) ;
#220=DIRECTION('Axis2P3D XDirection',(1.,-6.12323399574E-017,0.)) ;
#233=DIRECTION('Axis2P3D Direction',(3.74939945665E-033,6.12323399574E-017,1.)) ;
#234=DIRECTION('Axis2P3D XDirection',(1.,-6.12323399574E-017,0.)) ;
#249=DIRECTION('Axis2P3D Direction',(0.,0.,1.)) ;
#250=DIRECTION('Axis2P3D XDirection',(1.,0.,0.)) ;
#30=PRESENTATION_LAYER_ASSIGNMENT('1',' ',(#21)) ;
#8=PRODUCT_RELATED_PRODUCT_CATEGORY('part',$,(#5)) ;
#7=PRODUCT_CATEGORY('part','specification') ;
#29=STYLED_ITEM(' ',(#28),#21) ;
#256=STYLED_ITEM(' ',(#255),#251) ;
#28=PRESENTATION_STYLE_ASSIGNMENT((#27)) ;
#255=PRESENTATION_STYLE_ASSIGNMENT((#254)) ;
#254=CURVE_STYLE(' ',#252,POSITIVE_LENGTH_MEASURE(0.129999995232),#253) ;
#27=SURFACE_STYLE_USAGE(.BOTH.,#26) ;
#26=SURFACE_SIDE_STYLE(' ',(#25)) ;
#25=SURFACE_STYLE_FILL_AREA(#24) ;
#24=FILL_AREA_STYLE(' ',(#23)) ;
#23=FILL_AREA_STYLE_COLOUR(' ',#22) ;
#39=VECTOR('Line Direction',#38,1.) ;
#55=VECTOR('Line Direction',#54,1.) ;
#79=VECTOR('Line Direction',#78,1.) ;
#86=VECTOR('Line Direction',#85,1.) ;
#93=VECTOR('Line Direction',#92,1.) ;
#117=VECTOR('Line Direction',#116,1.) ;
#148=VECTOR('Line Direction',#147,1.) ;
#172=VECTOR('Line Direction',#171,1.) ;
#179=VECTOR('Line Direction',#178,1.) ;
#186=VECTOR('Line Direction',#185,1.) ;
#15=UNCERTAINTY_MEASURE_WITH_UNIT(LENGTH_MEASURE(0.005),#12,'distance_accuracy_value','CONFUSED CURVE UNCERTAINTY') ;
#247=SHAPE_REPRESENTATION_RELATIONSHIP(' ',' ',#19,#246) ;
#66=ORIENTED_EDGE('',*,*,#45,.F.) ;
#67=ORIENTED_EDGE('',*,*,#52,.T.) ;
#68=ORIENTED_EDGE('',*,*,#59,.T.) ;
#69=ORIENTED_EDGE('',*,*,#64,.F.) ;
#97=ORIENTED_EDGE('',*,*,#59,.F.) ;
#98=ORIENTED_EDGE('',*,*,#83,.T.) ;
#99=ORIENTED_EDGE('',*,*,#90,.T.) ;
#100=ORIENTED_EDGE('',*,*,#95,.F.) ;
#128=ORIENTED_EDGE('',*,*,#90,.F.) ;
#129=ORIENTED_EDGE('',*,*,#114,.T.) ;
#130=ORIENTED_EDGE('',*,*,#121,.T.) ;
#131=ORIENTED_EDGE('',*,*,#126,.F.) ;
#159=ORIENTED_EDGE('',*,*,#121,.F.) ;
#160=ORIENTED_EDGE('',*,*,#145,.T.) ;
#161=ORIENTED_EDGE('',*,*,#152,.T.) ;
#162=ORIENTED_EDGE('',*,*,#157,.F.) ;
#190=ORIENTED_EDGE('',*,*,#152,.F.) ;
#191=ORIENTED_EDGE('',*,*,#176,.T.) ;
#192=ORIENTED_EDGE('',*,*,#183,.T.) ;
#193=ORIENTED_EDGE('',*,*,#188,.F.) ;
#212=ORIENTED_EDGE('',*,*,#183,.F.) ;
#213=ORIENTED_EDGE('',*,*,#205,.T.) ;
#214=ORIENTED_EDGE('',*,*,#45,.T.) ;
#215=ORIENTED_EDGE('',*,*,#210,.F.) ;
#224=ORIENTED_EDGE('',*,*,#205,.F.) ;
#225=ORIENTED_EDGE('',*,*,#176,.F.) ;
#226=ORIENTED_EDGE('',*,*,#145,.F.) ;
#227=ORIENTED_EDGE('',*,*,#114,.F.) ;
#228=ORIENTED_EDGE('',*,*,#83,.F.) ;
#229=ORIENTED_EDGE('',*,*,#52,.F.) ;
#238=ORIENTED_EDGE('',*,*,#64,.T.) ;
#239=ORIENTED_EDGE('',*,*,#95,.T.) ;
#240=ORIENTED_EDGE('',*,*,#126,.T.) ;
#241=ORIENTED_EDGE('',*,*,#157,.T.) ;
#242=ORIENTED_EDGE('',*,*,#188,.T.) ;
#243=ORIENTED_EDGE('',*,*,#210,.T.) ;
#31=CLOSED_SHELL('Closed Shell',(#71,#102,#133,#164,#195,#217,#231,#245)) ;
#246=ADVANCED_BREP_SHAPE_REPRESENTATION('NONE',(#21),#16) ;
#71=ADVANCED_FACE('Hauptkoerper',(#70),#36,.T.) ;
#102=ADVANCED_FACE('Hauptkoerper',(#101),#76,.F.) ;
#133=ADVANCED_FACE('Hauptkoerper',(#132),#107,.F.) ;
#164=ADVANCED_FACE('Hauptkoerper',(#163),#138,.F.) ;
#195=ADVANCED_FACE('Hauptkoerper',(#194),#169,.T.) ;
#217=ADVANCED_FACE('Hauptkoerper',(#216),#200,.T.) ;
#231=ADVANCED_FACE('Hauptkoerper',(#230),#222,.F.) ;
#245=ADVANCED_FACE('Hauptkoerper',(#244),#236,.T.) ;
#4=APPLICATION_PROTOCOL_DEFINITION('international standard','automotive_design',2001,#1) ;
#21=MANIFOLD_SOLID_BREP('Hauptkoerper',#31) ;
#49=CIRCLE('generated circle',#48,2.5) ;
#63=CIRCLE('generated circle',#62,2.5) ;
#111=CIRCLE('generated circle',#110,1.7) ;
#125=CIRCLE('generated circle',#124,1.7) ;
#142=CIRCLE('generated circle',#141,1.7) ;
#156=CIRCLE('generated circle',#155,1.7) ;
#204=CIRCLE('generated circle',#203,2.5) ;
#209=CIRCLE('generated circle',#208,2.5) ;
#22=COLOUR_RGB('Colour',0.823529411765,0.823529411765,1.) ;
#257=CONSTRUCTIVE_GEOMETRY_REPRESENTATION('supplemental geometry',(#251),#16) ;
#258=CONSTRUCTIVE_GEOMETRY_REPRESENTATION_RELATIONSHIP('supplemental geometry','',#19,#257) ;
#36=CYLINDRICAL_SURFACE('generated cylinder',#35,2.5) ;
#107=CYLINDRICAL_SURFACE('generated cylinder',#106,1.7) ;
#138=CYLINDRICAL_SURFACE('generated cylinder',#137,1.7) ;
#200=CYLINDRICAL_SURFACE('generated cylinder',#199,2.5) ;
#253=DRAUGHTING_PRE_DEFINED_COLOUR('white') ;
#252=DRAUGHTING_PRE_DEFINED_CURVE_FONT('continuous') ;
#45=EDGE_CURVE('',#42,#44,#40,.T.) ;
#52=EDGE_CURVE('',#42,#51,#49,.T.) ;
#59=EDGE_CURVE('',#51,#58,#56,.T.) ;
#64=EDGE_CURVE('',#44,#58,#63,.T.) ;
#83=EDGE_CURVE('',#51,#82,#80,.F.) ;
#90=EDGE_CURVE('',#82,#89,#87,.T.) ;
#95=EDGE_CURVE('',#58,#89,#94,.F.) ;
#114=EDGE_CURVE('',#82,#113,#111,.F.) ;
#121=EDGE_CURVE('',#113,#120,#118,.T.) ;
#126=EDGE_CURVE('',#89,#120,#125,.F.) ;
#145=EDGE_CURVE('',#113,#144,#142,.F.) ;
#152=EDGE_CURVE('',#144,#151,#149,.T.) ;
#157=EDGE_CURVE('',#120,#151,#156,.F.) ;
#176=EDGE_CURVE('',#144,#175,#173,.T.) ;
#183=EDGE_CURVE('',#175,#182,#180,.T.) ;
#188=EDGE_CURVE('',#151,#182,#187,.T.) ;
#205=EDGE_CURVE('',#175,#42,#204,.T.) ;
#210=EDGE_CURVE('',#182,#44,#209,.T.) ;
#65=EDGE_LOOP('',(#66,#67,#68,#69)) ;
#96=EDGE_LOOP('',(#97,#98,#99,#100)) ;
#127=EDGE_LOOP('',(#128,#129,#130,#131)) ;
#158=EDGE_LOOP('',(#159,#160,#161,#162)) ;
#189=EDGE_LOOP('',(#190,#191,#192,#193)) ;
#211=EDGE_LOOP('',(#212,#213,#214,#215)) ;
#223=EDGE_LOOP('',(#224,#225,#226,#227,#228,#229)) ;
#237=EDGE_LOOP('',(#238,#239,#240,#241,#242,#243)) ;
#70=FACE_OUTER_BOUND('',#65,.T.) ;
#101=FACE_OUTER_BOUND('',#96,.T.) ;
#132=FACE_OUTER_BOUND('',#127,.T.) ;
#163=FACE_OUTER_BOUND('',#158,.T.) ;
#194=FACE_OUTER_BOUND('',#189,.T.) ;
#216=FACE_OUTER_BOUND('',#211,.T.) ;
#230=FACE_OUTER_BOUND('',#223,.T.) ;
#244=FACE_OUTER_BOUND('',#237,.T.) ;
#40=LINE('Line',#37,#39) ;
#56=LINE('Line',#53,#55) ;
#80=LINE('Line',#77,#79) ;
#87=LINE('Line',#84,#86) ;
#94=LINE('Line',#91,#93) ;
#118=LINE('Line',#115,#117) ;
#149=LINE('Line',#146,#148) ;
#173=LINE('Line',#170,#172) ;
#180=LINE('Line',#177,#179) ;
#187=LINE('Line',#184,#186) ;
#76=PLANE('',#75) ;
#169=PLANE('',#168) ;
#222=PLANE('',#221) ;
#236=PLANE('',#235) ;
#9=PRODUCT_CATEGORY_RELATIONSHIP(' ',' ',#7,#8) ;
#6=PRODUCT_DEFINITION_FORMATION_WITH_SPECIFIED_SOURCE('',' ',#5,.NOT_KNOWN.) ;
#20=SHAPE_DEFINITION_REPRESENTATION(#11,#19) ;
#42=VERTEX_POINT('',#41) ;
#44=VERTEX_POINT('',#43) ;
#51=VERTEX_POINT('',#50) ;
#58=VERTEX_POINT('',#57) ;
#82=VERTEX_POINT('',#81) ;
#89=VERTEX_POINT('',#88) ;
#113=VERTEX_POINT('',#112) ;
#120=VERTEX_POINT('',#119) ;
#144=VERTEX_POINT('',#143) ;
#151=VERTEX_POINT('',#150) ;
#175=VERTEX_POINT('',#174) ;
#182=VERTEX_POINT('',#181) ;
#12=(LENGTH_UNIT()NAMED_UNIT(*)SI_UNIT(.MILLI.,.METRE.)) ;
#13=(NAMED_UNIT(*)PLANE_ANGLE_UNIT()SI_UNIT($,.RADIAN.)) ;
#14=(NAMED_UNIT(*)SI_UNIT($,.STERADIAN.)SOLID_ANGLE_UNIT()) ;
#16=(GEOMETRIC_REPRESENTATION_CONTEXT(3)GLOBAL_UNCERTAINTY_ASSIGNED_CONTEXT((#15))GLOBAL_UNIT_ASSIGNED_CONTEXT((#12,#13,#14))REPRESENTATION_CONTEXT(' ',' ')) ;
ENDSEC;
END-ISO-10303-21;
