ISO-10303-21;
HEADER;
FILE_DESCRIPTION(('CATIA V5R24 STEP','CAx-IF Rec.Pracs.--- Model Styling and Organization---1.2---2011-12-15'),'2;1');

FILE_NAME ('D1445734_0', '2017-01-03T07:53:49+00:00', ('Weidmueller Interface'), ('Weidmueller'), 'CATIA Version 5-6 Release 2014 SP4 HF52', 'CATIA V5 STEP AP214', 'none');

FILE_SCHEMA(('AUTOMOTIVE_DESIGN { 1 0 10303 214 1 1 1 1 }'));

ENDSEC;
DATA;
#5=PRODUCT('v5-standard_part','','',(#2)) ;
#2=PRODUCT_CONTEXT(' ',#1,'mechanical') ;
#1=APPLICATION_CONTEXT('automotive design') ;
#10=PRODUCT_DEFINITION('',' ',#6,#3) ;
#3=PRODUCT_DEFINITION_CONTEXT('part definition',#1,' ') ;
#11=PRODUCT_DEFINITION_SHAPE(' ',' ',#10) ;
#326=MECHANICAL_DESIGN_GEOMETRIC_PRESENTATION_REPRESENTATION(' ',(#46),#16) ;
#19=SHAPE_REPRESENTATION(' ',(#18),#16) ;
#18=AXIS2_PLACEMENT_3D(' ',#17,$,$) ;
#24=AXIS2_PLACEMENT_3D('Plane Axis2P3D',#21,#22,#23) ;
#31=AXIS2_PLACEMENT_3D('Plane Axis2P3D',#28,#29,#30) ;
#36=AXIS2_PLACEMENT_3D('Plane Axis2P3D',#33,#34,#35) ;
#52=AXIS2_PLACEMENT_3D('Plane Axis2P3D',#49,#50,#51) ;
#56=AXIS2_PLACEMENT_3D('Circle Axis2P3D',#54,#55,$) ;
#65=AXIS2_PLACEMENT_3D('Circle Axis2P3D',#63,#64,$) ;
#74=AXIS2_PLACEMENT_3D('Circle Axis2P3D',#72,#73,$) ;
#83=AXIS2_PLACEMENT_3D('Circle Axis2P3D',#81,#82,$) ;
#94=AXIS2_PLACEMENT_3D('Cylinder Axis2P3D',#91,#92,#93) ;
#105=AXIS2_PLACEMENT_3D('Circle Axis2P3D',#103,#104,$) ;
#124=AXIS2_PLACEMENT_3D('Circle Axis2P3D',#122,#123,$) ;
#137=AXIS2_PLACEMENT_3D('Plane Axis2P3D',#134,#135,#136) ;
#147=AXIS2_PLACEMENT_3D('Cylinder Axis2P3D',#144,#145,#146) ;
#151=AXIS2_PLACEMENT_3D('Circle Axis2P3D',#149,#150,$) ;
#167=AXIS2_PLACEMENT_3D('Circle Axis2P3D',#165,#166,$) ;
#181=AXIS2_PLACEMENT_3D('Circle Axis2P3D',#179,#180,$) ;
#209=AXIS2_PLACEMENT_3D('Circle Axis2P3D',#207,#208,$) ;
#223=AXIS2_PLACEMENT_3D('Circle Axis2P3D',#221,#222,$) ;
#237=AXIS2_PLACEMENT_3D('Circle Axis2P3D',#235,#236,$) ;
#254=AXIS2_PLACEMENT_3D('Plane Axis2P3D',#251,#252,#253) ;
#279=AXIS2_PLACEMENT_3D('Plane Axis2P3D',#276,#277,#278) ;
#303=AXIS2_PLACEMENT_3D('Plane Axis2P3D',#300,#301,#302) ;
#315=AXIS2_PLACEMENT_3D('Plane Axis2P3D',#312,#313,#314) ;
#17=CARTESIAN_POINT(' ',(0.,0.,0.)) ;
#21=CARTESIAN_POINT('Axis2P3D Location',(0.,0.,0.)) ;
#28=CARTESIAN_POINT('Axis2P3D Location',(0.,0.,0.)) ;
#33=CARTESIAN_POINT('Axis2P3D Location',(0.,0.,0.)) ;
#49=CARTESIAN_POINT('Axis2P3D Location',(0.,0.,22.)) ;
#54=CARTESIAN_POINT('Axis2P3D Location',(2.75,2.75,22.)) ;
#58=CARTESIAN_POINT('Vertex',(-4.4408920985E-016,2.75,22.)) ;
#60=CARTESIAN_POINT('Vertex',(5.5,2.75,22.)) ;
#63=CARTESIAN_POINT('Axis2P3D Location',(2.75,2.75,22.)) ;
#72=CARTESIAN_POINT('Axis2P3D Location',(2.75,2.75,22.)) ;
#76=CARTESIAN_POINT('Vertex',(1.25,2.75,22.)) ;
#78=CARTESIAN_POINT('Vertex',(4.25,2.75,22.)) ;
#81=CARTESIAN_POINT('Axis2P3D Location',(2.75,2.75,22.)) ;
#91=CARTESIAN_POINT('Axis2P3D Location',(2.75,2.75,11.)) ;
#96=CARTESIAN_POINT('Line Origine',(4.25,2.75,11.)) ;
#100=CARTESIAN_POINT('Vertex',(4.25,2.75,0.)) ;
#103=CARTESIAN_POINT('Axis2P3D Location',(2.75,2.75,0.)) ;
#107=CARTESIAN_POINT('Vertex',(1.25,2.75,0.)) ;
#110=CARTESIAN_POINT('Line Origine',(1.25,2.75,11.)) ;
#122=CARTESIAN_POINT('Axis2P3D Location',(2.75,2.75,0.)) ;
#134=CARTESIAN_POINT('Axis2P3D Location',(0.,0.,0.)) ;
#144=CARTESIAN_POINT('Axis2P3D Location',(2.75,2.75,23.)) ;
#149=CARTESIAN_POINT('Axis2P3D Location',(2.75,2.75,23.)) ;
#153=CARTESIAN_POINT('Vertex',(0.045836543402,3.25,23.)) ;
#155=CARTESIAN_POINT('Vertex',(-4.4408920985E-016,2.75,23.)) ;
#158=CARTESIAN_POINT('Line Origine',(0.045836543402,3.25,23.)) ;
#162=CARTESIAN_POINT('Vertex',(0.045836543402,3.25,24.)) ;
#165=CARTESIAN_POINT('Axis2P3D Location',(2.75,2.75,24.)) ;
#169=CARTESIAN_POINT('Vertex',(5.4541634566,3.25,24.)) ;
#172=CARTESIAN_POINT('Line Origine',(5.4541634566,3.25,23.)) ;
#176=CARTESIAN_POINT('Vertex',(5.4541634566,3.25,23.)) ;
#179=CARTESIAN_POINT('Axis2P3D Location',(2.75,2.75,23.)) ;
#183=CARTESIAN_POINT('Vertex',(5.5,2.75,23.)) ;
#186=CARTESIAN_POINT('Line Origine',(5.5,2.75,23.)) ;
#191=CARTESIAN_POINT('Line Origine',(-4.4408920985E-016,2.75,23.)) ;
#207=CARTESIAN_POINT('Axis2P3D Location',(2.75,2.75,23.)) ;
#211=CARTESIAN_POINT('Vertex',(5.4541634566,2.25,23.)) ;
#214=CARTESIAN_POINT('Line Origine',(5.4541634566,2.25,23.)) ;
#218=CARTESIAN_POINT('Vertex',(5.4541634566,2.25,24.)) ;
#221=CARTESIAN_POINT('Axis2P3D Location',(2.75,2.75,24.)) ;
#225=CARTESIAN_POINT('Vertex',(0.045836543402,2.25,24.)) ;
#228=CARTESIAN_POINT('Line Origine',(0.045836543402,2.25,23.)) ;
#232=CARTESIAN_POINT('Vertex',(0.045836543402,2.25,23.)) ;
#235=CARTESIAN_POINT('Axis2P3D Location',(2.75,2.75,23.)) ;
#251=CARTESIAN_POINT('Axis2P3D Location',(0.,0.,24.)) ;
#256=CARTESIAN_POINT('Line Origine',(2.75,3.25,24.)) ;
#266=CARTESIAN_POINT('Line Origine',(2.75,2.25,24.)) ;
#276=CARTESIAN_POINT('Axis2P3D Location',(0.,0.,23.)) ;
#281=CARTESIAN_POINT('Line Origine',(2.75,3.25,23.)) ;
#286=CARTESIAN_POINT('Line Origine',(2.75,2.25,23.)) ;
#300=CARTESIAN_POINT('Axis2P3D Location',(-1.3122882843,3.25,24.)) ;
#312=CARTESIAN_POINT('Axis2P3D Location',(6.84512805939,2.25,24.)) ;
#22=DIRECTION('Axis2P3D Direction',(0.,0.,1.)) ;
#23=DIRECTION('Axis2P3D XDirection',(1.,0.,0.)) ;
#29=DIRECTION('Axis2P3D Direction',(1.,0.,0.)) ;
#30=DIRECTION('Axis2P3D XDirection',(0.,1.,0.)) ;
#34=DIRECTION('Axis2P3D Direction',(0.,1.,0.)) ;
#35=DIRECTION('Axis2P3D XDirection',(0.,0.,1.)) ;
#50=DIRECTION('Axis2P3D Direction',(0.,0.,1.)) ;
#51=DIRECTION('Axis2P3D XDirection',(1.,0.,0.)) ;
#55=DIRECTION('Axis2P3D Direction',(0.,0.,1.)) ;
#64=DIRECTION('Axis2P3D Direction',(0.,0.,1.)) ;
#73=DIRECTION('Axis2P3D Direction',(0.,0.,1.)) ;
#82=DIRECTION('Axis2P3D Direction',(0.,0.,1.)) ;
#92=DIRECTION('Axis2P3D Direction',(0.,0.,1.)) ;
#93=DIRECTION('Axis2P3D XDirection',(1.,0.,0.)) ;
#97=DIRECTION('Vector Direction',(0.,0.,1.)) ;
#104=DIRECTION('Axis2P3D Direction',(0.,0.,1.)) ;
#111=DIRECTION('Vector Direction',(0.,0.,1.)) ;
#123=DIRECTION('Axis2P3D Direction',(0.,0.,1.)) ;
#135=DIRECTION('Axis2P3D Direction',(0.,0.,1.)) ;
#136=DIRECTION('Axis2P3D XDirection',(1.,0.,0.)) ;
#145=DIRECTION('Axis2P3D Direction',(0.,0.,1.)) ;
#146=DIRECTION('Axis2P3D XDirection',(1.,0.,0.)) ;
#150=DIRECTION('Axis2P3D Direction',(0.,0.,1.)) ;
#159=DIRECTION('Vector Direction',(0.,0.,1.)) ;
#166=DIRECTION('Axis2P3D Direction',(0.,0.,1.)) ;
#173=DIRECTION('Vector Direction',(0.,0.,1.)) ;
#180=DIRECTION('Axis2P3D Direction',(0.,0.,1.)) ;
#187=DIRECTION('Vector Direction',(0.,0.,1.)) ;
#192=DIRECTION('Vector Direction',(0.,0.,1.)) ;
#208=DIRECTION('Axis2P3D Direction',(0.,0.,1.)) ;
#215=DIRECTION('Vector Direction',(0.,0.,1.)) ;
#222=DIRECTION('Axis2P3D Direction',(0.,0.,1.)) ;
#229=DIRECTION('Vector Direction',(0.,0.,1.)) ;
#236=DIRECTION('Axis2P3D Direction',(0.,0.,1.)) ;
#252=DIRECTION('Axis2P3D Direction',(0.,0.,1.)) ;
#253=DIRECTION('Axis2P3D XDirection',(1.,0.,0.)) ;
#257=DIRECTION('Vector Direction',(1.,0.,0.)) ;
#267=DIRECTION('Vector Direction',(-1.,0.,0.)) ;
#277=DIRECTION('Axis2P3D Direction',(0.,0.,1.)) ;
#278=DIRECTION('Axis2P3D XDirection',(1.,0.,0.)) ;
#282=DIRECTION('Vector Direction',(1.,0.,0.)) ;
#287=DIRECTION('Vector Direction',(-1.,0.,0.)) ;
#301=DIRECTION('Axis2P3D Direction',(-0.,1.,0.)) ;
#302=DIRECTION('Axis2P3D XDirection',(1.,0.,0.)) ;
#313=DIRECTION('Axis2P3D Direction',(-0.,-1.,-0.)) ;
#314=DIRECTION('Axis2P3D XDirection',(-1.,0.,0.)) ;
#47=PRESENTATION_LAYER_ASSIGNMENT('1',' ',(#38)) ;
#8=PRODUCT_RELATED_PRODUCT_CATEGORY('part',$,(#5)) ;
#7=PRODUCT_CATEGORY('part','specification') ;
#46=STYLED_ITEM(' ',(#45),#38) ;
#45=PRESENTATION_STYLE_ASSIGNMENT((#44)) ;
#44=SURFACE_STYLE_USAGE(.BOTH.,#43) ;
#43=SURFACE_SIDE_STYLE(' ',(#42)) ;
#42=SURFACE_STYLE_FILL_AREA(#41) ;
#41=FILL_AREA_STYLE(' ',(#40)) ;
#40=FILL_AREA_STYLE_COLOUR(' ',#39) ;
#98=VECTOR('Line Direction',#97,1.) ;
#112=VECTOR('Line Direction',#111,1.) ;
#160=VECTOR('Line Direction',#159,1.) ;
#174=VECTOR('Line Direction',#173,1.) ;
#188=VECTOR('Line Direction',#187,1.) ;
#193=VECTOR('Line Direction',#192,1.) ;
#216=VECTOR('Line Direction',#215,1.) ;
#230=VECTOR('Line Direction',#229,1.) ;
#258=VECTOR('Line Direction',#257,1.) ;
#268=VECTOR('Line Direction',#267,1.) ;
#283=VECTOR('Line Direction',#282,1.) ;
#288=VECTOR('Line Direction',#287,1.) ;
#15=UNCERTAINTY_MEASURE_WITH_UNIT(LENGTH_MEASURE(0.005),#12,'distance_accuracy_value','CONFUSED CURVE UNCERTAINTY') ;
#325=SHAPE_REPRESENTATION_RELATIONSHIP(' ',' ',#19,#324) ;
#69=ORIENTED_EDGE('',*,*,#62,.F.) ;
#70=ORIENTED_EDGE('',*,*,#67,.F.) ;
#87=ORIENTED_EDGE('',*,*,#80,.T.) ;
#88=ORIENTED_EDGE('',*,*,#85,.T.) ;
#116=ORIENTED_EDGE('',*,*,#102,.F.) ;
#117=ORIENTED_EDGE('',*,*,#109,.T.) ;
#118=ORIENTED_EDGE('',*,*,#114,.T.) ;
#119=ORIENTED_EDGE('',*,*,#85,.F.) ;
#128=ORIENTED_EDGE('',*,*,#114,.F.) ;
#129=ORIENTED_EDGE('',*,*,#126,.T.) ;
#130=ORIENTED_EDGE('',*,*,#102,.T.) ;
#131=ORIENTED_EDGE('',*,*,#80,.F.) ;
#140=ORIENTED_EDGE('',*,*,#126,.F.) ;
#141=ORIENTED_EDGE('',*,*,#109,.F.) ;
#197=ORIENTED_EDGE('',*,*,#157,.F.) ;
#198=ORIENTED_EDGE('',*,*,#164,.F.) ;
#199=ORIENTED_EDGE('',*,*,#171,.F.) ;
#200=ORIENTED_EDGE('',*,*,#178,.T.) ;
#201=ORIENTED_EDGE('',*,*,#185,.F.) ;
#202=ORIENTED_EDGE('',*,*,#190,.F.) ;
#203=ORIENTED_EDGE('',*,*,#67,.T.) ;
#204=ORIENTED_EDGE('',*,*,#195,.T.) ;
#241=ORIENTED_EDGE('',*,*,#213,.F.) ;
#242=ORIENTED_EDGE('',*,*,#220,.F.) ;
#243=ORIENTED_EDGE('',*,*,#227,.F.) ;
#244=ORIENTED_EDGE('',*,*,#234,.T.) ;
#245=ORIENTED_EDGE('',*,*,#239,.F.) ;
#246=ORIENTED_EDGE('',*,*,#195,.F.) ;
#247=ORIENTED_EDGE('',*,*,#62,.T.) ;
#248=ORIENTED_EDGE('',*,*,#190,.T.) ;
#262=ORIENTED_EDGE('',*,*,#171,.T.) ;
#263=ORIENTED_EDGE('',*,*,#260,.F.) ;
#272=ORIENTED_EDGE('',*,*,#227,.T.) ;
#273=ORIENTED_EDGE('',*,*,#270,.F.) ;
#292=ORIENTED_EDGE('',*,*,#213,.T.) ;
#293=ORIENTED_EDGE('',*,*,#185,.T.) ;
#294=ORIENTED_EDGE('',*,*,#285,.T.) ;
#295=ORIENTED_EDGE('',*,*,#157,.T.) ;
#296=ORIENTED_EDGE('',*,*,#239,.T.) ;
#297=ORIENTED_EDGE('',*,*,#290,.T.) ;
#306=ORIENTED_EDGE('',*,*,#285,.F.) ;
#307=ORIENTED_EDGE('',*,*,#178,.F.) ;
#308=ORIENTED_EDGE('',*,*,#260,.T.) ;
#309=ORIENTED_EDGE('',*,*,#164,.T.) ;
#318=ORIENTED_EDGE('',*,*,#290,.F.) ;
#319=ORIENTED_EDGE('',*,*,#234,.F.) ;
#320=ORIENTED_EDGE('',*,*,#270,.T.) ;
#321=ORIENTED_EDGE('',*,*,#220,.T.) ;
#89=FACE_BOUND('',#86,.T.) ;
#48=CLOSED_SHELL('Closed Shell',(#90,#121,#133,#143,#206,#250,#265,#275,#299,#311,#323)) ;
#324=ADVANCED_BREP_SHAPE_REPRESENTATION('NONE',(#38),#16) ;
#90=ADVANCED_FACE('V1',(#71,#89),#53,.F.) ;
#121=ADVANCED_FACE('V1',(#120),#95,.T.) ;
#133=ADVANCED_FACE('V1',(#132),#95,.T.) ;
#143=ADVANCED_FACE('V1',(#142),#138,.F.) ;
#206=ADVANCED_FACE('V1',(#205),#148,.T.) ;
#250=ADVANCED_FACE('V1',(#249),#148,.T.) ;
#265=ADVANCED_FACE('V1',(#264),#255,.T.) ;
#275=ADVANCED_FACE('V1',(#274),#255,.T.) ;
#299=ADVANCED_FACE('V1',(#298),#280,.T.) ;
#311=ADVANCED_FACE('V1',(#310),#304,.F.) ;
#323=ADVANCED_FACE('V1',(#322),#316,.F.) ;
#4=APPLICATION_PROTOCOL_DEFINITION('international standard','automotive_design',2001,#1) ;
#38=MANIFOLD_SOLID_BREP('V1',#48) ;
#57=CIRCLE('generated circle',#56,2.75) ;
#66=CIRCLE('generated circle',#65,2.75) ;
#75=CIRCLE('generated circle',#74,1.5) ;
#84=CIRCLE('generated circle',#83,1.5) ;
#106=CIRCLE('generated circle',#105,1.5) ;
#125=CIRCLE('generated circle',#124,1.5) ;
#152=CIRCLE('generated circle',#151,2.75) ;
#168=CIRCLE('generated circle',#167,2.75) ;
#182=CIRCLE('generated circle',#181,2.75) ;
#210=CIRCLE('generated circle',#209,2.75) ;
#224=CIRCLE('generated circle',#223,2.75) ;
#238=CIRCLE('generated circle',#237,2.75) ;
#39=COLOUR_RGB('Colour',0.823529411765,0.823529411765,1.) ;
#26=CONSTRUCTIVE_GEOMETRY_REPRESENTATION('supplemental geometry',(#25,#32,#37),#16) ;
#27=CONSTRUCTIVE_GEOMETRY_REPRESENTATION_RELATIONSHIP('supplemental geometry','',#19,#26) ;
#95=CYLINDRICAL_SURFACE('generated cylinder',#94,1.5) ;
#148=CYLINDRICAL_SURFACE('generated cylinder',#147,2.75) ;
#62=EDGE_CURVE('',#59,#61,#57,.T.) ;
#67=EDGE_CURVE('',#61,#59,#66,.T.) ;
#80=EDGE_CURVE('',#77,#79,#75,.T.) ;
#85=EDGE_CURVE('',#79,#77,#84,.T.) ;
#102=EDGE_CURVE('',#101,#79,#99,.T.) ;
#109=EDGE_CURVE('',#101,#108,#106,.T.) ;
#114=EDGE_CURVE('',#108,#77,#113,.T.) ;
#126=EDGE_CURVE('',#108,#101,#125,.T.) ;
#157=EDGE_CURVE('',#154,#156,#152,.T.) ;
#164=EDGE_CURVE('',#163,#154,#161,.F.) ;
#171=EDGE_CURVE('',#170,#163,#168,.T.) ;
#178=EDGE_CURVE('',#170,#177,#175,.F.) ;
#185=EDGE_CURVE('',#184,#177,#182,.T.) ;
#190=EDGE_CURVE('',#61,#184,#189,.T.) ;
#195=EDGE_CURVE('',#59,#156,#194,.T.) ;
#213=EDGE_CURVE('',#212,#184,#210,.T.) ;
#220=EDGE_CURVE('',#219,#212,#217,.F.) ;
#227=EDGE_CURVE('',#226,#219,#224,.T.) ;
#234=EDGE_CURVE('',#226,#233,#231,.F.) ;
#239=EDGE_CURVE('',#156,#233,#238,.T.) ;
#260=EDGE_CURVE('',#170,#163,#259,.F.) ;
#270=EDGE_CURVE('',#226,#219,#269,.F.) ;
#285=EDGE_CURVE('',#177,#154,#284,.F.) ;
#290=EDGE_CURVE('',#233,#212,#289,.F.) ;
#68=EDGE_LOOP('',(#69,#70)) ;
#86=EDGE_LOOP('',(#87,#88)) ;
#115=EDGE_LOOP('',(#116,#117,#118,#119)) ;
#127=EDGE_LOOP('',(#128,#129,#130,#131)) ;
#139=EDGE_LOOP('',(#140,#141)) ;
#196=EDGE_LOOP('',(#197,#198,#199,#200,#201,#202,#203,#204)) ;
#240=EDGE_LOOP('',(#241,#242,#243,#244,#245,#246,#247,#248)) ;
#261=EDGE_LOOP('',(#262,#263)) ;
#271=EDGE_LOOP('',(#272,#273)) ;
#291=EDGE_LOOP('',(#292,#293,#294,#295,#296,#297)) ;
#305=EDGE_LOOP('',(#306,#307,#308,#309)) ;
#317=EDGE_LOOP('',(#318,#319,#320,#321)) ;
#71=FACE_OUTER_BOUND('',#68,.T.) ;
#120=FACE_OUTER_BOUND('',#115,.T.) ;
#132=FACE_OUTER_BOUND('',#127,.T.) ;
#142=FACE_OUTER_BOUND('',#139,.T.) ;
#205=FACE_OUTER_BOUND('',#196,.T.) ;
#249=FACE_OUTER_BOUND('',#240,.T.) ;
#264=FACE_OUTER_BOUND('',#261,.T.) ;
#274=FACE_OUTER_BOUND('',#271,.T.) ;
#298=FACE_OUTER_BOUND('',#291,.T.) ;
#310=FACE_OUTER_BOUND('',#305,.T.) ;
#322=FACE_OUTER_BOUND('',#317,.T.) ;
#99=LINE('Line',#96,#98) ;
#113=LINE('Line',#110,#112) ;
#161=LINE('Line',#158,#160) ;
#175=LINE('Line',#172,#174) ;
#189=LINE('Line',#186,#188) ;
#194=LINE('Line',#191,#193) ;
#217=LINE('Line',#214,#216) ;
#231=LINE('Line',#228,#230) ;
#259=LINE('Line',#256,#258) ;
#269=LINE('Line',#266,#268) ;
#284=LINE('Line',#281,#283) ;
#289=LINE('Line',#286,#288) ;
#25=PLANE('Referenz_xy',#24) ;
#32=PLANE('Referenz_yz',#31) ;
#37=PLANE('Referenz_xz',#36) ;
#53=PLANE('',#52) ;
#138=PLANE('',#137) ;
#255=PLANE('',#254) ;
#280=PLANE('',#279) ;
#304=PLANE('',#303) ;
#316=PLANE('',#315) ;
#9=PRODUCT_CATEGORY_RELATIONSHIP(' ',' ',#7,#8) ;
#6=PRODUCT_DEFINITION_FORMATION_WITH_SPECIFIED_SOURCE('',' ',#5,.NOT_KNOWN.) ;
#20=SHAPE_DEFINITION_REPRESENTATION(#11,#19) ;
#59=VERTEX_POINT('',#58) ;
#61=VERTEX_POINT('',#60) ;
#77=VERTEX_POINT('',#76) ;
#79=VERTEX_POINT('',#78) ;
#101=VERTEX_POINT('',#100) ;
#108=VERTEX_POINT('',#107) ;
#154=VERTEX_POINT('',#153) ;
#156=VERTEX_POINT('',#155) ;
#163=VERTEX_POINT('',#162) ;
#170=VERTEX_POINT('',#169) ;
#177=VERTEX_POINT('',#176) ;
#184=VERTEX_POINT('',#183) ;
#212=VERTEX_POINT('',#211) ;
#219=VERTEX_POINT('',#218) ;
#226=VERTEX_POINT('',#225) ;
#233=VERTEX_POINT('',#232) ;
#12=(LENGTH_UNIT()NAMED_UNIT(*)SI_UNIT(.MILLI.,.METRE.)) ;
#13=(NAMED_UNIT(*)PLANE_ANGLE_UNIT()SI_UNIT($,.RADIAN.)) ;
#14=(NAMED_UNIT(*)SI_UNIT($,.STERADIAN.)SOLID_ANGLE_UNIT()) ;
#16=(GEOMETRIC_REPRESENTATION_CONTEXT(3)GLOBAL_UNCERTAINTY_ASSIGNED_CONTEXT((#15))GLOBAL_UNIT_ASSIGNED_CONTEXT((#12,#13,#14))REPRESENTATION_CONTEXT(' ',' ')) ;
ENDSEC;
END-ISO-10303-21;
