ISO-10303-21;
HEADER;
FILE_DESCRIPTION(('CATIA V5R19 STEP'),'2;1');

FILE_NAME ('D1453327_0_1609801691_1609801691.stp','2014-11-25T08:44:40+00:00',('none'),('Weidmueller'),'CATIA Version 5 Release 20 SP 5 (IN-10)','CATIA V5 STEP AP214','none');

FILE_SCHEMA(('AUTOMOTIVE_DESIGN { 1 0 10303 214 1 1 1 1 }'));

ENDSEC;
/* file written by CATIA V5R20 */
DATA;
#5=PRODUCT('DEK 5/5','','<Q-CHECKER_SEAL> Q-Checker Version 2.14.8  \X2\000A\X0\CATIA-Version         : Catia V5 R20 SP5 Build Date 01-06-2014.17.15\X2\000A\X0\Model size (in KByte) : 0\X2\000A\X0\Checking date         : 2014-10-23 08:35:16\X2\000A\X0\Checking profile      : ADMIN / Release_2D-3D - sav20121130 [CATPart]\X2\000A\X0\Model assessment      : In Ordnung (IO)\X2\000A\X0\Total weight sum      : 0\X2\000A\X0\<CROSS_CHECK_SUM>\X2\000A\X0\  <CHKSUM_DATE> 156645733 </CHKSUM_DATE>\X2\000A\X0\  <CHKSUM_ENTITIES> -395692971 </CHKSUM_ENTITIES>\X2\000A\X0\  <CHKSUM_PROFILE> 1594213346 </CHKSUM_PROFILE>\X2\000A\X0\  <CHKSUM_DIMENSION> -186917087 </CHKSUM_DIMENSION>\X2\000A\X0\  <CHKSUM_PROJINTERSEC> -896974048 </CHKSUM_PROJINTERSEC>\X2\000A\X0\  <CHKSUM_IDENTCRV> -896974048 </CHKSUM_IDENTCRV>\X2\000A\X0\  <CHKSUM_INFINITY> 138018827 </CHKSUM_INFINITY>\X2\000A\X0\</CROSS_CHECK_SUM>\X2\000A\X0\</Q-CHECKER_SEAL> \X2\000A\X0\ \X2\000A\X0\ \X2\000A\X0\ \X2\000A\X0\ \X2\000A\X0\ \X2\000A\X0\ \X2\000A\X0\ \X2\000A\X0\',(#2)) ;
#2=PRODUCT_CONTEXT(' ',#1,'mechanical') ;
#1=APPLICATION_CONTEXT('automotive design') ;
#10=PRODUCT_DEFINITION('',' ',#6,#3) ;
#3=PRODUCT_DEFINITION_CONTEXT('part definition',#1,' ') ;
#11=PRODUCT_DEFINITION_SHAPE(' ',' ',#10) ;
#452=MECHANICAL_DESIGN_GEOMETRIC_PRESENTATION_REPRESENTATION(' ',(#30),#17) ;
#20=SHAPE_REPRESENTATION(' ',(#19),#17) ;
#19=AXIS2_PLACEMENT_3D(' ',#18,$,$) ;
#36=AXIS2_PLACEMENT_3D('Plane Axis2P3D',#33,#34,#35) ;
#76=AXIS2_PLACEMENT_3D('Plane Axis2P3D',#73,#74,#75) ;
#107=AXIS2_PLACEMENT_3D('Plane Axis2P3D',#104,#105,#106) ;
#131=AXIS2_PLACEMENT_3D('Plane Axis2P3D',#128,#129,#130) ;
#155=AXIS2_PLACEMENT_3D('Plane Axis2P3D',#152,#153,#154) ;
#172=AXIS2_PLACEMENT_3D('Plane Axis2P3D',#169,#170,#171) ;
#276=AXIS2_PLACEMENT_3D('Plane Axis2P3D',#273,#274,#275) ;
#293=AXIS2_PLACEMENT_3D('Plane Axis2P3D',#290,#291,#292) ;
#345=AXIS2_PLACEMENT_3D('Plane Axis2P3D',#342,#343,#344) ;
#385=AXIS2_PLACEMENT_3D('Plane Axis2P3D',#382,#383,#384) ;
#407=AXIS2_PLACEMENT_3D('Plane Axis2P3D',#404,#405,#406) ;
#424=AXIS2_PLACEMENT_3D('Plane Axis2P3D',#421,#422,#423) ;
#441=AXIS2_PLACEMENT_3D('Plane Axis2P3D',#438,#439,#440) ;
#18=CARTESIAN_POINT(' ',(0.,0.,0.)) ;
#33=CARTESIAN_POINT('Axis2P3D Location',(2.45,4.25934419591,3.86421450393E-009)) ;
#38=CARTESIAN_POINT('Line Origine',(2.45,3.68689464819,1.57279221)) ;
#42=CARTESIAN_POINT('Vertex',(0.525,3.68689464819,1.57279221)) ;
#44=CARTESIAN_POINT('Vertex',(4.375,3.68689464819,1.57279221)) ;
#47=CARTESIAN_POINT('Line Origine',(0.525,3.97311942205,0.786396106932)) ;
#51=CARTESIAN_POINT('Vertex',(0.525,4.25934419591,3.86421428189E-009)) ;
#54=CARTESIAN_POINT('Line Origine',(2.45,4.25934419591,3.86421450393E-009)) ;
#58=CARTESIAN_POINT('Vertex',(4.375,4.25934419591,3.86421472598E-009)) ;
#61=CARTESIAN_POINT('Line Origine',(4.375,3.97311942205,0.786396106932)) ;
#73=CARTESIAN_POINT('Axis2P3D Location',(4.375,2.6,1.57279221)) ;
#78=CARTESIAN_POINT('Line Origine',(4.375,4.14344732409,1.57279221)) ;
#82=CARTESIAN_POINT('Vertex',(4.375,4.6,1.57279221)) ;
#85=CARTESIAN_POINT('Line Origine',(4.375,4.42967209795,3.86421494802E-009)) ;
#89=CARTESIAN_POINT('Vertex',(4.375,4.6,3.86421494802E-009)) ;
#92=CARTESIAN_POINT('Line Origine',(4.375,4.6,0.786396106932)) ;
#104=CARTESIAN_POINT('Axis2P3D Location',(2.45,4.25934419591,3.86421472598E-009)) ;
#109=CARTESIAN_POINT('Line Origine',(0.525,4.42967209795,3.86421460811E-009)) ;
#113=CARTESIAN_POINT('Vertex',(0.525,4.6,3.86421450393E-009)) ;
#116=CARTESIAN_POINT('Line Origine',(2.45,4.6,3.86421472598E-009)) ;
#128=CARTESIAN_POINT('Axis2P3D Location',(0.525,2.6,1.57279221)) ;
#133=CARTESIAN_POINT('Line Origine',(0.525,4.6,0.786396106932)) ;
#137=CARTESIAN_POINT('Vertex',(0.525,4.6,1.57279221)) ;
#140=CARTESIAN_POINT('Line Origine',(0.525,4.14344732409,1.57279221)) ;
#152=CARTESIAN_POINT('Axis2P3D Location',(2.45,4.6,1.57279221)) ;
#157=CARTESIAN_POINT('Line Origine',(2.45,4.6,1.57279221)) ;
#169=CARTESIAN_POINT('Axis2P3D Location',(2.45,0.6,1.57279221)) ;
#174=CARTESIAN_POINT('Line Origine',(2.45,0.6,1.57279221)) ;
#178=CARTESIAN_POINT('Vertex',(0.525,0.6,1.57279221)) ;
#180=CARTESIAN_POINT('Vertex',(4.375,0.6,1.57279221)) ;
#183=CARTESIAN_POINT('Line Origine',(0.525,0.6,0.786396106932)) ;
#187=CARTESIAN_POINT('Vertex',(0.525,0.6,3.86421428189E-009)) ;
#190=CARTESIAN_POINT('Line Origine',(2.45,0.6,3.86421450393E-009)) ;
#194=CARTESIAN_POINT('Vertex',(4.375,0.6,3.86421472598E-009)) ;
#197=CARTESIAN_POINT('Line Origine',(4.375,0.6,0.786396106932)) ;
#209=CARTESIAN_POINT('Line Origine',(0.525,1.05655267591,1.57279221)) ;
#213=CARTESIAN_POINT('Vertex',(0.525,1.51310535181,1.57279221)) ;
#216=CARTESIAN_POINT('Line Origine',(0.525,1.22688057795,0.786396106932)) ;
#220=CARTESIAN_POINT('Vertex',(0.525,0.940655804092,3.86421450393E-009)) ;
#223=CARTESIAN_POINT('Line Origine',(0.525,0.770327902046,3.86421450393E-009)) ;
#235=CARTESIAN_POINT('Line Origine',(2.45,0.940655804092,3.86421472598E-009)) ;
#239=CARTESIAN_POINT('Vertex',(4.375,0.940655804092,3.86421494802E-009)) ;
#242=CARTESIAN_POINT('Line Origine',(4.375,0.770327902046,3.86421484385E-009)) ;
#254=CARTESIAN_POINT('Line Origine',(4.375,1.22688057795,0.786396106932)) ;
#258=CARTESIAN_POINT('Vertex',(4.375,1.51310535181,1.57279221)) ;
#261=CARTESIAN_POINT('Line Origine',(4.375,1.05655267591,1.57279221)) ;
#273=CARTESIAN_POINT('Axis2P3D Location',(2.45,0.940655804092,3.86421450393E-009)) ;
#278=CARTESIAN_POINT('Line Origine',(2.45,1.51310535181,1.57279221)) ;
#290=CARTESIAN_POINT('Axis2P3D Location',(2.45,2.6,1.57279221)) ;
#295=CARTESIAN_POINT('Line Origine',(4.9,2.6,1.57279221)) ;
#299=CARTESIAN_POINT('Vertex',(4.9,-1.50019232896E-016,1.57279221)) ;
#301=CARTESIAN_POINT('Vertex',(4.9,5.2,1.57279221)) ;
#304=CARTESIAN_POINT('Line Origine',(2.45,0.,1.57279221)) ;
#308=CARTESIAN_POINT('Vertex',(-2.6645352591E-015,-1.18224839665E-015,1.57279221)) ;
#311=CARTESIAN_POINT('Line Origine',(-2.6645352591E-015,2.6,1.57279221)) ;
#315=CARTESIAN_POINT('Vertex',(-2.6645352591E-015,5.2,1.57279221)) ;
#318=CARTESIAN_POINT('Line Origine',(2.45,5.2,1.57279221)) ;
#342=CARTESIAN_POINT('Axis2P3D Location',(2.45,2.6,2.37279221)) ;
#347=CARTESIAN_POINT('Line Origine',(2.45,5.2,2.37279221)) ;
#351=CARTESIAN_POINT('Vertex',(4.9,5.2,2.37279221)) ;
#353=CARTESIAN_POINT('Vertex',(-2.6645352591E-015,5.2,2.37279221)) ;
#356=CARTESIAN_POINT('Line Origine',(-2.6645352591E-015,2.6,2.37279221)) ;
#360=CARTESIAN_POINT('Vertex',(-2.6645352591E-015,-1.18224839665E-015,2.37279221)) ;
#363=CARTESIAN_POINT('Line Origine',(2.45,0.,2.37279221)) ;
#367=CARTESIAN_POINT('Vertex',(4.9,-1.50019232896E-016,2.37279221)) ;
#370=CARTESIAN_POINT('Line Origine',(4.9,2.6,2.37279221)) ;
#382=CARTESIAN_POINT('Axis2P3D Location',(4.9,5.2,1.57279221)) ;
#387=CARTESIAN_POINT('Line Origine',(4.9,-1.7763568394E-015,1.97279221)) ;
#392=CARTESIAN_POINT('Line Origine',(4.9,5.2,1.97279221)) ;
#404=CARTESIAN_POINT('Axis2P3D Location',(-2.6645352591E-015,0.,1.57279221)) ;
#409=CARTESIAN_POINT('Line Origine',(-2.68902819508E-015,1.49975978266E-033,1.97279221)) ;
#421=CARTESIAN_POINT('Axis2P3D Location',(-2.6645352591E-015,-1.33226762955E-015,1.57279221)) ;
#426=CARTESIAN_POINT('Line Origine',(-2.37062002731E-015,5.2,1.97279221)) ;
#438=CARTESIAN_POINT('Axis2P3D Location',(4.9,5.2,1.57279221)) ;
#34=DIRECTION('Axis2P3D Direction',(3.6596884323E-017,0.939692620786,0.342020143326)) ;
#35=DIRECTION('Axis2P3D XDirection',(-7.84822716998E-017,-0.342020143326,0.939692620786)) ;
#39=DIRECTION('Vector Direction',(1.,0.,1.15347846714E-016)) ;
#48=DIRECTION('Vector Direction',(0.,-0.342020143326,0.939692620786)) ;
#55=DIRECTION('Vector Direction',(1.,0.,6.1232340051E-017)) ;
#62=DIRECTION('Vector Direction',(0.,-0.342020143326,0.939692620786)) ;
#74=DIRECTION('Axis2P3D Direction',(1.,-6.12323399574E-017,6.12323399574E-017)) ;
#75=DIRECTION('Axis2P3D XDirection',(6.12323399574E-017,1.,0.)) ;
#79=DIRECTION('Vector Direction',(0.,-1.,0.)) ;
#86=DIRECTION('Vector Direction',(0.,1.,0.)) ;
#93=DIRECTION('Vector Direction',(0.,0.,-1.)) ;
#105=DIRECTION('Axis2P3D Direction',(6.12323399574E-017,-3.74939945665E-033,-1.)) ;
#106=DIRECTION('Axis2P3D XDirection',(6.12323399574E-017,1.,0.)) ;
#110=DIRECTION('Vector Direction',(0.,1.,0.)) ;
#117=DIRECTION('Vector Direction',(1.,0.,6.1232340051E-017)) ;
#129=DIRECTION('Axis2P3D Direction',(1.,-6.12323399574E-017,6.12323399574E-017)) ;
#130=DIRECTION('Axis2P3D XDirection',(6.12323399574E-017,1.,0.)) ;
#134=DIRECTION('Vector Direction',(7.05893010084E-017,0.,-1.)) ;
#141=DIRECTION('Vector Direction',(0.,-1.,0.)) ;
#153=DIRECTION('Axis2P3D Direction',(-6.12323399574E-017,-1.,-2.82357204033E-016)) ;
#154=DIRECTION('Axis2P3D XDirection',(6.12323399574E-017,2.82357204033E-016,-1.)) ;
#158=DIRECTION('Vector Direction',(1.,0.,1.15347846714E-016)) ;
#170=DIRECTION('Axis2P3D Direction',(-6.12323399574E-017,-1.,2.82357204033E-016)) ;
#171=DIRECTION('Axis2P3D XDirection',(6.12323399574E-017,-2.82357204033E-016,-1.)) ;
#175=DIRECTION('Vector Direction',(1.,-5.76739233572E-017,1.15347846714E-016)) ;
#184=DIRECTION('Vector Direction',(0.,-2.82357204033E-016,-1.)) ;
#191=DIRECTION('Vector Direction',(1.,-5.76739233572E-017,6.1232340051E-017)) ;
#198=DIRECTION('Vector Direction',(0.,-2.82357204033E-016,-1.)) ;
#210=DIRECTION('Vector Direction',(0.,1.,0.)) ;
#217=DIRECTION('Vector Direction',(-6.6332245264E-017,0.342020143326,0.939692620786)) ;
#224=DIRECTION('Vector Direction',(0.,-1.,0.)) ;
#236=DIRECTION('Vector Direction',(1.,-5.76739233572E-017,6.1232340051E-017)) ;
#243=DIRECTION('Vector Direction',(0.,-1.,0.)) ;
#255=DIRECTION('Vector Direction',(0.,0.342020143326,0.939692620786)) ;
#262=DIRECTION('Vector Direction',(0.,1.,0.)) ;
#274=DIRECTION('Axis2P3D Direction',(7.84822716998E-017,0.939692620786,-0.342020143326)) ;
#275=DIRECTION('Axis2P3D XDirection',(-3.6596884323E-017,0.342020143326,0.939692620786)) ;
#279=DIRECTION('Vector Direction',(1.,-1.15347846714E-016,1.15347846714E-016)) ;
#291=DIRECTION('Axis2P3D Direction',(-6.12323399574E-017,3.74939945665E-033,1.)) ;
#292=DIRECTION('Axis2P3D XDirection',(-6.12323399574E-017,-1.,0.)) ;
#296=DIRECTION('Vector Direction',(0.,-1.,0.)) ;
#305=DIRECTION('Vector Direction',(1.,-6.12323399574E-017,9.06304509898E-017)) ;
#312=DIRECTION('Vector Direction',(0.,1.,0.)) ;
#319=DIRECTION('Vector Direction',(-1.,0.,-9.06304509898E-017)) ;
#343=DIRECTION('Axis2P3D Direction',(-6.12323399574E-017,3.74939945665E-033,1.)) ;
#344=DIRECTION('Axis2P3D XDirection',(-6.12323399574E-017,-1.,0.)) ;
#348=DIRECTION('Vector Direction',(-1.,0.,0.)) ;
#357=DIRECTION('Vector Direction',(0.,1.,0.)) ;
#364=DIRECTION('Vector Direction',(1.,-6.12323399574E-017,0.)) ;
#371=DIRECTION('Vector Direction',(0.,-1.,0.)) ;
#383=DIRECTION('Axis2P3D Direction',(-1.,6.12323399574E-017,-6.12323399574E-017)) ;
#384=DIRECTION('Axis2P3D XDirection',(-6.12323399574E-017,-1.,0.)) ;
#388=DIRECTION('Vector Direction',(0.,0.,1.)) ;
#393=DIRECTION('Vector Direction',(0.,0.,1.)) ;
#405=DIRECTION('Axis2P3D Direction',(-6.12323399574E-017,-1.,0.)) ;
#406=DIRECTION('Axis2P3D XDirection',(1.,-6.12323399574E-017,6.12323399574E-017)) ;
#410=DIRECTION('Vector Direction',(-6.12323399574E-017,3.74939945665E-033,1.)) ;
#422=DIRECTION('Axis2P3D Direction',(1.,-6.12323399574E-017,6.12323399574E-017)) ;
#423=DIRECTION('Axis2P3D XDirection',(6.12323399574E-017,1.,0.)) ;
#427=DIRECTION('Vector Direction',(-6.12323399574E-017,0.,1.)) ;
#439=DIRECTION('Axis2P3D Direction',(6.12323399574E-017,1.,0.)) ;
#440=DIRECTION('Axis2P3D XDirection',(-1.,6.12323399574E-017,-6.12323399574E-017)) ;
#31=PRESENTATION_LAYER_ASSIGNMENT('1',' ',(#22)) ;
#8=PRODUCT_RELATED_PRODUCT_CATEGORY('part',$,(#5)) ;
#7=PRODUCT_CATEGORY('part','specification') ;
#30=STYLED_ITEM(' ',(#29),#22) ;
#29=PRESENTATION_STYLE_ASSIGNMENT((#28)) ;
#28=SURFACE_STYLE_USAGE(.BOTH.,#27) ;
#27=SURFACE_SIDE_STYLE(' ',(#26)) ;
#26=SURFACE_STYLE_FILL_AREA(#25) ;
#25=FILL_AREA_STYLE(' ',(#24)) ;
#24=FILL_AREA_STYLE_COLOUR(' ',#23) ;
#40=VECTOR('Line Direction',#39,1.) ;
#49=VECTOR('Line Direction',#48,1.) ;
#56=VECTOR('Line Direction',#55,1.) ;
#63=VECTOR('Line Direction',#62,1.) ;
#80=VECTOR('Line Direction',#79,1.) ;
#87=VECTOR('Line Direction',#86,1.) ;
#94=VECTOR('Line Direction',#93,1.) ;
#111=VECTOR('Line Direction',#110,1.) ;
#118=VECTOR('Line Direction',#117,1.) ;
#135=VECTOR('Line Direction',#134,1.) ;
#142=VECTOR('Line Direction',#141,1.) ;
#159=VECTOR('Line Direction',#158,1.) ;
#176=VECTOR('Line Direction',#175,1.) ;
#185=VECTOR('Line Direction',#184,1.) ;
#192=VECTOR('Line Direction',#191,1.) ;
#199=VECTOR('Line Direction',#198,1.) ;
#211=VECTOR('Line Direction',#210,1.) ;
#218=VECTOR('Line Direction',#217,1.) ;
#225=VECTOR('Line Direction',#224,1.) ;
#237=VECTOR('Line Direction',#236,1.) ;
#244=VECTOR('Line Direction',#243,1.) ;
#256=VECTOR('Line Direction',#255,1.) ;
#263=VECTOR('Line Direction',#262,1.) ;
#280=VECTOR('Line Direction',#279,1.) ;
#297=VECTOR('Line Direction',#296,1.) ;
#306=VECTOR('Line Direction',#305,1.) ;
#313=VECTOR('Line Direction',#312,1.) ;
#320=VECTOR('Line Direction',#319,1.) ;
#349=VECTOR('Line Direction',#348,1.) ;
#358=VECTOR('Line Direction',#357,1.) ;
#365=VECTOR('Line Direction',#364,1.) ;
#372=VECTOR('Line Direction',#371,1.) ;
#389=VECTOR('Line Direction',#388,1.) ;
#394=VECTOR('Line Direction',#393,1.) ;
#411=VECTOR('Line Direction',#410,1.) ;
#428=VECTOR('Line Direction',#427,1.) ;
#16=UNCERTAINTY_MEASURE_WITH_UNIT(LENGTH_MEASURE(0.005),#12,'distance_accuracy_value','CONFUSED CURVE UNCERTAINTY') ;
#451=SHAPE_REPRESENTATION_RELATIONSHIP(' ',' ',#20,#450) ;
#67=ORIENTED_EDGE('',*,*,#46,.F.) ;
#68=ORIENTED_EDGE('',*,*,#53,.T.) ;
#69=ORIENTED_EDGE('',*,*,#60,.T.) ;
#70=ORIENTED_EDGE('',*,*,#65,.F.) ;
#98=ORIENTED_EDGE('',*,*,#84,.T.) ;
#99=ORIENTED_EDGE('',*,*,#65,.T.) ;
#100=ORIENTED_EDGE('',*,*,#91,.T.) ;
#101=ORIENTED_EDGE('',*,*,#96,.T.) ;
#122=ORIENTED_EDGE('',*,*,#60,.F.) ;
#123=ORIENTED_EDGE('',*,*,#115,.T.) ;
#124=ORIENTED_EDGE('',*,*,#120,.T.) ;
#125=ORIENTED_EDGE('',*,*,#91,.F.) ;
#146=ORIENTED_EDGE('',*,*,#139,.F.) ;
#147=ORIENTED_EDGE('',*,*,#115,.F.) ;
#148=ORIENTED_EDGE('',*,*,#53,.F.) ;
#149=ORIENTED_EDGE('',*,*,#144,.F.) ;
#163=ORIENTED_EDGE('',*,*,#120,.F.) ;
#164=ORIENTED_EDGE('',*,*,#139,.T.) ;
#165=ORIENTED_EDGE('',*,*,#161,.T.) ;
#166=ORIENTED_EDGE('',*,*,#96,.F.) ;
#203=ORIENTED_EDGE('',*,*,#182,.F.) ;
#204=ORIENTED_EDGE('',*,*,#189,.T.) ;
#205=ORIENTED_EDGE('',*,*,#196,.T.) ;
#206=ORIENTED_EDGE('',*,*,#201,.F.) ;
#229=ORIENTED_EDGE('',*,*,#215,.F.) ;
#230=ORIENTED_EDGE('',*,*,#222,.F.) ;
#231=ORIENTED_EDGE('',*,*,#227,.F.) ;
#232=ORIENTED_EDGE('',*,*,#189,.F.) ;
#248=ORIENTED_EDGE('',*,*,#196,.F.) ;
#249=ORIENTED_EDGE('',*,*,#227,.T.) ;
#250=ORIENTED_EDGE('',*,*,#241,.T.) ;
#251=ORIENTED_EDGE('',*,*,#246,.F.) ;
#267=ORIENTED_EDGE('',*,*,#201,.T.) ;
#268=ORIENTED_EDGE('',*,*,#246,.T.) ;
#269=ORIENTED_EDGE('',*,*,#260,.T.) ;
#270=ORIENTED_EDGE('',*,*,#265,.T.) ;
#284=ORIENTED_EDGE('',*,*,#241,.F.) ;
#285=ORIENTED_EDGE('',*,*,#222,.T.) ;
#286=ORIENTED_EDGE('',*,*,#282,.T.) ;
#287=ORIENTED_EDGE('',*,*,#260,.F.) ;
#324=ORIENTED_EDGE('',*,*,#303,.F.) ;
#325=ORIENTED_EDGE('',*,*,#310,.F.) ;
#326=ORIENTED_EDGE('',*,*,#317,.F.) ;
#327=ORIENTED_EDGE('',*,*,#322,.F.) ;
#330=ORIENTED_EDGE('',*,*,#84,.F.) ;
#331=ORIENTED_EDGE('',*,*,#161,.F.) ;
#332=ORIENTED_EDGE('',*,*,#144,.T.) ;
#333=ORIENTED_EDGE('',*,*,#46,.T.) ;
#336=ORIENTED_EDGE('',*,*,#215,.T.) ;
#337=ORIENTED_EDGE('',*,*,#182,.T.) ;
#338=ORIENTED_EDGE('',*,*,#265,.F.) ;
#339=ORIENTED_EDGE('',*,*,#282,.F.) ;
#376=ORIENTED_EDGE('',*,*,#355,.T.) ;
#377=ORIENTED_EDGE('',*,*,#362,.T.) ;
#378=ORIENTED_EDGE('',*,*,#369,.T.) ;
#379=ORIENTED_EDGE('',*,*,#374,.T.) ;
#398=ORIENTED_EDGE('',*,*,#391,.F.) ;
#399=ORIENTED_EDGE('',*,*,#303,.T.) ;
#400=ORIENTED_EDGE('',*,*,#396,.T.) ;
#401=ORIENTED_EDGE('',*,*,#374,.F.) ;
#415=ORIENTED_EDGE('',*,*,#413,.F.) ;
#416=ORIENTED_EDGE('',*,*,#310,.T.) ;
#417=ORIENTED_EDGE('',*,*,#391,.T.) ;
#418=ORIENTED_EDGE('',*,*,#369,.F.) ;
#432=ORIENTED_EDGE('',*,*,#430,.F.) ;
#433=ORIENTED_EDGE('',*,*,#317,.T.) ;
#434=ORIENTED_EDGE('',*,*,#413,.T.) ;
#435=ORIENTED_EDGE('',*,*,#362,.F.) ;
#444=ORIENTED_EDGE('',*,*,#396,.F.) ;
#445=ORIENTED_EDGE('',*,*,#322,.T.) ;
#446=ORIENTED_EDGE('',*,*,#430,.T.) ;
#447=ORIENTED_EDGE('',*,*,#355,.F.) ;
#334=FACE_BOUND('',#329,.T.) ;
#340=FACE_BOUND('',#335,.T.) ;
#32=CLOSED_SHELL('Closed Shell',(#72,#103,#127,#151,#168,#208,#234,#253,#272,#289,#341,#381,#403,#420,#437,#449)) ;
#450=ADVANCED_BREP_SHAPE_REPRESENTATION('NONE',(#22),#17) ;
#72=ADVANCED_FACE('S3D GEDREHT',(#71),#37,.F.) ;
#103=ADVANCED_FACE('S3D GEDREHT',(#102),#77,.T.) ;
#127=ADVANCED_FACE('S3D GEDREHT',(#126),#108,.T.) ;
#151=ADVANCED_FACE('S3D GEDREHT',(#150),#132,.F.) ;
#168=ADVANCED_FACE('S3D GEDREHT',(#167),#156,.F.) ;
#208=ADVANCED_FACE('S3D GEDREHT',(#207),#173,.T.) ;
#234=ADVANCED_FACE('S3D GEDREHT',(#233),#132,.F.) ;
#253=ADVANCED_FACE('S3D GEDREHT',(#252),#108,.T.) ;
#272=ADVANCED_FACE('S3D GEDREHT',(#271),#77,.T.) ;
#289=ADVANCED_FACE('S3D GEDREHT',(#288),#277,.T.) ;
#341=ADVANCED_FACE('S3D GEDREHT',(#328,#334,#340),#294,.F.) ;
#381=ADVANCED_FACE('S3D GEDREHT',(#380),#346,.T.) ;
#403=ADVANCED_FACE('S3D GEDREHT',(#402),#386,.F.) ;
#420=ADVANCED_FACE('S3D GEDREHT',(#419),#408,.T.) ;
#437=ADVANCED_FACE('S3D GEDREHT',(#436),#425,.F.) ;
#449=ADVANCED_FACE('S3D GEDREHT',(#448),#442,.T.) ;
#4=APPLICATION_PROTOCOL_DEFINITION('international standard','automotive_design',2001,#1) ;
#22=MANIFOLD_SOLID_BREP('S3D GEDREHT',#32) ;
#23=COLOUR_RGB('Colour',0.647058823529,0.647058823529,0.647058823529) ;
#46=EDGE_CURVE('',#43,#45,#41,.T.) ;
#53=EDGE_CURVE('',#43,#52,#50,.F.) ;
#60=EDGE_CURVE('',#52,#59,#57,.T.) ;
#65=EDGE_CURVE('',#45,#59,#64,.F.) ;
#84=EDGE_CURVE('',#83,#45,#81,.T.) ;
#91=EDGE_CURVE('',#59,#90,#88,.T.) ;
#96=EDGE_CURVE('',#90,#83,#95,.F.) ;
#115=EDGE_CURVE('',#52,#114,#112,.T.) ;
#120=EDGE_CURVE('',#114,#90,#119,.T.) ;
#139=EDGE_CURVE('',#114,#138,#136,.F.) ;
#144=EDGE_CURVE('',#138,#43,#143,.T.) ;
#161=EDGE_CURVE('',#138,#83,#160,.T.) ;
#182=EDGE_CURVE('',#179,#181,#177,.T.) ;
#189=EDGE_CURVE('',#179,#188,#186,.T.) ;
#196=EDGE_CURVE('',#188,#195,#193,.T.) ;
#201=EDGE_CURVE('',#181,#195,#200,.T.) ;
#215=EDGE_CURVE('',#214,#179,#212,.F.) ;
#222=EDGE_CURVE('',#221,#214,#219,.T.) ;
#227=EDGE_CURVE('',#188,#221,#226,.F.) ;
#241=EDGE_CURVE('',#221,#240,#238,.T.) ;
#246=EDGE_CURVE('',#195,#240,#245,.F.) ;
#260=EDGE_CURVE('',#240,#259,#257,.T.) ;
#265=EDGE_CURVE('',#259,#181,#264,.F.) ;
#282=EDGE_CURVE('',#214,#259,#281,.T.) ;
#303=EDGE_CURVE('',#300,#302,#298,.F.) ;
#310=EDGE_CURVE('',#309,#300,#307,.T.) ;
#317=EDGE_CURVE('',#316,#309,#314,.F.) ;
#322=EDGE_CURVE('',#302,#316,#321,.T.) ;
#355=EDGE_CURVE('',#352,#354,#350,.T.) ;
#362=EDGE_CURVE('',#354,#361,#359,.F.) ;
#369=EDGE_CURVE('',#361,#368,#366,.T.) ;
#374=EDGE_CURVE('',#368,#352,#373,.F.) ;
#391=EDGE_CURVE('',#300,#368,#390,.T.) ;
#396=EDGE_CURVE('',#302,#352,#395,.T.) ;
#413=EDGE_CURVE('',#309,#361,#412,.T.) ;
#430=EDGE_CURVE('',#316,#354,#429,.T.) ;
#66=EDGE_LOOP('',(#67,#68,#69,#70)) ;
#97=EDGE_LOOP('',(#98,#99,#100,#101)) ;
#121=EDGE_LOOP('',(#122,#123,#124,#125)) ;
#145=EDGE_LOOP('',(#146,#147,#148,#149)) ;
#162=EDGE_LOOP('',(#163,#164,#165,#166)) ;
#202=EDGE_LOOP('',(#203,#204,#205,#206)) ;
#228=EDGE_LOOP('',(#229,#230,#231,#232)) ;
#247=EDGE_LOOP('',(#248,#249,#250,#251)) ;
#266=EDGE_LOOP('',(#267,#268,#269,#270)) ;
#283=EDGE_LOOP('',(#284,#285,#286,#287)) ;
#323=EDGE_LOOP('',(#324,#325,#326,#327)) ;
#329=EDGE_LOOP('',(#330,#331,#332,#333)) ;
#335=EDGE_LOOP('',(#336,#337,#338,#339)) ;
#375=EDGE_LOOP('',(#376,#377,#378,#379)) ;
#397=EDGE_LOOP('',(#398,#399,#400,#401)) ;
#414=EDGE_LOOP('',(#415,#416,#417,#418)) ;
#431=EDGE_LOOP('',(#432,#433,#434,#435)) ;
#443=EDGE_LOOP('',(#444,#445,#446,#447)) ;
#71=FACE_OUTER_BOUND('',#66,.T.) ;
#102=FACE_OUTER_BOUND('',#97,.T.) ;
#126=FACE_OUTER_BOUND('',#121,.T.) ;
#150=FACE_OUTER_BOUND('',#145,.T.) ;
#167=FACE_OUTER_BOUND('',#162,.T.) ;
#207=FACE_OUTER_BOUND('',#202,.T.) ;
#233=FACE_OUTER_BOUND('',#228,.T.) ;
#252=FACE_OUTER_BOUND('',#247,.T.) ;
#271=FACE_OUTER_BOUND('',#266,.T.) ;
#288=FACE_OUTER_BOUND('',#283,.T.) ;
#328=FACE_OUTER_BOUND('',#323,.T.) ;
#380=FACE_OUTER_BOUND('',#375,.T.) ;
#402=FACE_OUTER_BOUND('',#397,.T.) ;
#419=FACE_OUTER_BOUND('',#414,.T.) ;
#436=FACE_OUTER_BOUND('',#431,.T.) ;
#448=FACE_OUTER_BOUND('',#443,.T.) ;
#41=LINE('Line',#38,#40) ;
#50=LINE('Line',#47,#49) ;
#57=LINE('Line',#54,#56) ;
#64=LINE('Line',#61,#63) ;
#81=LINE('Line',#78,#80) ;
#88=LINE('Line',#85,#87) ;
#95=LINE('Line',#92,#94) ;
#112=LINE('Line',#109,#111) ;
#119=LINE('Line',#116,#118) ;
#136=LINE('Line',#133,#135) ;
#143=LINE('Line',#140,#142) ;
#160=LINE('Line',#157,#159) ;
#177=LINE('Line',#174,#176) ;
#186=LINE('Line',#183,#185) ;
#193=LINE('Line',#190,#192) ;
#200=LINE('Line',#197,#199) ;
#212=LINE('Line',#209,#211) ;
#219=LINE('Line',#216,#218) ;
#226=LINE('Line',#223,#225) ;
#238=LINE('Line',#235,#237) ;
#245=LINE('Line',#242,#244) ;
#257=LINE('Line',#254,#256) ;
#264=LINE('Line',#261,#263) ;
#281=LINE('Line',#278,#280) ;
#298=LINE('Line',#295,#297) ;
#307=LINE('Line',#304,#306) ;
#314=LINE('Line',#311,#313) ;
#321=LINE('Line',#318,#320) ;
#350=LINE('Line',#347,#349) ;
#359=LINE('Line',#356,#358) ;
#366=LINE('Line',#363,#365) ;
#373=LINE('Line',#370,#372) ;
#390=LINE('Line',#387,#389) ;
#395=LINE('Line',#392,#394) ;
#412=LINE('Line',#409,#411) ;
#429=LINE('Line',#426,#428) ;
#37=PLANE('',#36) ;
#77=PLANE('',#76) ;
#108=PLANE('',#107) ;
#132=PLANE('',#131) ;
#156=PLANE('',#155) ;
#173=PLANE('',#172) ;
#277=PLANE('',#276) ;
#294=PLANE('',#293) ;
#346=PLANE('',#345) ;
#386=PLANE('',#385) ;
#408=PLANE('',#407) ;
#425=PLANE('',#424) ;
#442=PLANE('',#441) ;
#14=PLANE_ANGLE_MEASURE_WITH_UNIT(PLANE_ANGLE_MEASURE(0.0174532925199),#13) ;
#9=PRODUCT_CATEGORY_RELATIONSHIP(' ',' ',#7,#8) ;
#6=PRODUCT_DEFINITION_FORMATION_WITH_SPECIFIED_SOURCE('',' ',#5,.NOT_KNOWN.) ;
#21=SHAPE_DEFINITION_REPRESENTATION(#11,#20) ;
#43=VERTEX_POINT('',#42) ;
#45=VERTEX_POINT('',#44) ;
#52=VERTEX_POINT('',#51) ;
#59=VERTEX_POINT('',#58) ;
#83=VERTEX_POINT('',#82) ;
#90=VERTEX_POINT('',#89) ;
#114=VERTEX_POINT('',#113) ;
#138=VERTEX_POINT('',#137) ;
#179=VERTEX_POINT('',#178) ;
#181=VERTEX_POINT('',#180) ;
#188=VERTEX_POINT('',#187) ;
#195=VERTEX_POINT('',#194) ;
#214=VERTEX_POINT('',#213) ;
#221=VERTEX_POINT('',#220) ;
#240=VERTEX_POINT('',#239) ;
#259=VERTEX_POINT('',#258) ;
#300=VERTEX_POINT('',#299) ;
#302=VERTEX_POINT('',#301) ;
#309=VERTEX_POINT('',#308) ;
#316=VERTEX_POINT('',#315) ;
#352=VERTEX_POINT('',#351) ;
#354=VERTEX_POINT('',#353) ;
#361=VERTEX_POINT('',#360) ;
#368=VERTEX_POINT('',#367) ;
#12=(LENGTH_UNIT()NAMED_UNIT(*)SI_UNIT(.MILLI.,.METRE.)) ;
#13=(NAMED_UNIT(*)PLANE_ANGLE_UNIT()SI_UNIT($,.RADIAN.)) ;
#15=(NAMED_UNIT(*)SI_UNIT($,.STERADIAN.)SOLID_ANGLE_UNIT()) ;
#17=(GEOMETRIC_REPRESENTATION_CONTEXT(3)GLOBAL_UNCERTAINTY_ASSIGNED_CONTEXT((#16))GLOBAL_UNIT_ASSIGNED_CONTEXT((#12,#13,#15))REPRESENTATION_CONTEXT(' ',' ')) ;
ENDSEC;
END-ISO-10303-21;
