ISO-10303-21;
HEADER;
FILE_DESCRIPTION(('CATIA V5 STEP Exchange','CAx-IF Rec.Pracs.--- Model Styling and Organization---1.4--- 2014-01-23'),'2;1');

FILE_NAME ('002081-2_0_0470700000_0470700000_S.stp','2021-05-07T10:28:29+00:00',('none'),('Weidmueller'),'CATIA Version 5-6 Release 2016 SP3 HF44','CATIA V5 STEP AP214','none');

FILE_SCHEMA(('AUTOMOTIVE_DESIGN { 1 0 10303 214 1 1 1 1 }'));

ENDSEC;
DATA;
#5=PRODUCT('QL 2 SAK16','','QUERVERBINDUNGSLASCHE',(#2)) ;
#2=PRODUCT_CONTEXT(' ',#1,'mechanical') ;
#1=APPLICATION_CONTEXT('automotive design') ;
#10=PRODUCT_DEFINITION('',' ',#6,#3) ;
#3=PRODUCT_DEFINITION_CONTEXT('part definition',#1,' ') ;
#11=PRODUCT_DEFINITION_SHAPE(' ',' ',#10) ;
#323=MECHANICAL_DESIGN_GEOMETRIC_PRESENTATION_REPRESENTATION(' ',(#29),#16) ;
#324=MECHANICAL_DESIGN_GEOMETRIC_PRESENTATION_REPRESENTATION(' ',(#320),#16) ;
#19=SHAPE_REPRESENTATION(' ',(#18),#16) ;
#18=AXIS2_PLACEMENT_3D(' ',#17,$,$) ;
#35=AXIS2_PLACEMENT_3D('Cylinder Axis2P3D',#32,#33,#34) ;
#39=AXIS2_PLACEMENT_3D('Circle Axis2P3D',#37,#38,$) ;
#55=AXIS2_PLACEMENT_3D('Circle Axis2P3D',#53,#54,$) ;
#74=AXIS2_PLACEMENT_3D('Circle Axis2P3D',#72,#73,$) ;
#79=AXIS2_PLACEMENT_3D('Circle Axis2P3D',#77,#78,$) ;
#92=AXIS2_PLACEMENT_3D('Plane Axis2P3D',#89,#90,#91) ;
#132=AXIS2_PLACEMENT_3D('Plane Axis2P3D',#129,#130,#131) ;
#163=AXIS2_PLACEMENT_3D('Plane Axis2P3D',#160,#161,#162) ;
#194=AXIS2_PLACEMENT_3D('Plane Axis2P3D',#191,#192,#193) ;
#216=AXIS2_PLACEMENT_3D('Plane Axis2P3D',#213,#214,#215) ;
#226=AXIS2_PLACEMENT_3D('Circle Axis2P3D',#224,#225,$) ;
#235=AXIS2_PLACEMENT_3D('Circle Axis2P3D',#233,#234,$) ;
#250=AXIS2_PLACEMENT_3D('Plane Axis2P3D',#247,#248,#249) ;
#260=AXIS2_PLACEMENT_3D('Circle Axis2P3D',#258,#259,$) ;
#269=AXIS2_PLACEMENT_3D('Circle Axis2P3D',#267,#268,$) ;
#284=AXIS2_PLACEMENT_3D('Cylinder Axis2P3D',#281,#282,#283) ;
#315=AXIS2_PLACEMENT_3D('Axis System.1',#312,#313,#314) ;
#17=CARTESIAN_POINT(' ',(0.,0.,0.)) ;
#32=CARTESIAN_POINT('Axis2P3D Location',(3.,3.,1.9)) ;
#37=CARTESIAN_POINT('Axis2P3D Location',(3.,3.,2.)) ;
#41=CARTESIAN_POINT('Vertex',(4.49189035521,2.18497658437,2.)) ;
#43=CARTESIAN_POINT('Vertex',(1.50810964479,3.81502341563,2.)) ;
#46=CARTESIAN_POINT('Line Origine',(1.50810964479,3.81502341563,1.15500000002)) ;
#50=CARTESIAN_POINT('Vertex',(1.50810964479,3.81502341563,0.)) ;
#53=CARTESIAN_POINT('Axis2P3D Location',(3.,3.,0.)) ;
#57=CARTESIAN_POINT('Vertex',(4.49189035521,2.18497658437,0.)) ;
#60=CARTESIAN_POINT('Line Origine',(4.49189035521,2.18497658437,1.15500000002)) ;
#72=CARTESIAN_POINT('Axis2P3D Location',(3.,3.,2.)) ;
#77=CARTESIAN_POINT('Axis2P3D Location',(3.,3.,0.)) ;
#89=CARTESIAN_POINT('Axis2P3D Location',(0.,6.,0.)) ;
#94=CARTESIAN_POINT('Line Origine',(0.,6.,1.)) ;
#98=CARTESIAN_POINT('Vertex',(-3.5527136788E-015,6.,0.)) ;
#100=CARTESIAN_POINT('Vertex',(-3.5527136788E-015,6.,2.)) ;
#103=CARTESIAN_POINT('Line Origine',(0.,3.,0.)) ;
#107=CARTESIAN_POINT('Vertex',(0.,0.,0.)) ;
#110=CARTESIAN_POINT('Line Origine',(0.,0.,1.)) ;
#114=CARTESIAN_POINT('Vertex',(0.,0.,2.)) ;
#117=CARTESIAN_POINT('Line Origine',(0.,3.,2.)) ;
#129=CARTESIAN_POINT('Axis2P3D Location',(17.9,6.,0.)) ;
#134=CARTESIAN_POINT('Line Origine',(17.9,6.,1.)) ;
#138=CARTESIAN_POINT('Vertex',(17.9,6.,0.)) ;
#140=CARTESIAN_POINT('Vertex',(17.9,6.,2.)) ;
#143=CARTESIAN_POINT('Line Origine',(8.95,6.,0.)) ;
#148=CARTESIAN_POINT('Line Origine',(8.95,6.,2.)) ;
#160=CARTESIAN_POINT('Axis2P3D Location',(17.9,8.881784197E-016,0.)) ;
#165=CARTESIAN_POINT('Line Origine',(17.9,8.881784197E-016,1.)) ;
#169=CARTESIAN_POINT('Vertex',(17.9,0.,0.)) ;
#171=CARTESIAN_POINT('Vertex',(17.9,0.,2.)) ;
#174=CARTESIAN_POINT('Line Origine',(17.9,3.,0.)) ;
#179=CARTESIAN_POINT('Line Origine',(17.9,3.,2.)) ;
#191=CARTESIAN_POINT('Axis2P3D Location',(0.,0.,0.)) ;
#196=CARTESIAN_POINT('Line Origine',(8.95,0.,0.)) ;
#201=CARTESIAN_POINT('Line Origine',(8.95,0.,2.)) ;
#213=CARTESIAN_POINT('Axis2P3D Location',(0.,0.,2.)) ;
#224=CARTESIAN_POINT('Axis2P3D Location',(14.9,3.,2.)) ;
#228=CARTESIAN_POINT('Vertex',(16.3918903552,2.18497658437,2.)) ;
#230=CARTESIAN_POINT('Vertex',(13.4081096448,3.81502341563,2.)) ;
#233=CARTESIAN_POINT('Axis2P3D Location',(14.9,3.,2.)) ;
#247=CARTESIAN_POINT('Axis2P3D Location',(0.,0.,0.)) ;
#258=CARTESIAN_POINT('Axis2P3D Location',(14.9,3.,0.)) ;
#262=CARTESIAN_POINT('Vertex',(13.4081096448,3.81502341563,0.)) ;
#264=CARTESIAN_POINT('Vertex',(16.3918903552,2.18497658437,0.)) ;
#267=CARTESIAN_POINT('Axis2P3D Location',(14.9,3.,0.)) ;
#281=CARTESIAN_POINT('Axis2P3D Location',(14.9,3.,1.9)) ;
#286=CARTESIAN_POINT('Line Origine',(13.4081096448,3.81502341563,1.15500000002)) ;
#291=CARTESIAN_POINT('Line Origine',(16.3918903552,2.18497658437,1.15500000002)) ;
#312=CARTESIAN_POINT('Axis2P3D Location',(0.,0.,0.)) ;
#33=DIRECTION('Axis2P3D Direction',(0.,-0.,-1.)) ;
#34=DIRECTION('Axis2P3D XDirection',(0.87758256189,-0.479425538604,0.)) ;
#38=DIRECTION('Axis2P3D Direction',(0.,-0.,-1.)) ;
#47=DIRECTION('Vector Direction',(0.,0.,-1.)) ;
#54=DIRECTION('Axis2P3D Direction',(0.,-0.,-1.)) ;
#61=DIRECTION('Vector Direction',(0.,0.,-1.)) ;
#73=DIRECTION('Axis2P3D Direction',(0.,-0.,-1.)) ;
#78=DIRECTION('Axis2P3D Direction',(0.,-0.,-1.)) ;
#90=DIRECTION('Axis2P3D Direction',(-1.,0.,0.)) ;
#91=DIRECTION('Axis2P3D XDirection',(0.,-1.,0.)) ;
#95=DIRECTION('Vector Direction',(0.,0.,1.)) ;
#104=DIRECTION('Vector Direction',(0.,-1.,0.)) ;
#111=DIRECTION('Vector Direction',(0.,0.,1.)) ;
#118=DIRECTION('Vector Direction',(0.,-1.,0.)) ;
#130=DIRECTION('Axis2P3D Direction',(0.,1.,-0.)) ;
#131=DIRECTION('Axis2P3D XDirection',(-1.,0.,0.)) ;
#135=DIRECTION('Vector Direction',(0.,0.,1.)) ;
#144=DIRECTION('Vector Direction',(-1.,0.,0.)) ;
#149=DIRECTION('Vector Direction',(-1.,0.,0.)) ;
#161=DIRECTION('Axis2P3D Direction',(1.,0.,0.)) ;
#162=DIRECTION('Axis2P3D XDirection',(0.,1.,0.)) ;
#166=DIRECTION('Vector Direction',(0.,0.,1.)) ;
#175=DIRECTION('Vector Direction',(0.,1.,0.)) ;
#180=DIRECTION('Vector Direction',(0.,1.,0.)) ;
#192=DIRECTION('Axis2P3D Direction',(0.,-1.,0.)) ;
#193=DIRECTION('Axis2P3D XDirection',(1.,0.,0.)) ;
#197=DIRECTION('Vector Direction',(1.,0.,0.)) ;
#202=DIRECTION('Vector Direction',(1.,0.,0.)) ;
#214=DIRECTION('Axis2P3D Direction',(0.,0.,1.)) ;
#215=DIRECTION('Axis2P3D XDirection',(1.,0.,0.)) ;
#225=DIRECTION('Axis2P3D Direction',(0.,0.,1.)) ;
#234=DIRECTION('Axis2P3D Direction',(0.,0.,1.)) ;
#248=DIRECTION('Axis2P3D Direction',(0.,0.,1.)) ;
#249=DIRECTION('Axis2P3D XDirection',(1.,0.,0.)) ;
#259=DIRECTION('Axis2P3D Direction',(0.,0.,1.)) ;
#268=DIRECTION('Axis2P3D Direction',(0.,0.,1.)) ;
#282=DIRECTION('Axis2P3D Direction',(0.,0.,-1.)) ;
#283=DIRECTION('Axis2P3D XDirection',(0.87758256189,-0.479425538604,0.)) ;
#287=DIRECTION('Vector Direction',(0.,0.,-1.)) ;
#292=DIRECTION('Vector Direction',(0.,0.,-1.)) ;
#313=DIRECTION('Axis2P3D Direction',(0.,0.,1.)) ;
#314=DIRECTION('Axis2P3D XDirection',(1.,0.,0.)) ;
#30=PRESENTATION_LAYER_ASSIGNMENT('1',' ',(#21)) ;
#8=PRODUCT_RELATED_PRODUCT_CATEGORY('part',$,(#5)) ;
#7=PRODUCT_CATEGORY('part','specification') ;
#29=STYLED_ITEM(' ',(#28),#21) ;
#320=STYLED_ITEM(' ',(#319),#315) ;
#28=PRESENTATION_STYLE_ASSIGNMENT((#27)) ;
#319=PRESENTATION_STYLE_ASSIGNMENT((#318)) ;
#318=CURVE_STYLE(' ',#316,POSITIVE_LENGTH_MEASURE(0.129999995232),#317) ;
#27=SURFACE_STYLE_USAGE(.BOTH.,#26) ;
#26=SURFACE_SIDE_STYLE(' ',(#25)) ;
#25=SURFACE_STYLE_FILL_AREA(#24) ;
#24=FILL_AREA_STYLE(' ',(#23)) ;
#23=FILL_AREA_STYLE_COLOUR(' ',#22) ;
#48=VECTOR('Line Direction',#47,1.) ;
#62=VECTOR('Line Direction',#61,1.) ;
#96=VECTOR('Line Direction',#95,1.) ;
#105=VECTOR('Line Direction',#104,1.) ;
#112=VECTOR('Line Direction',#111,1.) ;
#119=VECTOR('Line Direction',#118,1.) ;
#136=VECTOR('Line Direction',#135,1.) ;
#145=VECTOR('Line Direction',#144,1.) ;
#150=VECTOR('Line Direction',#149,1.) ;
#167=VECTOR('Line Direction',#166,1.) ;
#176=VECTOR('Line Direction',#175,1.) ;
#181=VECTOR('Line Direction',#180,1.) ;
#198=VECTOR('Line Direction',#197,1.) ;
#203=VECTOR('Line Direction',#202,1.) ;
#288=VECTOR('Line Direction',#287,1.) ;
#293=VECTOR('Line Direction',#292,1.) ;
#15=UNCERTAINTY_MEASURE_WITH_UNIT(LENGTH_MEASURE(0.005),#12,'distance_accuracy_value','CONFUSED CURVE UNCERTAINTY') ;
#311=SHAPE_REPRESENTATION_RELATIONSHIP(' ',' ',#19,#310) ;
#66=ORIENTED_EDGE('',*,*,#45,.T.) ;
#67=ORIENTED_EDGE('',*,*,#52,.F.) ;
#68=ORIENTED_EDGE('',*,*,#59,.T.) ;
#69=ORIENTED_EDGE('',*,*,#64,.T.) ;
#83=ORIENTED_EDGE('',*,*,#76,.T.) ;
#84=ORIENTED_EDGE('',*,*,#64,.F.) ;
#85=ORIENTED_EDGE('',*,*,#81,.T.) ;
#86=ORIENTED_EDGE('',*,*,#52,.T.) ;
#123=ORIENTED_EDGE('',*,*,#102,.F.) ;
#124=ORIENTED_EDGE('',*,*,#109,.T.) ;
#125=ORIENTED_EDGE('',*,*,#116,.T.) ;
#126=ORIENTED_EDGE('',*,*,#121,.F.) ;
#154=ORIENTED_EDGE('',*,*,#142,.F.) ;
#155=ORIENTED_EDGE('',*,*,#147,.T.) ;
#156=ORIENTED_EDGE('',*,*,#102,.T.) ;
#157=ORIENTED_EDGE('',*,*,#152,.F.) ;
#185=ORIENTED_EDGE('',*,*,#173,.F.) ;
#186=ORIENTED_EDGE('',*,*,#178,.T.) ;
#187=ORIENTED_EDGE('',*,*,#142,.T.) ;
#188=ORIENTED_EDGE('',*,*,#183,.F.) ;
#207=ORIENTED_EDGE('',*,*,#116,.F.) ;
#208=ORIENTED_EDGE('',*,*,#200,.T.) ;
#209=ORIENTED_EDGE('',*,*,#173,.T.) ;
#210=ORIENTED_EDGE('',*,*,#205,.F.) ;
#219=ORIENTED_EDGE('',*,*,#205,.T.) ;
#220=ORIENTED_EDGE('',*,*,#183,.T.) ;
#221=ORIENTED_EDGE('',*,*,#152,.T.) ;
#222=ORIENTED_EDGE('',*,*,#121,.T.) ;
#239=ORIENTED_EDGE('',*,*,#232,.F.) ;
#240=ORIENTED_EDGE('',*,*,#237,.F.) ;
#243=ORIENTED_EDGE('',*,*,#76,.F.) ;
#244=ORIENTED_EDGE('',*,*,#45,.F.) ;
#253=ORIENTED_EDGE('',*,*,#109,.F.) ;
#254=ORIENTED_EDGE('',*,*,#147,.F.) ;
#255=ORIENTED_EDGE('',*,*,#178,.F.) ;
#256=ORIENTED_EDGE('',*,*,#200,.F.) ;
#273=ORIENTED_EDGE('',*,*,#266,.F.) ;
#274=ORIENTED_EDGE('',*,*,#271,.F.) ;
#277=ORIENTED_EDGE('',*,*,#81,.F.) ;
#278=ORIENTED_EDGE('',*,*,#59,.F.) ;
#297=ORIENTED_EDGE('',*,*,#232,.T.) ;
#298=ORIENTED_EDGE('',*,*,#290,.F.) ;
#299=ORIENTED_EDGE('',*,*,#266,.T.) ;
#300=ORIENTED_EDGE('',*,*,#295,.T.) ;
#304=ORIENTED_EDGE('',*,*,#237,.T.) ;
#305=ORIENTED_EDGE('',*,*,#295,.F.) ;
#306=ORIENTED_EDGE('',*,*,#271,.T.) ;
#307=ORIENTED_EDGE('',*,*,#290,.T.) ;
#241=FACE_BOUND('',#238,.T.) ;
#245=FACE_BOUND('',#242,.T.) ;
#275=FACE_BOUND('',#272,.T.) ;
#279=FACE_BOUND('',#276,.T.) ;
#31=CLOSED_SHELL('Closed Shell',(#71,#88,#128,#159,#190,#212,#246,#280,#302,#309)) ;
#310=ADVANCED_BREP_SHAPE_REPRESENTATION('NONE',(#21),#16) ;
#71=ADVANCED_FACE('Body.3',(#70),#36,.F.) ;
#88=ADVANCED_FACE('Body.3',(#87),#36,.F.) ;
#128=ADVANCED_FACE('Body.3',(#127),#93,.T.) ;
#159=ADVANCED_FACE('Body.3',(#158),#133,.T.) ;
#190=ADVANCED_FACE('Body.3',(#189),#164,.T.) ;
#212=ADVANCED_FACE('Body.3',(#211),#195,.T.) ;
#246=ADVANCED_FACE('Body.3',(#223,#241,#245),#217,.T.) ;
#280=ADVANCED_FACE('Body.3',(#257,#275,#279),#251,.F.) ;
#302=ADVANCED_FACE('Body.3',(#301),#285,.F.) ;
#309=ADVANCED_FACE('Body.3',(#308),#285,.F.) ;
#4=APPLICATION_PROTOCOL_DEFINITION('international standard','automotive_design',2001,#1) ;
#21=MANIFOLD_SOLID_BREP('Body.3',#31) ;
#40=CIRCLE('generated circle',#39,1.7) ;
#56=CIRCLE('generated circle',#55,1.7) ;
#75=CIRCLE('generated circle',#74,1.7) ;
#80=CIRCLE('generated circle',#79,1.7) ;
#227=CIRCLE('generated circle',#226,1.7) ;
#236=CIRCLE('generated circle',#235,1.7) ;
#261=CIRCLE('generated circle',#260,1.7) ;
#270=CIRCLE('generated circle',#269,1.7) ;
#22=COLOUR_RGB('Colour',0.823529411765,0.823529411765,1.) ;
#321=CONSTRUCTIVE_GEOMETRY_REPRESENTATION('supplemental geometry',(#315),#16) ;
#322=CONSTRUCTIVE_GEOMETRY_REPRESENTATION_RELATIONSHIP('supplemental geometry','',#19,#321) ;
#36=CYLINDRICAL_SURFACE('generated cylinder',#35,1.7) ;
#285=CYLINDRICAL_SURFACE('generated cylinder',#284,1.7) ;
#317=DRAUGHTING_PRE_DEFINED_COLOUR('white') ;
#316=DRAUGHTING_PRE_DEFINED_CURVE_FONT('continuous') ;
#45=EDGE_CURVE('',#42,#44,#40,.F.) ;
#52=EDGE_CURVE('',#51,#44,#49,.F.) ;
#59=EDGE_CURVE('',#51,#58,#56,.T.) ;
#64=EDGE_CURVE('',#58,#42,#63,.F.) ;
#76=EDGE_CURVE('',#44,#42,#75,.F.) ;
#81=EDGE_CURVE('',#58,#51,#80,.T.) ;
#102=EDGE_CURVE('',#99,#101,#97,.T.) ;
#109=EDGE_CURVE('',#99,#108,#106,.T.) ;
#116=EDGE_CURVE('',#108,#115,#113,.T.) ;
#121=EDGE_CURVE('',#101,#115,#120,.T.) ;
#142=EDGE_CURVE('',#139,#141,#137,.T.) ;
#147=EDGE_CURVE('',#139,#99,#146,.T.) ;
#152=EDGE_CURVE('',#141,#101,#151,.T.) ;
#173=EDGE_CURVE('',#170,#172,#168,.T.) ;
#178=EDGE_CURVE('',#170,#139,#177,.T.) ;
#183=EDGE_CURVE('',#172,#141,#182,.T.) ;
#200=EDGE_CURVE('',#108,#170,#199,.T.) ;
#205=EDGE_CURVE('',#115,#172,#204,.T.) ;
#232=EDGE_CURVE('',#229,#231,#227,.T.) ;
#237=EDGE_CURVE('',#231,#229,#236,.T.) ;
#266=EDGE_CURVE('',#263,#265,#261,.F.) ;
#271=EDGE_CURVE('',#265,#263,#270,.F.) ;
#290=EDGE_CURVE('',#263,#231,#289,.F.) ;
#295=EDGE_CURVE('',#265,#229,#294,.F.) ;
#65=EDGE_LOOP('',(#66,#67,#68,#69)) ;
#82=EDGE_LOOP('',(#83,#84,#85,#86)) ;
#122=EDGE_LOOP('',(#123,#124,#125,#126)) ;
#153=EDGE_LOOP('',(#154,#155,#156,#157)) ;
#184=EDGE_LOOP('',(#185,#186,#187,#188)) ;
#206=EDGE_LOOP('',(#207,#208,#209,#210)) ;
#218=EDGE_LOOP('',(#219,#220,#221,#222)) ;
#238=EDGE_LOOP('',(#239,#240)) ;
#242=EDGE_LOOP('',(#243,#244)) ;
#252=EDGE_LOOP('',(#253,#254,#255,#256)) ;
#272=EDGE_LOOP('',(#273,#274)) ;
#276=EDGE_LOOP('',(#277,#278)) ;
#296=EDGE_LOOP('',(#297,#298,#299,#300)) ;
#303=EDGE_LOOP('',(#304,#305,#306,#307)) ;
#70=FACE_OUTER_BOUND('',#65,.T.) ;
#87=FACE_OUTER_BOUND('',#82,.T.) ;
#127=FACE_OUTER_BOUND('',#122,.T.) ;
#158=FACE_OUTER_BOUND('',#153,.T.) ;
#189=FACE_OUTER_BOUND('',#184,.T.) ;
#211=FACE_OUTER_BOUND('',#206,.T.) ;
#223=FACE_OUTER_BOUND('',#218,.T.) ;
#257=FACE_OUTER_BOUND('',#252,.T.) ;
#301=FACE_OUTER_BOUND('',#296,.T.) ;
#308=FACE_OUTER_BOUND('',#303,.T.) ;
#49=LINE('Line',#46,#48) ;
#63=LINE('Line',#60,#62) ;
#97=LINE('Line',#94,#96) ;
#106=LINE('Line',#103,#105) ;
#113=LINE('Line',#110,#112) ;
#120=LINE('Line',#117,#119) ;
#137=LINE('Line',#134,#136) ;
#146=LINE('Line',#143,#145) ;
#151=LINE('Line',#148,#150) ;
#168=LINE('Line',#165,#167) ;
#177=LINE('Line',#174,#176) ;
#182=LINE('Line',#179,#181) ;
#199=LINE('Line',#196,#198) ;
#204=LINE('Line',#201,#203) ;
#289=LINE('Line',#286,#288) ;
#294=LINE('Line',#291,#293) ;
#93=PLANE('',#92) ;
#133=PLANE('',#132) ;
#164=PLANE('',#163) ;
#195=PLANE('',#194) ;
#217=PLANE('',#216) ;
#251=PLANE('',#250) ;
#9=PRODUCT_CATEGORY_RELATIONSHIP(' ',' ',#7,#8) ;
#6=PRODUCT_DEFINITION_FORMATION_WITH_SPECIFIED_SOURCE('',' ',#5,.NOT_KNOWN.) ;
#20=SHAPE_DEFINITION_REPRESENTATION(#11,#19) ;
#42=VERTEX_POINT('',#41) ;
#44=VERTEX_POINT('',#43) ;
#51=VERTEX_POINT('',#50) ;
#58=VERTEX_POINT('',#57) ;
#99=VERTEX_POINT('',#98) ;
#101=VERTEX_POINT('',#100) ;
#108=VERTEX_POINT('',#107) ;
#115=VERTEX_POINT('',#114) ;
#139=VERTEX_POINT('',#138) ;
#141=VERTEX_POINT('',#140) ;
#170=VERTEX_POINT('',#169) ;
#172=VERTEX_POINT('',#171) ;
#229=VERTEX_POINT('',#228) ;
#231=VERTEX_POINT('',#230) ;
#263=VERTEX_POINT('',#262) ;
#265=VERTEX_POINT('',#264) ;
#12=(LENGTH_UNIT()NAMED_UNIT(*)SI_UNIT(.MILLI.,.METRE.)) ;
#13=(NAMED_UNIT(*)PLANE_ANGLE_UNIT()SI_UNIT($,.RADIAN.)) ;
#14=(NAMED_UNIT(*)SI_UNIT($,.STERADIAN.)SOLID_ANGLE_UNIT()) ;
#16=(GEOMETRIC_REPRESENTATION_CONTEXT(3)GLOBAL_UNCERTAINTY_ASSIGNED_CONTEXT((#15))GLOBAL_UNIT_ASSIGNED_CONTEXT((#12,#13,#14))REPRESENTATION_CONTEXT(' ',' ')) ;
ENDSEC;
END-ISO-10303-21;
