ISO-10303-21;
HEADER;
FILE_DESCRIPTION(('CATIA V5 STEP Exchange','CAx-IF Rec.Pracs.--- Model Styling and Organization---1.5--- 2016-08-15','CAx-IF Rec.Pracs.---Supplemental Geometry---1.0---2011-11-01','CAx-IF Rec.Pracs.--- Composite Materials ---1.1---2010-07-15'),'2;1');

FILE_NAME ('706718-1_3', '2024-07-30T09:13:40+00:00', ('none'), ('Weidmueller'), 'CATIA Version 5-6 Release 2022 SP4 HF5', 'CATIA V5 STEP AP214 v3', 'none');

FILE_SCHEMA(('AUTOMOTIVE_DESIGN { 1 0 10303 214 1 1 1 1 }'));

ENDSEC;
DATA;
#5=PRODUCT('CABTITE BP 5MM PA','CABTITE BP 5MM PA',' ',(#2)) ;
#2=PRODUCT_CONTEXT(' ',#1,'mechanical') ;
#1=APPLICATION_CONTEXT('automotive design') ;
#10=PRODUCT_DEFINITION(' ',' ',#6,#3) ;
#3=PRODUCT_DEFINITION_CONTEXT('part definition',#1,' ') ;
#11=PRODUCT_DEFINITION_SHAPE(' ',' ',#10) ;
#348=MECHANICAL_DESIGN_GEOMETRIC_PRESENTATION_REPRESENTATION(' ',(#87,#113,#184,#208,#225,#237,#244,#276,#289,#321,#334,#345,#29),#16) ;
#19=SHAPE_REPRESENTATION(' ',(#18),#16) ;
#18=AXIS2_PLACEMENT_3D(' ',#17,$,$) ;
#35=AXIS2_PLACEMENT_3D('Cylinder Axis2P3D',#32,#33,#34) ;
#48=AXIS2_PLACEMENT_3D('Circle Axis2P3D',#46,#47,$) ;
#62=AXIS2_PLACEMENT_3D('Circle Axis2P3D',#60,#61,$) ;
#69=AXIS2_PLACEMENT_3D('Circle Axis2P3D',#67,#68,$) ;
#90=AXIS2_PLACEMENT_3D('Circle Axis2P3D',#88,#89,$) ;
#95=AXIS2_PLACEMENT_3D('Circle Axis2P3D',#93,#94,$) ;
#102=AXIS2_PLACEMENT_3D('Circle Axis2P3D',#100,#101,$) ;
#117=AXIS2_PLACEMENT_3D('Plane Axis2P3D',#114,#115,#116) ;
#188=AXIS2_PLACEMENT_3D('Sphere Axis2P3D',#185,#186,#187) ;
#192=AXIS2_PLACEMENT_3D('Circle Axis2P3D',#190,#191,$) ;
#199=AXIS2_PLACEMENT_3D('Circle Axis2P3D',#197,#198,$) ;
#212=AXIS2_PLACEMENT_3D('Sphere Axis2P3D',#209,#210,#211) ;
#216=AXIS2_PLACEMENT_3D('Circle Axis2P3D',#214,#215,$) ;
#228=AXIS2_PLACEMENT_3D('Circle Axis2P3D',#226,#227,$) ;
#248=AXIS2_PLACEMENT_3D('Cylinder Axis2P3D',#245,#246,#247) ;
#259=AXIS2_PLACEMENT_3D('Circle Axis2P3D',#257,#258,$) ;
#279=AXIS2_PLACEMENT_3D('Circle Axis2P3D',#277,#278,$) ;
#293=AXIS2_PLACEMENT_3D('Cone Axis2P3D',#290,#291,#292) ;
#311=AXIS2_PLACEMENT_3D('Circle Axis2P3D',#309,#310,$) ;
#324=AXIS2_PLACEMENT_3D('Circle Axis2P3D',#322,#323,$) ;
#338=AXIS2_PLACEMENT_3D('Plane Axis2P3D',#335,#336,#337) ;
#17=CARTESIAN_POINT(' ',(0.,0.,0.)) ;
#32=CARTESIAN_POINT('Axis2P3D Location',(3.4,3.4,16.5)) ;
#37=CARTESIAN_POINT('Line Origine',(6.8,3.4,16.5)) ;
#41=CARTESIAN_POINT('Vertex',(6.8,3.4,17.)) ;
#43=CARTESIAN_POINT('Vertex',(6.8,3.4,16.5)) ;
#46=CARTESIAN_POINT('Axis2P3D Location',(3.4,3.4,16.5)) ;
#50=CARTESIAN_POINT('Vertex',(0.,3.4,16.5)) ;
#53=CARTESIAN_POINT('Line Origine',(0.,3.4,16.5)) ;
#57=CARTESIAN_POINT('Vertex',(0.,3.4,17.)) ;
#60=CARTESIAN_POINT('Axis2P3D Location',(3.4,3.4,17.)) ;
#64=CARTESIAN_POINT('Vertex',(3.4,6.8,17.)) ;
#67=CARTESIAN_POINT('Axis2P3D Location',(3.4,3.4,17.)) ;
#88=CARTESIAN_POINT('Axis2P3D Location',(3.4,3.4,16.5)) ;
#93=CARTESIAN_POINT('Axis2P3D Location',(3.4,3.4,17.)) ;
#97=CARTESIAN_POINT('Vertex',(3.4,0.,17.)) ;
#100=CARTESIAN_POINT('Axis2P3D Location',(3.4,3.4,17.)) ;
#114=CARTESIAN_POINT('Axis2P3D Location',(3.4,-4.4408920985E-16,16.5)) ;
#124=CARTESIAN_POINT('Control Point',(5.9,3.40000000037,16.5)) ;
#125=CARTESIAN_POINT('Control Point',(5.9,3.16763554523,16.5)) ;
#126=CARTESIAN_POINT('Control Point',(5.87300337668,2.9352718035,16.5)) ;
#127=CARTESIAN_POINT('Control Point',(5.81898590528,2.70701622527,16.5)) ;
#128=CARTESIAN_POINT('Control Point',(5.65895632202,2.26737990977,16.5)) ;
#129=CARTESIAN_POINT('Control Point',(5.4023957136,1.87614652786,16.5)) ;
#130=CARTESIAN_POINT('Control Point',(5.25180199078,1.69631320137,16.5)) ;
#131=CARTESIAN_POINT('Control Point',(4.91169843479,1.37503585852,16.5)) ;
#132=CARTESIAN_POINT('Control Point',(4.5069975239,1.14029327631,16.5)) ;
#133=CARTESIAN_POINT('Control Point',(4.29177467874,1.04703224719,16.5)) ;
#134=CARTESIAN_POINT('Control Point',(3.84374711106,0.912270023513,16.5)) ;
#135=CARTESIAN_POINT('Control Point',(3.37675961704,0.883816802764,16.5)) ;
#136=CARTESIAN_POINT('Control Point',(3.14256525686,0.89691257129,16.5)) ;
#137=CARTESIAN_POINT('Control Point',(2.68165875807,0.977254079638,16.5)) ;
#138=CARTESIAN_POINT('Control Point',(2.2514519417,1.16112631993,16.5)) ;
#139=CARTESIAN_POINT('Control Point',(2.04796834774,1.27780073241,16.5)) ;
#140=CARTESIAN_POINT('Control Point',(1.67196015144,1.55620223127,16.5)) ;
#141=CARTESIAN_POINT('Control Point',(1.36979858036,1.91339306237,16.5)) ;
#142=CARTESIAN_POINT('Control Point',(1.24019297391,2.10889468232,16.5)) ;
#143=CARTESIAN_POINT('Control Point',(1.05424860875,2.47613348021,16.5)) ;
#144=CARTESIAN_POINT('Control Point',(0.946740700166,2.87227164247,16.5)) ;
#145=CARTESIAN_POINT('Control Point',(0.915578672399,3.04697150228,16.5)) ;
#146=CARTESIAN_POINT('Control Point',(0.9,3.22348557299,16.5)) ;
#147=CARTESIAN_POINT('Control Point',(0.9,3.40000000037,16.5)) ;
#148=CARTESIAN_POINT('Vertex',(5.9,3.4,16.5)) ;
#150=CARTESIAN_POINT('Vertex',(0.9,3.40000000037,16.5)) ;
#154=CARTESIAN_POINT('Control Point',(0.9,3.40000000037,16.5)) ;
#155=CARTESIAN_POINT('Control Point',(0.9,3.63236445532,16.5)) ;
#156=CARTESIAN_POINT('Control Point',(0.926996623264,3.86472819686,16.5)) ;
#157=CARTESIAN_POINT('Control Point',(0.981014094635,4.09298377407,16.5)) ;
#158=CARTESIAN_POINT('Control Point',(1.14104367864,4.53262009075,16.5)) ;
#159=CARTESIAN_POINT('Control Point',(1.39760428831,4.92385347353,16.5)) ;
#160=CARTESIAN_POINT('Control Point',(1.54819800717,5.10368679695,16.5)) ;
#161=CARTESIAN_POINT('Control Point',(1.88830155826,5.42496413616,16.5)) ;
#162=CARTESIAN_POINT('Control Point',(2.29300246262,5.65970671702,16.5)) ;
#163=CARTESIAN_POINT('Control Point',(2.50822533052,5.75296775737,16.5)) ;
#164=CARTESIAN_POINT('Control Point',(2.9562528889,5.88772997707,16.5)) ;
#165=CARTESIAN_POINT('Control Point',(3.42324037296,5.91618319833,16.5)) ;
#166=CARTESIAN_POINT('Control Point',(3.65743474357,5.9030874281,16.5)) ;
#167=CARTESIAN_POINT('Control Point',(4.11834123658,5.82274592089,16.5)) ;
#168=CARTESIAN_POINT('Control Point',(4.54854804809,5.63887368425,16.5)) ;
#169=CARTESIAN_POINT('Control Point',(4.75203165575,5.52219926713,16.5)) ;
#170=CARTESIAN_POINT('Control Point',(5.12803984914,5.24379777034,16.5)) ;
#171=CARTESIAN_POINT('Control Point',(5.43020141857,4.88660694239,16.5)) ;
#172=CARTESIAN_POINT('Control Point',(5.55980702353,4.69110531849,16.5)) ;
#173=CARTESIAN_POINT('Control Point',(5.7457513909,4.32386651744,16.5)) ;
#174=CARTESIAN_POINT('Control Point',(5.85325930032,3.92772835141,16.5)) ;
#175=CARTESIAN_POINT('Control Point',(5.88442132697,3.7530285057,16.5)) ;
#176=CARTESIAN_POINT('Control Point',(5.9,3.57651443137,16.5)) ;
#177=CARTESIAN_POINT('Control Point',(5.9,3.40000000037,16.5)) ;
#185=CARTESIAN_POINT('Axis2P3D Location',(3.4,3.4,5.69)) ;
#190=CARTESIAN_POINT('Axis2P3D Location',(3.4,3.4,5.69)) ;
#194=CARTESIAN_POINT('Vertex',(3.4,3.4,17.5)) ;
#197=CARTESIAN_POINT('Axis2P3D Location',(3.4,3.4,5.69)) ;
#209=CARTESIAN_POINT('Axis2P3D Location',(3.4,3.4,5.69)) ;
#214=CARTESIAN_POINT('Axis2P3D Location',(3.4,3.4,5.69)) ;
#226=CARTESIAN_POINT('Axis2P3D Location',(3.4,3.4,5.69)) ;
#245=CARTESIAN_POINT('Axis2P3D Location',(3.4,3.4,16.5)) ;
#250=CARTESIAN_POINT('Line Origine',(0.9,3.4,16.5)) ;
#254=CARTESIAN_POINT('Vertex',(0.9,3.4,2.)) ;
#257=CARTESIAN_POINT('Axis2P3D Location',(3.4,3.4,2.)) ;
#261=CARTESIAN_POINT('Vertex',(5.9,3.4,2.)) ;
#264=CARTESIAN_POINT('Line Origine',(5.9,3.4,16.5)) ;
#277=CARTESIAN_POINT('Axis2P3D Location',(3.4,3.4,2.)) ;
#290=CARTESIAN_POINT('Axis2P3D Location',(3.4,3.4,0.)) ;
#295=CARTESIAN_POINT('Line Origine',(980585.124583,3.39999999976,4902898.12868)) ;
#299=CARTESIAN_POINT('Vertex',(5.5,3.4,0.)) ;
#302=CARTESIAN_POINT('Line Origine',(-980578.324583,3.40000000012,4902898.12868)) ;
#306=CARTESIAN_POINT('Vertex',(1.30000000032,3.4,-1.61190441027E-09)) ;
#309=CARTESIAN_POINT('Axis2P3D Location',(3.4,3.4,-1.80284382132E-10)) ;
#322=CARTESIAN_POINT('Axis2P3D Location',(3.4,3.4,0.)) ;
#335=CARTESIAN_POINT('Axis2P3D Location',(3.4,0.9,0.)) ;
#33=DIRECTION('Axis2P3D Direction',(0.,0.,-1.)) ;
#34=DIRECTION('Axis2P3D XDirection',(-1.,0.,0.)) ;
#38=DIRECTION('Vector Direction',(0.,0.,-1.)) ;
#47=DIRECTION('Axis2P3D Direction',(0.,0.,-1.)) ;
#54=DIRECTION('Vector Direction',(0.,0.,-1.)) ;
#61=DIRECTION('Axis2P3D Direction',(0.,0.,-1.)) ;
#68=DIRECTION('Axis2P3D Direction',(0.,0.,-1.)) ;
#89=DIRECTION('Axis2P3D Direction',(0.,0.,-1.)) ;
#94=DIRECTION('Axis2P3D Direction',(0.,0.,-1.)) ;
#101=DIRECTION('Axis2P3D Direction',(0.,0.,-1.)) ;
#115=DIRECTION('Axis2P3D Direction',(0.,0.,1.)) ;
#116=DIRECTION('Axis2P3D XDirection',(1.,0.,0.)) ;
#186=DIRECTION('Axis2P3D Direction',(0.,0.,-1.)) ;
#187=DIRECTION('Axis2P3D XDirection',(7.14453428209E-16,-1.,0.)) ;
#191=DIRECTION('Axis2P3D Direction',(9.80184821886E-16,-1.,0.)) ;
#198=DIRECTION('Axis2P3D Direction',(-1.,-1.48550637169E-15,-0.)) ;
#210=DIRECTION('Axis2P3D Direction',(0.,0.,-1.)) ;
#211=DIRECTION('Axis2P3D XDirection',(-6.01644992176E-16,1.,0.)) ;
#215=DIRECTION('Axis2P3D Direction',(-1.54673871165E-15,1.,0.)) ;
#227=DIRECTION('Axis2P3D Direction',(1.,6.96907877003E-16,0.)) ;
#246=DIRECTION('Axis2P3D Direction',(-0.,0.,-1.)) ;
#247=DIRECTION('Axis2P3D XDirection',(-1.,-2.64687485605E-28,0.)) ;
#251=DIRECTION('Vector Direction',(0.,0.,-1.)) ;
#258=DIRECTION('Axis2P3D Direction',(-0.,0.,-1.)) ;
#265=DIRECTION('Vector Direction',(0.,0.,-1.)) ;
#278=DIRECTION('Axis2P3D Direction',(-0.,0.,-1.)) ;
#291=DIRECTION('Axis2P3D Direction',(0.,0.,1.)) ;
#292=DIRECTION('Axis2P3D XDirection',(1.,0.,0.)) ;
#296=DIRECTION('Vector Direction',(0.196116134917,-4.80345914947E-17,0.980580675735)) ;
#303=DIRECTION('Vector Direction',(-0.196116134917,2.40172957474E-17,0.980580675735)) ;
#310=DIRECTION('Axis2P3D Direction',(0.,0.,1.)) ;
#323=DIRECTION('Axis2P3D Direction',(0.,0.,1.)) ;
#336=DIRECTION('Axis2P3D Direction',(0.,0.,1.)) ;
#337=DIRECTION('Axis2P3D XDirection',(1.,0.,0.)) ;
#30=PRESENTATION_LAYER_ASSIGNMENT('1',' ',(#21)) ;
#8=PRODUCT_RELATED_PRODUCT_CATEGORY('part',$,(#5)) ;
#7=PRODUCT_CATEGORY('part','specification') ;
#29=STYLED_ITEM(' ',(#28),#21) ;
#28=PRESENTATION_STYLE_ASSIGNMENT((#27)) ;
#86=PRESENTATION_STYLE_ASSIGNMENT((#85)) ;
#27=SURFACE_STYLE_USAGE(.BOTH.,#26) ;
#85=SURFACE_STYLE_USAGE(.BOTH.,#84) ;
#26=SURFACE_SIDE_STYLE(' ',(#25)) ;
#84=SURFACE_SIDE_STYLE(' ',(#83)) ;
#25=SURFACE_STYLE_FILL_AREA(#24) ;
#83=SURFACE_STYLE_FILL_AREA(#82) ;
#24=FILL_AREA_STYLE(' ',(#23)) ;
#82=FILL_AREA_STYLE(' ',(#81)) ;
#23=FILL_AREA_STYLE_COLOUR(' ',#22) ;
#81=FILL_AREA_STYLE_COLOUR(' ',#80) ;
#39=VECTOR('Line Direction',#38,1.) ;
#55=VECTOR('Line Direction',#54,1.) ;
#252=VECTOR('Line Direction',#251,1.) ;
#266=VECTOR('Line Direction',#265,1.) ;
#297=VECTOR('Line Direction',#296,1.) ;
#304=VECTOR('Line Direction',#303,1.) ;
#15=UNCERTAINTY_MEASURE_WITH_UNIT(LENGTH_MEASURE(0.005),#12,'distance_accuracy_value','CONFUSED CURVE UNCERTAINTY') ;
#347=SHAPE_REPRESENTATION_RELATIONSHIP(' ',' ',#19,#346) ;
#73=ORIENTED_EDGE('',*,*,#45,.T.) ;
#74=ORIENTED_EDGE('',*,*,#52,.F.) ;
#75=ORIENTED_EDGE('',*,*,#59,.T.) ;
#76=ORIENTED_EDGE('',*,*,#66,.T.) ;
#77=ORIENTED_EDGE('',*,*,#71,.T.) ;
#106=ORIENTED_EDGE('',*,*,#59,.F.) ;
#107=ORIENTED_EDGE('',*,*,#92,.F.) ;
#108=ORIENTED_EDGE('',*,*,#45,.F.) ;
#109=ORIENTED_EDGE('',*,*,#99,.T.) ;
#110=ORIENTED_EDGE('',*,*,#104,.T.) ;
#120=ORIENTED_EDGE('',*,*,#52,.T.) ;
#121=ORIENTED_EDGE('',*,*,#92,.T.) ;
#180=ORIENTED_EDGE('',*,*,#152,.F.) ;
#181=ORIENTED_EDGE('',*,*,#178,.F.) ;
#203=ORIENTED_EDGE('',*,*,#196,.F.) ;
#204=ORIENTED_EDGE('',*,*,#201,.T.) ;
#205=ORIENTED_EDGE('',*,*,#66,.F.) ;
#220=ORIENTED_EDGE('',*,*,#218,.T.) ;
#221=ORIENTED_EDGE('',*,*,#71,.F.) ;
#222=ORIENTED_EDGE('',*,*,#201,.F.) ;
#232=ORIENTED_EDGE('',*,*,#218,.F.) ;
#233=ORIENTED_EDGE('',*,*,#230,.T.) ;
#234=ORIENTED_EDGE('',*,*,#99,.F.) ;
#239=ORIENTED_EDGE('',*,*,#196,.T.) ;
#240=ORIENTED_EDGE('',*,*,#104,.F.) ;
#241=ORIENTED_EDGE('',*,*,#230,.F.) ;
#270=ORIENTED_EDGE('',*,*,#256,.F.) ;
#271=ORIENTED_EDGE('',*,*,#263,.T.) ;
#272=ORIENTED_EDGE('',*,*,#268,.F.) ;
#273=ORIENTED_EDGE('',*,*,#152,.T.) ;
#283=ORIENTED_EDGE('',*,*,#268,.T.) ;
#284=ORIENTED_EDGE('',*,*,#281,.T.) ;
#285=ORIENTED_EDGE('',*,*,#256,.T.) ;
#286=ORIENTED_EDGE('',*,*,#178,.T.) ;
#315=ORIENTED_EDGE('',*,*,#301,.F.) ;
#316=ORIENTED_EDGE('',*,*,#263,.F.) ;
#317=ORIENTED_EDGE('',*,*,#308,.F.) ;
#318=ORIENTED_EDGE('',*,*,#313,.F.) ;
#328=ORIENTED_EDGE('',*,*,#308,.T.) ;
#329=ORIENTED_EDGE('',*,*,#281,.F.) ;
#330=ORIENTED_EDGE('',*,*,#301,.T.) ;
#331=ORIENTED_EDGE('',*,*,#326,.F.) ;
#341=ORIENTED_EDGE('',*,*,#313,.T.) ;
#342=ORIENTED_EDGE('',*,*,#326,.T.) ;
#182=FACE_BOUND('',#179,.T.) ;
#31=CLOSED_SHELL('Closed Shell',(#79,#112,#183,#207,#224,#236,#243,#275,#288,#320,#333,#344)) ;
#346=ADVANCED_BREP_SHAPE_REPRESENTATION('NONE',(#21),#16) ;
#79=ADVANCED_FACE('CABTITE BP 5MM PA',(#78),#36,.T.) ;
#112=ADVANCED_FACE('CABTITE BP 5MM PA',(#111),#36,.T.) ;
#183=ADVANCED_FACE('CABTITE BP 5MM PA',(#122,#182),#118,.F.) ;
#207=ADVANCED_FACE('CABTITE BP 5MM PA',(#206),#189,.T.) ;
#224=ADVANCED_FACE('CABTITE BP 5MM PA',(#223),#213,.T.) ;
#236=ADVANCED_FACE('CABTITE BP 5MM PA',(#235),#189,.T.) ;
#243=ADVANCED_FACE('CABTITE BP 5MM PA',(#242),#189,.T.) ;
#275=ADVANCED_FACE('CABTITE BP 5MM PA',(#274),#249,.T.) ;
#288=ADVANCED_FACE('CABTITE BP 5MM PA',(#287),#249,.T.) ;
#320=ADVANCED_FACE('CABTITE BP 5MM PA',(#319),#294,.T.) ;
#333=ADVANCED_FACE('CABTITE BP 5MM PA',(#332),#294,.T.) ;
#344=ADVANCED_FACE('CABTITE BP 5MM PA',(#343),#339,.F.) ;
#4=APPLICATION_PROTOCOL_DEFINITION('international standard','automotive_design',2001,#1) ;
#123=B_SPLINE_CURVE_WITH_KNOTS('',5,(#124,#125,#126,#127,#128,#129,#130,#131,#132,#133,#134,#135,#136,#137,#138,#139,#140,#141,#142,#143,#144,#145,#146,#147),.UNSPECIFIED.,.F.,.U.,(6,3,3,3,3,3,3,6),(0.,1.64663665682,3.29327331682,4.93990999089,6.58654663848,8.23318331441,9.87981995797,11.1306787712),.UNSPECIFIED.) ;
#153=B_SPLINE_CURVE_WITH_KNOTS('',5,(#154,#155,#156,#157,#158,#159,#160,#161,#162,#163,#164,#165,#166,#167,#168,#169,#170,#171,#172,#173,#174,#175,#176,#177),.UNSPECIFIED.,.F.,.U.,(6,3,3,3,3,3,3,6),(0.,1.64663666006,3.29327333569,4.93990996032,6.58654659721,8.23318325212,9.87981990147,11.1306787438),.UNSPECIFIED.) ;
#21=MANIFOLD_SOLID_BREP('CABTITE BP 5MM PA',#31) ;
#49=CIRCLE('generated circle',#48,3.4) ;
#63=CIRCLE('generated circle',#62,3.4) ;
#70=CIRCLE('generated circle',#69,3.4) ;
#91=CIRCLE('generated circle',#90,3.4) ;
#96=CIRCLE('generated circle',#95,3.4) ;
#103=CIRCLE('generated circle',#102,3.4) ;
#193=CIRCLE('generated circle',#192,11.81) ;
#200=CIRCLE('generated circle',#199,11.81) ;
#217=CIRCLE('generated circle',#216,11.81) ;
#229=CIRCLE('generated circle',#228,11.81) ;
#260=CIRCLE('generated circle',#259,2.5) ;
#280=CIRCLE('generated circle',#279,2.5) ;
#312=CIRCLE('generated circle',#311,2.09999999996) ;
#325=CIRCLE('generated circle',#324,2.1) ;
#22=COLOUR_RGB('Colour',0.823529411765,0.823529411765,1.) ;
#80=COLOUR_RGB('Colour',0.964705882353,0.937254901961,0.894117647059) ;
#294=CONICAL_SURFACE('Cone',#293,2.1,0.197395559624) ;
#87=OVER_RIDING_STYLED_ITEM(' ',(#86),#79,#29) ;
#113=OVER_RIDING_STYLED_ITEM(' ',(#86),#112,#29) ;
#184=OVER_RIDING_STYLED_ITEM(' ',(#86),#183,#29) ;
#208=OVER_RIDING_STYLED_ITEM(' ',(#86),#207,#29) ;
#225=OVER_RIDING_STYLED_ITEM(' ',(#86),#224,#29) ;
#237=OVER_RIDING_STYLED_ITEM(' ',(#86),#236,#29) ;
#244=OVER_RIDING_STYLED_ITEM(' ',(#86),#243,#29) ;
#276=OVER_RIDING_STYLED_ITEM(' ',(#86),#275,#29) ;
#289=OVER_RIDING_STYLED_ITEM(' ',(#86),#288,#29) ;
#321=OVER_RIDING_STYLED_ITEM(' ',(#86),#320,#29) ;
#334=OVER_RIDING_STYLED_ITEM(' ',(#86),#333,#29) ;
#345=OVER_RIDING_STYLED_ITEM(' ',(#86),#344,#29) ;
#36=CYLINDRICAL_SURFACE('generated cylinder',#35,3.4) ;
#249=CYLINDRICAL_SURFACE('generated cylinder',#248,2.5) ;
#45=EDGE_CURVE('',#42,#44,#40,.T.) ;
#52=EDGE_CURVE('',#51,#44,#49,.T.) ;
#59=EDGE_CURVE('',#51,#58,#56,.F.) ;
#66=EDGE_CURVE('',#58,#65,#63,.T.) ;
#71=EDGE_CURVE('',#65,#42,#70,.T.) ;
#92=EDGE_CURVE('',#44,#51,#91,.T.) ;
#99=EDGE_CURVE('',#42,#98,#96,.T.) ;
#104=EDGE_CURVE('',#98,#58,#103,.T.) ;
#152=EDGE_CURVE('',#149,#151,#123,.T.) ;
#178=EDGE_CURVE('',#151,#149,#153,.T.) ;
#196=EDGE_CURVE('',#195,#58,#193,.T.) ;
#201=EDGE_CURVE('',#195,#65,#200,.T.) ;
#218=EDGE_CURVE('',#195,#42,#217,.T.) ;
#230=EDGE_CURVE('',#195,#98,#229,.T.) ;
#256=EDGE_CURVE('',#255,#151,#253,.F.) ;
#263=EDGE_CURVE('',#255,#262,#260,.F.) ;
#268=EDGE_CURVE('',#149,#262,#267,.T.) ;
#281=EDGE_CURVE('',#262,#255,#280,.F.) ;
#301=EDGE_CURVE('',#262,#300,#298,.F.) ;
#308=EDGE_CURVE('',#307,#255,#305,.T.) ;
#313=EDGE_CURVE('',#300,#307,#312,.F.) ;
#326=EDGE_CURVE('',#307,#300,#325,.F.) ;
#72=EDGE_LOOP('',(#73,#74,#75,#76,#77)) ;
#105=EDGE_LOOP('',(#106,#107,#108,#109,#110)) ;
#119=EDGE_LOOP('',(#120,#121)) ;
#179=EDGE_LOOP('',(#180,#181)) ;
#202=EDGE_LOOP('',(#203,#204,#205)) ;
#219=EDGE_LOOP('',(#220,#221,#222)) ;
#231=EDGE_LOOP('',(#232,#233,#234)) ;
#238=EDGE_LOOP('',(#239,#240,#241)) ;
#269=EDGE_LOOP('',(#270,#271,#272,#273)) ;
#282=EDGE_LOOP('',(#283,#284,#285,#286)) ;
#314=EDGE_LOOP('',(#315,#316,#317,#318)) ;
#327=EDGE_LOOP('',(#328,#329,#330,#331)) ;
#340=EDGE_LOOP('',(#341,#342)) ;
#78=FACE_OUTER_BOUND('',#72,.T.) ;
#111=FACE_OUTER_BOUND('',#105,.T.) ;
#122=FACE_OUTER_BOUND('',#119,.T.) ;
#206=FACE_OUTER_BOUND('',#202,.T.) ;
#223=FACE_OUTER_BOUND('',#219,.T.) ;
#235=FACE_OUTER_BOUND('',#231,.T.) ;
#242=FACE_OUTER_BOUND('',#238,.T.) ;
#274=FACE_OUTER_BOUND('',#269,.T.) ;
#287=FACE_OUTER_BOUND('',#282,.T.) ;
#319=FACE_OUTER_BOUND('',#314,.T.) ;
#332=FACE_OUTER_BOUND('',#327,.T.) ;
#343=FACE_OUTER_BOUND('',#340,.T.) ;
#40=LINE('Line',#37,#39) ;
#56=LINE('Line',#53,#55) ;
#253=LINE('Line',#250,#252) ;
#267=LINE('Line',#264,#266) ;
#298=LINE('Line',#295,#297) ;
#305=LINE('Line',#302,#304) ;
#118=PLANE('',#117) ;
#339=PLANE('',#338) ;
#9=PRODUCT_CATEGORY_RELATIONSHIP(' ',' ',#7,#8) ;
#6=PRODUCT_DEFINITION_FORMATION_WITH_SPECIFIED_SOURCE(' ',' ',#5,.NOT_KNOWN.) ;
#20=SHAPE_DEFINITION_REPRESENTATION(#11,#19) ;
#189=SPHERICAL_SURFACE('',#188,11.81) ;
#213=SPHERICAL_SURFACE('',#212,11.81) ;
#42=VERTEX_POINT('',#41) ;
#44=VERTEX_POINT('',#43) ;
#51=VERTEX_POINT('',#50) ;
#58=VERTEX_POINT('',#57) ;
#65=VERTEX_POINT('',#64) ;
#98=VERTEX_POINT('',#97) ;
#149=VERTEX_POINT('',#148) ;
#151=VERTEX_POINT('',#150) ;
#195=VERTEX_POINT('',#194) ;
#255=VERTEX_POINT('',#254) ;
#262=VERTEX_POINT('',#261) ;
#300=VERTEX_POINT('',#299) ;
#307=VERTEX_POINT('',#306) ;
#12=(LENGTH_UNIT()NAMED_UNIT(*)SI_UNIT(.MILLI.,.METRE.)) ;
#13=(NAMED_UNIT(*)PLANE_ANGLE_UNIT()SI_UNIT($,.RADIAN.)) ;
#14=(NAMED_UNIT(*)SI_UNIT($,.STERADIAN.)SOLID_ANGLE_UNIT()) ;
#16=(GEOMETRIC_REPRESENTATION_CONTEXT(3)GLOBAL_UNCERTAINTY_ASSIGNED_CONTEXT((#15))GLOBAL_UNIT_ASSIGNED_CONTEXT((#12,#13,#14))REPRESENTATION_CONTEXT(' ',' ')) ;
ENDSEC;
END-ISO-10303-21;
