ISO-10303-21;
HEADER;
FILE_DESCRIPTION(('CATIA V5R24 STEP','CAx-IF Rec.Pracs.--- Model Styling and Organization---1.2---2011-12-15'),'2;1');

FILE_NAME ('D1445802_0', '2016-06-23T06:38:44+00:00', ('Weidmueller Interface'), ('Weidmueller'), 'CATIA Version 5-6 Release 2014 SP4', 'CATIA V5 STEP AP214', 'none');

FILE_SCHEMA(('AUTOMOTIVE_DESIGN { 1 0 10303 214 1 1 1 1 }'));

ENDSEC;
DATA;
#5=PRODUCT('v5-standard_part','','',(#2)) ;
#2=PRODUCT_CONTEXT(' ',#1,'mechanical') ;
#1=APPLICATION_CONTEXT('automotive design') ;
#10=PRODUCT_DEFINITION('',' ',#6,#3) ;
#3=PRODUCT_DEFINITION_CONTEXT('part definition',#1,' ') ;
#11=PRODUCT_DEFINITION_SHAPE(' ',' ',#10) ;
#193=MECHANICAL_DESIGN_GEOMETRIC_PRESENTATION_REPRESENTATION(' ',(#46),#16) ;
#19=SHAPE_REPRESENTATION(' ',(#18),#16) ;
#18=AXIS2_PLACEMENT_3D(' ',#17,$,$) ;
#24=AXIS2_PLACEMENT_3D('Plane Axis2P3D',#21,#22,#23) ;
#31=AXIS2_PLACEMENT_3D('Plane Axis2P3D',#28,#29,#30) ;
#36=AXIS2_PLACEMENT_3D('Plane Axis2P3D',#33,#34,#35) ;
#52=AXIS2_PLACEMENT_3D('Cylinder Axis2P3D',#49,#50,#51) ;
#56=AXIS2_PLACEMENT_3D('Circle Axis2P3D',#54,#55,$) ;
#72=AXIS2_PLACEMENT_3D('Circle Axis2P3D',#70,#71,$) ;
#91=AXIS2_PLACEMENT_3D('Circle Axis2P3D',#89,#90,$) ;
#96=AXIS2_PLACEMENT_3D('Circle Axis2P3D',#94,#95,$) ;
#109=AXIS2_PLACEMENT_3D('Plane Axis2P3D',#106,#107,#108) ;
#113=AXIS2_PLACEMENT_3D('Circle Axis2P3D',#111,#112,$) ;
#122=AXIS2_PLACEMENT_3D('Circle Axis2P3D',#120,#121,$) ;
#137=AXIS2_PLACEMENT_3D('Cylinder Axis2P3D',#134,#135,#136) ;
#148=AXIS2_PLACEMENT_3D('Circle Axis2P3D',#146,#147,$) ;
#167=AXIS2_PLACEMENT_3D('Circle Axis2P3D',#165,#166,$) ;
#180=AXIS2_PLACEMENT_3D('Plane Axis2P3D',#177,#178,#179) ;
#17=CARTESIAN_POINT(' ',(0.,0.,0.)) ;
#21=CARTESIAN_POINT('Axis2P3D Location',(0.,0.,0.)) ;
#28=CARTESIAN_POINT('Axis2P3D Location',(0.,0.,0.)) ;
#33=CARTESIAN_POINT('Axis2P3D Location',(0.,0.,0.)) ;
#49=CARTESIAN_POINT('Axis2P3D Location',(4.,4.,16.9)) ;
#54=CARTESIAN_POINT('Axis2P3D Location',(4.,4.,17.)) ;
#58=CARTESIAN_POINT('Vertex',(1.80604359527,5.19856384651,17.)) ;
#60=CARTESIAN_POINT('Vertex',(6.19395640473,2.80143615349,17.)) ;
#63=CARTESIAN_POINT('Line Origine',(1.80604359527,5.19856384651,8.65500000009)) ;
#67=CARTESIAN_POINT('Vertex',(1.80604359527,5.19856384651,-1.252398286E-016)) ;
#70=CARTESIAN_POINT('Axis2P3D Location',(4.,4.,0.)) ;
#74=CARTESIAN_POINT('Vertex',(6.19395640473,2.80143615349,1.252398286E-016)) ;
#77=CARTESIAN_POINT('Line Origine',(6.19395640473,2.80143615349,8.65500000009)) ;
#89=CARTESIAN_POINT('Axis2P3D Location',(4.,4.,17.)) ;
#94=CARTESIAN_POINT('Axis2P3D Location',(4.,4.,0.)) ;
#106=CARTESIAN_POINT('Axis2P3D Location',(4.,4.,0.)) ;
#111=CARTESIAN_POINT('Axis2P3D Location',(4.,4.,0.)) ;
#115=CARTESIAN_POINT('Vertex',(5.91770215442,7.51033024756,-3.66799949636E-016)) ;
#117=CARTESIAN_POINT('Vertex',(2.08229784558,0.489669752439,3.66799949636E-016)) ;
#120=CARTESIAN_POINT('Axis2P3D Location',(4.,4.,0.)) ;
#134=CARTESIAN_POINT('Axis2P3D Location',(4.,4.,8.5)) ;
#139=CARTESIAN_POINT('Line Origine',(5.91770215442,7.51033024756,8.5)) ;
#143=CARTESIAN_POINT('Vertex',(5.91770215442,7.51033024756,17.)) ;
#146=CARTESIAN_POINT('Axis2P3D Location',(4.,4.,17.)) ;
#150=CARTESIAN_POINT('Vertex',(2.08229784558,0.489669752439,17.)) ;
#153=CARTESIAN_POINT('Line Origine',(2.08229784558,0.489669752439,8.5)) ;
#165=CARTESIAN_POINT('Axis2P3D Location',(4.,4.,17.)) ;
#177=CARTESIAN_POINT('Axis2P3D Location',(4.,8.,17.)) ;
#22=DIRECTION('Axis2P3D Direction',(0.,0.,1.)) ;
#23=DIRECTION('Axis2P3D XDirection',(1.,0.,0.)) ;
#29=DIRECTION('Axis2P3D Direction',(1.,0.,0.)) ;
#30=DIRECTION('Axis2P3D XDirection',(0.,1.,0.)) ;
#34=DIRECTION('Axis2P3D Direction',(0.,1.,0.)) ;
#35=DIRECTION('Axis2P3D XDirection',(0.,0.,1.)) ;
#50=DIRECTION('Axis2P3D Direction',(0.,-1.04491578788E-016,-1.)) ;
#51=DIRECTION('Axis2P3D XDirection',(0.87758256189,-0.479425538604,5.00959314402E-017)) ;
#55=DIRECTION('Axis2P3D Direction',(0.,-1.04491578788E-016,-1.)) ;
#64=DIRECTION('Vector Direction',(0.,-1.02620268017E-016,-1.)) ;
#71=DIRECTION('Axis2P3D Direction',(0.,-1.04491578788E-016,-1.)) ;
#78=DIRECTION('Vector Direction',(0.,-1.02620268017E-016,-1.)) ;
#90=DIRECTION('Axis2P3D Direction',(0.,-1.04491578788E-016,-1.)) ;
#95=DIRECTION('Axis2P3D Direction',(0.,-1.04491578788E-016,-1.)) ;
#107=DIRECTION('Axis2P3D Direction',(0.,-1.04491578788E-016,-1.)) ;
#108=DIRECTION('Axis2P3D XDirection',(1.,0.,0.)) ;
#112=DIRECTION('Axis2P3D Direction',(0.,-1.04491578788E-016,-1.)) ;
#121=DIRECTION('Axis2P3D Direction',(0.,-1.04491578788E-016,-1.)) ;
#135=DIRECTION('Axis2P3D Direction',(0.,-1.04491578788E-016,-1.)) ;
#136=DIRECTION('Axis2P3D XDirection',(0.479425538604,0.87758256189,-9.1699987409E-017)) ;
#140=DIRECTION('Vector Direction',(0.,-1.04491578788E-016,-1.)) ;
#147=DIRECTION('Axis2P3D Direction',(0.,-1.04491578788E-016,-1.)) ;
#154=DIRECTION('Vector Direction',(0.,-1.04491578788E-016,-1.)) ;
#166=DIRECTION('Axis2P3D Direction',(0.,-1.04491578788E-016,-1.)) ;
#178=DIRECTION('Axis2P3D Direction',(0.,-1.04491578788E-016,-1.)) ;
#179=DIRECTION('Axis2P3D XDirection',(1.,0.,0.)) ;
#47=PRESENTATION_LAYER_ASSIGNMENT('1',' ',(#38)) ;
#8=PRODUCT_RELATED_PRODUCT_CATEGORY('part',$,(#5)) ;
#7=PRODUCT_CATEGORY('part','specification') ;
#46=STYLED_ITEM(' ',(#45),#38) ;
#45=PRESENTATION_STYLE_ASSIGNMENT((#44)) ;
#44=SURFACE_STYLE_USAGE(.BOTH.,#43) ;
#43=SURFACE_SIDE_STYLE(' ',(#42)) ;
#42=SURFACE_STYLE_FILL_AREA(#41) ;
#41=FILL_AREA_STYLE(' ',(#40)) ;
#40=FILL_AREA_STYLE_COLOUR(' ',#39) ;
#65=VECTOR('Line Direction',#64,1.) ;
#79=VECTOR('Line Direction',#78,1.) ;
#141=VECTOR('Line Direction',#140,1.) ;
#155=VECTOR('Line Direction',#154,1.) ;
#15=UNCERTAINTY_MEASURE_WITH_UNIT(LENGTH_MEASURE(0.005),#12,'distance_accuracy_value','CONFUSED CURVE UNCERTAINTY') ;
#192=SHAPE_REPRESENTATION_RELATIONSHIP(' ',' ',#19,#191) ;
#83=ORIENTED_EDGE('',*,*,#62,.F.) ;
#84=ORIENTED_EDGE('',*,*,#69,.F.) ;
#85=ORIENTED_EDGE('',*,*,#76,.T.) ;
#86=ORIENTED_EDGE('',*,*,#81,.T.) ;
#100=ORIENTED_EDGE('',*,*,#93,.F.) ;
#101=ORIENTED_EDGE('',*,*,#81,.F.) ;
#102=ORIENTED_EDGE('',*,*,#98,.T.) ;
#103=ORIENTED_EDGE('',*,*,#69,.T.) ;
#126=ORIENTED_EDGE('',*,*,#119,.T.) ;
#127=ORIENTED_EDGE('',*,*,#124,.T.) ;
#130=ORIENTED_EDGE('',*,*,#98,.F.) ;
#131=ORIENTED_EDGE('',*,*,#76,.F.) ;
#159=ORIENTED_EDGE('',*,*,#119,.F.) ;
#160=ORIENTED_EDGE('',*,*,#145,.T.) ;
#161=ORIENTED_EDGE('',*,*,#152,.T.) ;
#162=ORIENTED_EDGE('',*,*,#157,.F.) ;
#171=ORIENTED_EDGE('',*,*,#124,.F.) ;
#172=ORIENTED_EDGE('',*,*,#157,.T.) ;
#173=ORIENTED_EDGE('',*,*,#169,.T.) ;
#174=ORIENTED_EDGE('',*,*,#145,.F.) ;
#183=ORIENTED_EDGE('',*,*,#152,.F.) ;
#184=ORIENTED_EDGE('',*,*,#169,.F.) ;
#187=ORIENTED_EDGE('',*,*,#62,.T.) ;
#188=ORIENTED_EDGE('',*,*,#93,.T.) ;
#132=FACE_BOUND('',#129,.T.) ;
#189=FACE_BOUND('',#186,.T.) ;
#48=CLOSED_SHELL('Closed Shell',(#88,#105,#133,#164,#176,#190)) ;
#191=ADVANCED_BREP_SHAPE_REPRESENTATION('NONE',(#38),#16) ;
#88=ADVANCED_FACE('K\X2\00F6\X0\rper.3',(#87),#53,.F.) ;
#105=ADVANCED_FACE('K\X2\00F6\X0\rper.3',(#104),#53,.F.) ;
#133=ADVANCED_FACE('K\X2\00F6\X0\rper.3',(#128,#132),#110,.T.) ;
#164=ADVANCED_FACE('K\X2\00F6\X0\rper.3',(#163),#138,.T.) ;
#176=ADVANCED_FACE('K\X2\00F6\X0\rper.3',(#175),#138,.T.) ;
#190=ADVANCED_FACE('K\X2\00F6\X0\rper.3',(#185,#189),#181,.F.) ;
#4=APPLICATION_PROTOCOL_DEFINITION('international standard','automotive_design',2001,#1) ;
#38=MANIFOLD_SOLID_BREP('K\X2\00F6\X0\rper.3',#48) ;
#57=CIRCLE('generated circle',#56,2.5) ;
#73=CIRCLE('generated circle',#72,2.5) ;
#92=CIRCLE('generated circle',#91,2.5) ;
#97=CIRCLE('generated circle',#96,2.5) ;
#114=CIRCLE('generated circle',#113,4.) ;
#123=CIRCLE('generated circle',#122,4.) ;
#149=CIRCLE('generated circle',#148,4.) ;
#168=CIRCLE('generated circle',#167,4.) ;
#39=COLOUR_RGB('Colour',0.823529411765,0.823529411765,1.) ;
#26=CONSTRUCTIVE_GEOMETRY_REPRESENTATION('supplemental geometry',(#25,#32,#37),#16) ;
#27=CONSTRUCTIVE_GEOMETRY_REPRESENTATION_RELATIONSHIP('supplemental geometry','',#19,#26) ;
#53=CYLINDRICAL_SURFACE('generated cylinder',#52,2.5) ;
#138=CYLINDRICAL_SURFACE('generated cylinder',#137,4.) ;
#62=EDGE_CURVE('',#59,#61,#57,.T.) ;
#69=EDGE_CURVE('',#68,#59,#66,.F.) ;
#76=EDGE_CURVE('',#68,#75,#73,.T.) ;
#81=EDGE_CURVE('',#75,#61,#80,.F.) ;
#93=EDGE_CURVE('',#61,#59,#92,.T.) ;
#98=EDGE_CURVE('',#75,#68,#97,.T.) ;
#119=EDGE_CURVE('',#116,#118,#114,.T.) ;
#124=EDGE_CURVE('',#118,#116,#123,.T.) ;
#145=EDGE_CURVE('',#116,#144,#142,.F.) ;
#152=EDGE_CURVE('',#144,#151,#149,.T.) ;
#157=EDGE_CURVE('',#118,#151,#156,.F.) ;
#169=EDGE_CURVE('',#151,#144,#168,.T.) ;
#82=EDGE_LOOP('',(#83,#84,#85,#86)) ;
#99=EDGE_LOOP('',(#100,#101,#102,#103)) ;
#125=EDGE_LOOP('',(#126,#127)) ;
#129=EDGE_LOOP('',(#130,#131)) ;
#158=EDGE_LOOP('',(#159,#160,#161,#162)) ;
#170=EDGE_LOOP('',(#171,#172,#173,#174)) ;
#182=EDGE_LOOP('',(#183,#184)) ;
#186=EDGE_LOOP('',(#187,#188)) ;
#87=FACE_OUTER_BOUND('',#82,.T.) ;
#104=FACE_OUTER_BOUND('',#99,.T.) ;
#128=FACE_OUTER_BOUND('',#125,.T.) ;
#163=FACE_OUTER_BOUND('',#158,.T.) ;
#175=FACE_OUTER_BOUND('',#170,.T.) ;
#185=FACE_OUTER_BOUND('',#182,.T.) ;
#66=LINE('Line',#63,#65) ;
#80=LINE('Line',#77,#79) ;
#142=LINE('Line',#139,#141) ;
#156=LINE('Line',#153,#155) ;
#25=PLANE('Referenz_xy',#24) ;
#32=PLANE('Referenz_yz',#31) ;
#37=PLANE('Referenz_xz',#36) ;
#110=PLANE('',#109) ;
#181=PLANE('',#180) ;
#9=PRODUCT_CATEGORY_RELATIONSHIP(' ',' ',#7,#8) ;
#6=PRODUCT_DEFINITION_FORMATION_WITH_SPECIFIED_SOURCE('',' ',#5,.NOT_KNOWN.) ;
#20=SHAPE_DEFINITION_REPRESENTATION(#11,#19) ;
#59=VERTEX_POINT('',#58) ;
#61=VERTEX_POINT('',#60) ;
#68=VERTEX_POINT('',#67) ;
#75=VERTEX_POINT('',#74) ;
#116=VERTEX_POINT('',#115) ;
#118=VERTEX_POINT('',#117) ;
#144=VERTEX_POINT('',#143) ;
#151=VERTEX_POINT('',#150) ;
#12=(LENGTH_UNIT()NAMED_UNIT(*)SI_UNIT(.MILLI.,.METRE.)) ;
#13=(NAMED_UNIT(*)PLANE_ANGLE_UNIT()SI_UNIT($,.RADIAN.)) ;
#14=(NAMED_UNIT(*)SI_UNIT($,.STERADIAN.)SOLID_ANGLE_UNIT()) ;
#16=(GEOMETRIC_REPRESENTATION_CONTEXT(3)GLOBAL_UNCERTAINTY_ASSIGNED_CONTEXT((#15))GLOBAL_UNIT_ASSIGNED_CONTEXT((#12,#13,#14))REPRESENTATION_CONTEXT(' ',' ')) ;
ENDSEC;
END-ISO-10303-21;
