ISO-10303-21;
HEADER;
FILE_DESCRIPTION(('CATIA V5 STEP Exchange','CAx-IF Rec.Pracs.--- Model Styling and Organization---1.5--- 2016-08-15','CAx-IF Rec.Pracs.---Supplemental Geometry---1.0---2011-11-01','CAx-IF Rec.Pracs.--- Composite Materials ---1.1---2010-07-15'),'2;1');

FILE_NAME ('706728-1_3_2652430000_2652430000.stp','2024-06-13T09:09:19+00:00',('none'),('Weidmueller'),'CATIA Version 5-6 Release 2022 SP4 HF5','CATIA V5 STEP AP214 v3','none');

FILE_SCHEMA(('AUTOMOTIVE_DESIGN { 1 0 10303 214 1 1 1 1 }'));

ENDSEC;
DATA;
#5=PRODUCT('CABTITE BP 17MM PA','CABTITE BP 17MM PA',' ',(#2)) ;
#2=PRODUCT_CONTEXT(' ',#1,'mechanical') ;
#1=APPLICATION_CONTEXT('automotive design') ;
#10=PRODUCT_DEFINITION(' ',' ',#6,#3) ;
#3=PRODUCT_DEFINITION_CONTEXT('part definition',#1,' ') ;
#11=PRODUCT_DEFINITION_SHAPE(' ',' ',#10) ;
#471=MECHANICAL_DESIGN_GEOMETRIC_PRESENTATION_REPRESENTATION(' ',(#87,#113,#184,#208,#225,#237,#244,#276,#289,#321,#334,#405,#437,#462,#468,#29),#16) ;
#19=SHAPE_REPRESENTATION(' ',(#18),#16) ;
#18=AXIS2_PLACEMENT_3D(' ',#17,$,$) ;
#35=AXIS2_PLACEMENT_3D('Cylinder Axis2P3D',#32,#33,#34) ;
#48=AXIS2_PLACEMENT_3D('Circle Axis2P3D',#46,#47,$) ;
#62=AXIS2_PLACEMENT_3D('Circle Axis2P3D',#60,#61,$) ;
#69=AXIS2_PLACEMENT_3D('Circle Axis2P3D',#67,#68,$) ;
#90=AXIS2_PLACEMENT_3D('Circle Axis2P3D',#88,#89,$) ;
#95=AXIS2_PLACEMENT_3D('Circle Axis2P3D',#93,#94,$) ;
#102=AXIS2_PLACEMENT_3D('Circle Axis2P3D',#100,#101,$) ;
#117=AXIS2_PLACEMENT_3D('Plane Axis2P3D',#114,#115,#116) ;
#188=AXIS2_PLACEMENT_3D('Sphere Axis2P3D',#185,#186,#187) ;
#192=AXIS2_PLACEMENT_3D('Circle Axis2P3D',#190,#191,$) ;
#199=AXIS2_PLACEMENT_3D('Circle Axis2P3D',#197,#198,$) ;
#212=AXIS2_PLACEMENT_3D('Sphere Axis2P3D',#209,#210,#211) ;
#216=AXIS2_PLACEMENT_3D('Circle Axis2P3D',#214,#215,$) ;
#228=AXIS2_PLACEMENT_3D('Circle Axis2P3D',#226,#227,$) ;
#248=AXIS2_PLACEMENT_3D('Cylinder Axis2P3D',#245,#246,#247) ;
#259=AXIS2_PLACEMENT_3D('Circle Axis2P3D',#257,#258,$) ;
#279=AXIS2_PLACEMENT_3D('Circle Axis2P3D',#277,#278,$) ;
#293=AXIS2_PLACEMENT_3D('Cone Axis2P3D',#290,#291,#292) ;
#311=AXIS2_PLACEMENT_3D('Circle Axis2P3D',#309,#310,$) ;
#324=AXIS2_PLACEMENT_3D('Circle Axis2P3D',#322,#323,$) ;
#338=AXIS2_PLACEMENT_3D('Plane Axis2P3D',#335,#336,#337) ;
#409=AXIS2_PLACEMENT_3D('Cylinder Axis2P3D',#406,#407,#408) ;
#413=AXIS2_PLACEMENT_3D('Circle Axis2P3D',#411,#412,$) ;
#17=CARTESIAN_POINT(' ',(0.,0.,0.)) ;
#32=CARTESIAN_POINT('Axis2P3D Location',(9.4,9.4,16.5)) ;
#37=CARTESIAN_POINT('Line Origine',(18.8,9.4,16.5)) ;
#41=CARTESIAN_POINT('Vertex',(18.8,9.4,17.)) ;
#43=CARTESIAN_POINT('Vertex',(18.8,9.4,16.5)) ;
#46=CARTESIAN_POINT('Axis2P3D Location',(9.4,9.4,16.5)) ;
#50=CARTESIAN_POINT('Vertex',(-3.5527136788E-15,9.4,16.5)) ;
#53=CARTESIAN_POINT('Line Origine',(-3.5527136788E-15,9.4,16.5)) ;
#57=CARTESIAN_POINT('Vertex',(-3.5527136788E-15,9.4,17.)) ;
#60=CARTESIAN_POINT('Axis2P3D Location',(9.4,9.4,17.)) ;
#64=CARTESIAN_POINT('Vertex',(9.4,18.8,17.)) ;
#67=CARTESIAN_POINT('Axis2P3D Location',(9.4,9.4,17.)) ;
#88=CARTESIAN_POINT('Axis2P3D Location',(9.4,9.4,16.5)) ;
#93=CARTESIAN_POINT('Axis2P3D Location',(9.4,9.4,17.)) ;
#97=CARTESIAN_POINT('Vertex',(9.4,0.,17.)) ;
#100=CARTESIAN_POINT('Axis2P3D Location',(9.4,9.4,17.)) ;
#114=CARTESIAN_POINT('Axis2P3D Location',(9.4,-1.7763568394E-15,16.5)) ;
#124=CARTESIAN_POINT('Control Point',(17.9,9.40000000037,16.5)) ;
#125=CARTESIAN_POINT('Control Point',(17.9,8.54309564559,16.5)) ;
#126=CARTESIAN_POINT('Control Point',(17.7920168985,7.68619207521,16.5)) ;
#127=CARTESIAN_POINT('Control Point',(17.5759498483,6.84717123519,16.5)) ;
#128=CARTESIAN_POINT('Control Point',(16.9372581521,5.24222263751,16.5)) ;
#129=CARTESIAN_POINT('Control Point',(15.920362518,3.84590620643,16.5)) ;
#130=CARTESIAN_POINT('Control Point',(15.325912642,3.21561240065,16.5)) ;
#131=CARTESIAN_POINT('Control Point',(13.9914534352,2.11879622522,16.5)) ;
#132=CARTESIAN_POINT('Control Point',(12.4266063616,1.38733882193,16.5)) ;
#133=CARTESIAN_POINT('Control Point',(11.6016577992,1.12257325288,16.5)) ;
#134=CARTESIAN_POINT('Control Point',(9.90341087332,0.806749705924,16.5)) ;
#135=CARTESIAN_POINT('Control Point',(8.17990684846,0.922119491369,16.5)) ;
#136=CARTESIAN_POINT('Control Point',(7.32968602152,1.08874915445,16.5)) ;
#137=CARTESIAN_POINT('Control Point',(5.69013238101,1.63248717974,16.5)) ;
#138=CARTESIAN_POINT('Control Point',(4.23673575059,2.56598306542,16.5)) ;
#139=CARTESIAN_POINT('Control Point',(3.57275614649,3.12255468579,16.5)) ;
#140=CARTESIAN_POINT('Control Point',(2.39977539808,4.39058598526,16.5)) ;
#141=CARTESIAN_POINT('Control Point',(1.57805460578,5.9099777329,16.5)) ;
#142=CARTESIAN_POINT('Control Point',(1.26549760708,6.71803031755,16.5)) ;
#143=CARTESIAN_POINT('Control Point',(1.01009173376,7.75103255416,16.5)) ;
#144=CARTESIAN_POINT('Control Point',(0.917480030948,8.80317294756,16.5)) ;
#145=CARTESIAN_POINT('Control Point',(0.905815081524,9.00229398565,16.5)) ;
#146=CARTESIAN_POINT('Control Point',(0.9,9.20114699307,16.5)) ;
#147=CARTESIAN_POINT('Control Point',(0.9,9.40000000037,16.5)) ;
#148=CARTESIAN_POINT('Vertex',(17.9,9.4,16.5)) ;
#150=CARTESIAN_POINT('Vertex',(0.9,9.40000000037,16.5)) ;
#154=CARTESIAN_POINT('Control Point',(0.9,9.40000000037,16.5)) ;
#155=CARTESIAN_POINT('Control Point',(0.9,10.256904353,16.5)) ;
#156=CARTESIAN_POINT('Control Point',(1.00798310096,11.1138079211,16.5)) ;
#157=CARTESIAN_POINT('Control Point',(1.22405015316,11.9528287716,16.5)) ;
#158=CARTESIAN_POINT('Control Point',(1.86274184793,13.5577773639,16.5)) ;
#159=CARTESIAN_POINT('Control Point',(2.87963747847,14.9540937908,16.5)) ;
#160=CARTESIAN_POINT('Control Point',(3.47408736599,15.584387607,16.5)) ;
#161=CARTESIAN_POINT('Control Point',(4.80854657596,16.6812037823,16.5)) ;
#162=CARTESIAN_POINT('Control Point',(6.37339365276,17.4126611846,16.5)) ;
#163=CARTESIAN_POINT('Control Point',(7.19834220243,17.6774267462,16.5)) ;
#164=CARTESIAN_POINT('Control Point',(8.89658913876,17.9932502942,16.5)) ;
#165=CARTESIAN_POINT('Control Point',(10.6200931737,17.8778805046,16.5)) ;
#166=CARTESIAN_POINT('Control Point',(11.4703139839,17.7112508444,16.5)) ;
#167=CARTESIAN_POINT('Control Point',(13.1098676308,17.1675128151,16.5)) ;
#168=CARTESIAN_POINT('Control Point',(14.5632642655,16.2340169226,16.5)) ;
#169=CARTESIAN_POINT('Control Point',(15.2272438576,15.6774453093,16.5)) ;
#170=CARTESIAN_POINT('Control Point',(16.4002246107,14.4094140018,16.5)) ;
#171=CARTESIAN_POINT('Control Point',(17.2219454036,12.8900222439,16.5)) ;
#172=CARTESIAN_POINT('Control Point',(17.5345023948,12.0819696776,16.5)) ;
#173=CARTESIAN_POINT('Control Point',(17.7899082679,11.0489674379,16.5)) ;
#174=CARTESIAN_POINT('Control Point',(17.8825199696,9.9968270416,16.5)) ;
#175=CARTESIAN_POINT('Control Point',(17.8941849187,9.79770600798,16.5)) ;
#176=CARTESIAN_POINT('Control Point',(17.9,9.59885300411,16.5)) ;
#177=CARTESIAN_POINT('Control Point',(17.9,9.40000000037,16.5)) ;
#185=CARTESIAN_POINT('Axis2P3D Location',(9.4,9.4,-71.11)) ;
#190=CARTESIAN_POINT('Axis2P3D Location',(9.4,9.4,-71.11)) ;
#194=CARTESIAN_POINT('Vertex',(9.4,9.4,17.5)) ;
#197=CARTESIAN_POINT('Axis2P3D Location',(9.4,9.4,-71.11)) ;
#209=CARTESIAN_POINT('Axis2P3D Location',(9.4,9.4,-71.11)) ;
#214=CARTESIAN_POINT('Axis2P3D Location',(9.4,9.4,-71.11)) ;
#226=CARTESIAN_POINT('Axis2P3D Location',(9.4,9.4,-71.11)) ;
#245=CARTESIAN_POINT('Axis2P3D Location',(9.4,9.4,16.5)) ;
#250=CARTESIAN_POINT('Line Origine',(0.9,9.4,16.5)) ;
#254=CARTESIAN_POINT('Vertex',(0.9,9.4,2.)) ;
#257=CARTESIAN_POINT('Axis2P3D Location',(9.4,9.4,2.)) ;
#261=CARTESIAN_POINT('Vertex',(17.9,9.4,2.)) ;
#264=CARTESIAN_POINT('Line Origine',(17.9,9.4,16.5)) ;
#277=CARTESIAN_POINT('Axis2P3D Location',(9.4,9.4,2.)) ;
#290=CARTESIAN_POINT('Axis2P3D Location',(9.4,9.4,0.)) ;
#295=CARTESIAN_POINT('Line Origine',(980594.124583,9.39999999976,4902883.12868)) ;
#299=CARTESIAN_POINT('Vertex',(17.5,9.4,0.)) ;
#302=CARTESIAN_POINT('Line Origine',(-980575.324583,9.40000000012,4902883.12868)) ;
#306=CARTESIAN_POINT('Vertex',(1.30000000002,9.4,-1.06337141923E-10)) ;
#309=CARTESIAN_POINT('Axis2P3D Location',(9.4,9.4,0.)) ;
#322=CARTESIAN_POINT('Axis2P3D Location',(9.4,9.4,0.)) ;
#335=CARTESIAN_POINT('Axis2P3D Location',(9.4,0.9,0.)) ;
#345=CARTESIAN_POINT('Control Point',(3.9,9.4,0.)) ;
#346=CARTESIAN_POINT('Control Point',(3.9,9.9744052875,0.)) ;
#347=CARTESIAN_POINT('Control Point',(3.97498669254,10.5488097333,0.)) ;
#348=CARTESIAN_POINT('Control Point',(4.12504017397,11.1103613396,0.)) ;
#349=CARTESIAN_POINT('Control Point',(4.5680952502,12.1808583395,0.)) ;
#350=CARTESIAN_POINT('Control Point',(5.27111595975,13.1017360509,0.)) ;
#351=CARTESIAN_POINT('Control Point',(5.6812764471,13.5135911562,0.)) ;
#352=CARTESIAN_POINT('Control Point',(6.59925170912,14.2204030544,0.)) ;
#353=CARTESIAN_POINT('Control Point',(7.66791061798,14.6678648008,0.)) ;
#354=CARTESIAN_POINT('Control Point',(8.22883875773,14.8202323217,0.)) ;
#355=CARTESIAN_POINT('Control Point',(9.37702314765,14.9749393444,0.)) ;
#356=CARTESIAN_POINT('Control Point',(10.5264404045,14.829702129,0.)) ;
#357=CARTESIAN_POINT('Control Point',(11.0886056851,14.6819643978,0.)) ;
#358=CARTESIAN_POINT('Control Point',(12.1609196972,14.2433252088,0.)) ;
#359=CARTESIAN_POINT('Control Point',(13.0846871343,13.5441059221,0.)) ;
#360=CARTESIAN_POINT('Control Point',(13.4982292254,13.1356464333,0.)) ;
#361=CARTESIAN_POINT('Control Point',(14.2088186477,12.2205921215,0.)) ;
#362=CARTESIAN_POINT('Control Point',(14.6606811385,11.1537865128,0.)) ;
#363=CARTESIAN_POINT('Control Point',(14.8153592535,10.5934911761,0.)) ;
#364=CARTESIAN_POINT('Control Point',(14.8963367058,10.0106652547,0.)) ;
#365=CARTESIAN_POINT('Control Point',(14.8999439394,9.42720242145,0.)) ;
#366=CARTESIAN_POINT('Control Point',(14.8999813139,9.4181349076,0.)) ;
#367=CARTESIAN_POINT('Control Point',(14.9,9.4090674538,0.)) ;
#368=CARTESIAN_POINT('Control Point',(14.9,9.4,0.)) ;
#369=CARTESIAN_POINT('Vertex',(3.9,9.4,0.)) ;
#371=CARTESIAN_POINT('Vertex',(14.9,9.4,0.)) ;
#375=CARTESIAN_POINT('Control Point',(14.9,9.4,0.)) ;
#376=CARTESIAN_POINT('Control Point',(14.9,8.8255947126,0.)) ;
#377=CARTESIAN_POINT('Control Point',(14.8250133074,8.25119026694,0.)) ;
#378=CARTESIAN_POINT('Control Point',(14.674959826,7.68963866017,0.)) ;
#379=CARTESIAN_POINT('Control Point',(14.2319047497,6.61914166039,0.)) ;
#380=CARTESIAN_POINT('Control Point',(13.5288840402,5.69826394908,0.)) ;
#381=CARTESIAN_POINT('Control Point',(13.118723553,5.28640884379,0.)) ;
#382=CARTESIAN_POINT('Control Point',(12.200748291,4.57959694576,0.)) ;
#383=CARTESIAN_POINT('Control Point',(11.1320893823,4.13213519928,0.)) ;
#384=CARTESIAN_POINT('Control Point',(10.5711612421,3.9797676783,0.)) ;
#385=CARTESIAN_POINT('Control Point',(9.42297685229,3.82506065564,0.)) ;
#386=CARTESIAN_POINT('Control Point',(8.27355959567,3.97029787099,0.)) ;
#387=CARTESIAN_POINT('Control Point',(7.71139431474,4.11803560222,0.)) ;
#388=CARTESIAN_POINT('Control Point',(6.63908030278,4.55667479124,0.)) ;
#389=CARTESIAN_POINT('Control Point',(5.71531286576,5.25589407783,0.)) ;
#390=CARTESIAN_POINT('Control Point',(5.30177077453,5.66435356684,0.)) ;
#391=CARTESIAN_POINT('Control Point',(4.59118135222,6.5794078786,0.)) ;
#392=CARTESIAN_POINT('Control Point',(4.13931886136,7.64621348723,0.)) ;
#393=CARTESIAN_POINT('Control Point',(3.98464074657,8.20650882383,0.)) ;
#394=CARTESIAN_POINT('Control Point',(3.90366329428,8.78933474527,0.)) ;
#395=CARTESIAN_POINT('Control Point',(3.90005606061,9.37279757858,0.)) ;
#396=CARTESIAN_POINT('Control Point',(3.9000186861,9.38186509237,0.)) ;
#397=CARTESIAN_POINT('Control Point',(3.9,9.39093254619,0.)) ;
#398=CARTESIAN_POINT('Control Point',(3.9,9.4,0.)) ;
#406=CARTESIAN_POINT('Axis2P3D Location',(9.4,9.4,163.35)) ;
#411=CARTESIAN_POINT('Axis2P3D Location',(9.4,9.4,16.5000000004)) ;
#415=CARTESIAN_POINT('Vertex',(14.9,9.40000000037,16.5000000004)) ;
#417=CARTESIAN_POINT('Vertex',(3.9,9.4,16.5000000004)) ;
#420=CARTESIAN_POINT('Line Origine',(3.9,9.4,163.35)) ;
#425=CARTESIAN_POINT('Line Origine',(14.9,9.4,163.35)) ;
#439=CARTESIAN_POINT('Control Point',(14.9,9.4,16.5000000004)) ;
#440=CARTESIAN_POINT('Control Point',(14.9,8.53606202026,16.5000000004)) ;
#441=CARTESIAN_POINT('Control Point',(14.7303661744,7.67212404053,16.5000000004)) ;
#442=CARTESIAN_POINT('Control Point',(14.3909308761,6.8526547399,16.5000000004)) ;
#443=CARTESIAN_POINT('Control Point',(13.409036525,5.39096347504,16.5000000005)) ;
#444=CARTESIAN_POINT('Control Point',(11.9473452601,4.40906912391,16.5000000005)) ;
#445=CARTESIAN_POINT('Control Point',(11.1278759595,4.06963382564,16.5000000005)) ;
#446=CARTESIAN_POINT('Control Point',(9.4,3.73036617436,16.5000000006)) ;
#447=CARTESIAN_POINT('Control Point',(7.67212404053,4.06963382564,16.5000000006)) ;
#448=CARTESIAN_POINT('Control Point',(6.8526547399,4.40906912391,16.5000000007)) ;
#449=CARTESIAN_POINT('Control Point',(5.39096347504,5.39096347504,16.5000000007)) ;
#450=CARTESIAN_POINT('Control Point',(4.40906912391,6.8526547399,16.5000000007)) ;
#451=CARTESIAN_POINT('Control Point',(4.06963382564,7.67212404053,16.5000000008)) ;
#452=CARTESIAN_POINT('Control Point',(3.9,8.53606202026,16.5000000008)) ;
#453=CARTESIAN_POINT('Control Point',(3.9,9.4,16.5000000008)) ;
#33=DIRECTION('Axis2P3D Direction',(0.,0.,-1.)) ;
#34=DIRECTION('Axis2P3D XDirection',(-1.,0.,0.)) ;
#38=DIRECTION('Vector Direction',(0.,0.,-1.)) ;
#47=DIRECTION('Axis2P3D Direction',(0.,0.,-1.)) ;
#54=DIRECTION('Vector Direction',(0.,0.,-1.)) ;
#61=DIRECTION('Axis2P3D Direction',(0.,0.,-1.)) ;
#68=DIRECTION('Axis2P3D Direction',(0.,0.,-1.)) ;
#89=DIRECTION('Axis2P3D Direction',(0.,0.,-1.)) ;
#94=DIRECTION('Axis2P3D Direction',(0.,0.,-1.)) ;
#101=DIRECTION('Axis2P3D Direction',(0.,0.,-1.)) ;
#115=DIRECTION('Axis2P3D Direction',(0.,0.,1.)) ;
#116=DIRECTION('Axis2P3D XDirection',(1.,0.,0.)) ;
#186=DIRECTION('Axis2P3D Direction',(-0.,0.,-1.)) ;
#187=DIRECTION('Axis2P3D XDirection',(-1.,-3.80891320941E-16,0.)) ;
#191=DIRECTION('Axis2P3D Direction',(3.80891320941E-16,-1.,0.)) ;
#198=DIRECTION('Axis2P3D Direction',(-1.,-4.42123660898E-16,-0.)) ;
#210=DIRECTION('Axis2P3D Direction',(0.,0.,-1.)) ;
#211=DIRECTION('Axis2P3D XDirection',(1.,2.40562939542E-16,0.)) ;
#215=DIRECTION('Axis2P3D Direction',(-2.40562939542E-16,1.,0.)) ;
#227=DIRECTION('Axis2P3D Direction',(1.,3.01795279499E-16,0.)) ;
#246=DIRECTION('Axis2P3D Direction',(0.,0.,-1.)) ;
#247=DIRECTION('Axis2P3D XDirection',(-1.,-2.64687485605E-28,-0.)) ;
#251=DIRECTION('Vector Direction',(0.,0.,-1.)) ;
#258=DIRECTION('Axis2P3D Direction',(0.,0.,-1.)) ;
#265=DIRECTION('Vector Direction',(0.,0.,-1.)) ;
#278=DIRECTION('Axis2P3D Direction',(0.,0.,-1.)) ;
#291=DIRECTION('Axis2P3D Direction',(0.,0.,1.)) ;
#292=DIRECTION('Axis2P3D XDirection',(1.,0.,0.)) ;
#296=DIRECTION('Vector Direction',(0.196116134917,-4.80346221727E-17,0.980580675735)) ;
#303=DIRECTION('Vector Direction',(-0.196116134917,2.40173110864E-17,0.980580675735)) ;
#310=DIRECTION('Axis2P3D Direction',(0.,0.,1.)) ;
#323=DIRECTION('Axis2P3D Direction',(0.,0.,1.)) ;
#336=DIRECTION('Axis2P3D Direction',(0.,0.,1.)) ;
#337=DIRECTION('Axis2P3D XDirection',(1.,0.,0.)) ;
#407=DIRECTION('Axis2P3D Direction',(0.,0.,-1.)) ;
#408=DIRECTION('Axis2P3D XDirection',(-1.,0.,0.)) ;
#412=DIRECTION('Axis2P3D Direction',(0.,0.,-1.)) ;
#421=DIRECTION('Vector Direction',(0.,0.,-1.)) ;
#426=DIRECTION('Vector Direction',(0.,0.,-1.)) ;
#30=PRESENTATION_LAYER_ASSIGNMENT('1',' ',(#21)) ;
#8=PRODUCT_RELATED_PRODUCT_CATEGORY('part',$,(#5)) ;
#7=PRODUCT_CATEGORY('part','specification') ;
#29=STYLED_ITEM(' ',(#28),#21) ;
#28=PRESENTATION_STYLE_ASSIGNMENT((#27)) ;
#86=PRESENTATION_STYLE_ASSIGNMENT((#85)) ;
#27=SURFACE_STYLE_USAGE(.BOTH.,#26) ;
#85=SURFACE_STYLE_USAGE(.BOTH.,#84) ;
#26=SURFACE_SIDE_STYLE(' ',(#25)) ;
#84=SURFACE_SIDE_STYLE(' ',(#83)) ;
#25=SURFACE_STYLE_FILL_AREA(#24) ;
#83=SURFACE_STYLE_FILL_AREA(#82) ;
#24=FILL_AREA_STYLE(' ',(#23)) ;
#82=FILL_AREA_STYLE(' ',(#81)) ;
#23=FILL_AREA_STYLE_COLOUR(' ',#22) ;
#81=FILL_AREA_STYLE_COLOUR(' ',#80) ;
#39=VECTOR('Line Direction',#38,1.) ;
#55=VECTOR('Line Direction',#54,1.) ;
#252=VECTOR('Line Direction',#251,1.) ;
#266=VECTOR('Line Direction',#265,1.) ;
#297=VECTOR('Line Direction',#296,1.) ;
#304=VECTOR('Line Direction',#303,1.) ;
#422=VECTOR('Line Direction',#421,1.) ;
#427=VECTOR('Line Direction',#426,1.) ;
#15=UNCERTAINTY_MEASURE_WITH_UNIT(LENGTH_MEASURE(0.005),#12,'distance_accuracy_value','CONFUSED CURVE UNCERTAINTY') ;
#470=SHAPE_REPRESENTATION_RELATIONSHIP(' ',' ',#19,#469) ;
#73=ORIENTED_EDGE('',*,*,#45,.T.) ;
#74=ORIENTED_EDGE('',*,*,#52,.F.) ;
#75=ORIENTED_EDGE('',*,*,#59,.T.) ;
#76=ORIENTED_EDGE('',*,*,#66,.T.) ;
#77=ORIENTED_EDGE('',*,*,#71,.T.) ;
#106=ORIENTED_EDGE('',*,*,#59,.F.) ;
#107=ORIENTED_EDGE('',*,*,#92,.F.) ;
#108=ORIENTED_EDGE('',*,*,#45,.F.) ;
#109=ORIENTED_EDGE('',*,*,#99,.T.) ;
#110=ORIENTED_EDGE('',*,*,#104,.T.) ;
#120=ORIENTED_EDGE('',*,*,#52,.T.) ;
#121=ORIENTED_EDGE('',*,*,#92,.T.) ;
#180=ORIENTED_EDGE('',*,*,#152,.F.) ;
#181=ORIENTED_EDGE('',*,*,#178,.F.) ;
#203=ORIENTED_EDGE('',*,*,#66,.F.) ;
#204=ORIENTED_EDGE('',*,*,#196,.F.) ;
#205=ORIENTED_EDGE('',*,*,#201,.T.) ;
#220=ORIENTED_EDGE('',*,*,#218,.T.) ;
#221=ORIENTED_EDGE('',*,*,#71,.F.) ;
#222=ORIENTED_EDGE('',*,*,#201,.F.) ;
#232=ORIENTED_EDGE('',*,*,#99,.F.) ;
#233=ORIENTED_EDGE('',*,*,#218,.F.) ;
#234=ORIENTED_EDGE('',*,*,#230,.T.) ;
#239=ORIENTED_EDGE('',*,*,#196,.T.) ;
#240=ORIENTED_EDGE('',*,*,#104,.F.) ;
#241=ORIENTED_EDGE('',*,*,#230,.F.) ;
#270=ORIENTED_EDGE('',*,*,#256,.F.) ;
#271=ORIENTED_EDGE('',*,*,#263,.T.) ;
#272=ORIENTED_EDGE('',*,*,#268,.F.) ;
#273=ORIENTED_EDGE('',*,*,#152,.T.) ;
#283=ORIENTED_EDGE('',*,*,#268,.T.) ;
#284=ORIENTED_EDGE('',*,*,#281,.T.) ;
#285=ORIENTED_EDGE('',*,*,#256,.T.) ;
#286=ORIENTED_EDGE('',*,*,#178,.T.) ;
#315=ORIENTED_EDGE('',*,*,#301,.F.) ;
#316=ORIENTED_EDGE('',*,*,#263,.F.) ;
#317=ORIENTED_EDGE('',*,*,#308,.F.) ;
#318=ORIENTED_EDGE('',*,*,#313,.F.) ;
#328=ORIENTED_EDGE('',*,*,#308,.T.) ;
#329=ORIENTED_EDGE('',*,*,#281,.F.) ;
#330=ORIENTED_EDGE('',*,*,#301,.T.) ;
#331=ORIENTED_EDGE('',*,*,#326,.F.) ;
#341=ORIENTED_EDGE('',*,*,#313,.T.) ;
#342=ORIENTED_EDGE('',*,*,#326,.T.) ;
#401=ORIENTED_EDGE('',*,*,#373,.F.) ;
#402=ORIENTED_EDGE('',*,*,#399,.F.) ;
#431=ORIENTED_EDGE('',*,*,#419,.T.) ;
#432=ORIENTED_EDGE('',*,*,#424,.F.) ;
#433=ORIENTED_EDGE('',*,*,#373,.T.) ;
#434=ORIENTED_EDGE('',*,*,#429,.F.) ;
#456=ORIENTED_EDGE('',*,*,#454,.T.) ;
#457=ORIENTED_EDGE('',*,*,#429,.T.) ;
#458=ORIENTED_EDGE('',*,*,#399,.T.) ;
#459=ORIENTED_EDGE('',*,*,#424,.T.) ;
#464=ORIENTED_EDGE('',*,*,#454,.F.) ;
#465=ORIENTED_EDGE('',*,*,#419,.F.) ;
#182=FACE_BOUND('',#179,.T.) ;
#403=FACE_BOUND('',#400,.T.) ;
#31=CLOSED_SHELL('Closed Shell',(#79,#112,#183,#207,#224,#236,#243,#275,#288,#320,#333,#404,#436,#461,#467)) ;
#469=ADVANCED_BREP_SHAPE_REPRESENTATION('NONE',(#21),#16) ;
#79=ADVANCED_FACE('CABTITE BP 17MM PA',(#78),#36,.T.) ;
#112=ADVANCED_FACE('CABTITE BP 17MM PA',(#111),#36,.T.) ;
#183=ADVANCED_FACE('CABTITE BP 17MM PA',(#122,#182),#118,.F.) ;
#207=ADVANCED_FACE('CABTITE BP 17MM PA',(#206),#189,.T.) ;
#224=ADVANCED_FACE('CABTITE BP 17MM PA',(#223),#213,.T.) ;
#236=ADVANCED_FACE('CABTITE BP 17MM PA',(#235),#213,.T.) ;
#243=ADVANCED_FACE('CABTITE BP 17MM PA',(#242),#213,.T.) ;
#275=ADVANCED_FACE('CABTITE BP 17MM PA',(#274),#249,.T.) ;
#288=ADVANCED_FACE('CABTITE BP 17MM PA',(#287),#249,.T.) ;
#320=ADVANCED_FACE('CABTITE BP 17MM PA',(#319),#294,.T.) ;
#333=ADVANCED_FACE('CABTITE BP 17MM PA',(#332),#294,.T.) ;
#404=ADVANCED_FACE('CABTITE BP 17MM PA',(#343,#403),#339,.F.) ;
#436=ADVANCED_FACE('CABTITE BP 17MM PA',(#435),#410,.F.) ;
#461=ADVANCED_FACE('CABTITE BP 17MM PA',(#460),#410,.F.) ;
#467=ADVANCED_FACE('CABTITE BP 17MM PA',(#466),#118,.F.) ;
#4=APPLICATION_PROTOCOL_DEFINITION('international standard','automotive_design',2001,#1) ;
#123=B_SPLINE_CURVE_WITH_KNOTS('',5,(#124,#125,#126,#127,#128,#129,#130,#131,#132,#133,#134,#135,#136,#137,#138,#139,#140,#141,#142,#143,#144,#145,#146,#147),.UNSPECIFIED.,.F.,.U.,(6,3,3,3,3,3,3,6),(0.,6.07494249952,12.1498850036,18.2248275058,24.2997700578,30.3747126254,36.4496552154,37.8594048316),.UNSPECIFIED.) ;
#153=B_SPLINE_CURVE_WITH_KNOTS('',5,(#154,#155,#156,#157,#158,#159,#160,#161,#162,#163,#164,#165,#166,#167,#168,#169,#170,#171,#172,#173,#174,#175,#176,#177),.UNSPECIFIED.,.F.,.U.,(6,3,3,3,3,3,3,6),(0.,6.07494247682,12.1498849509,18.2248274854,24.2997700624,30.3747126414,36.4496552692,37.8594048583),.UNSPECIFIED.) ;
#344=B_SPLINE_CURVE_WITH_KNOTS('',5,(#345,#346,#347,#348,#349,#350,#351,#352,#353,#354,#355,#356,#357,#358,#359,#360,#361,#362,#363,#364,#365,#366,#367,#368),.UNSPECIFIED.,.F.,.U.,(6,3,3,3,3,3,3,6),(0.,4.07332032214,8.14664064268,12.2199609864,16.2932813292,20.3666017176,24.4399221619,24.5042228302),.UNSPECIFIED.) ;
#374=B_SPLINE_CURVE_WITH_KNOTS('',5,(#375,#376,#377,#378,#379,#380,#381,#382,#383,#384,#385,#386,#387,#388,#389,#390,#391,#392,#393,#394,#395,#396,#397,#398),.UNSPECIFIED.,.F.,.U.,(6,3,3,3,3,3,3,6),(0.,4.07332032147,8.14664064241,12.2199609854,16.2932813277,20.3666017158,24.4399221605,24.5042228288),.UNSPECIFIED.) ;
#438=B_SPLINE_CURVE_WITH_KNOTS('',5,(#439,#440,#441,#442,#443,#444,#445,#446,#447,#448,#449,#450,#451,#452,#453),.UNSPECIFIED.,.F.,.U.,(6,3,3,3,6),(-8.63937979737,-4.31968989869,-1.7763568394E-15,4.31968989869,8.63937979737),.UNSPECIFIED.) ;
#21=MANIFOLD_SOLID_BREP('CABTITE BP 17MM PA',#31) ;
#49=CIRCLE('generated circle',#48,9.4) ;
#63=CIRCLE('generated circle',#62,9.4) ;
#70=CIRCLE('generated circle',#69,9.4) ;
#91=CIRCLE('generated circle',#90,9.4) ;
#96=CIRCLE('generated circle',#95,9.4) ;
#103=CIRCLE('generated circle',#102,9.4) ;
#193=CIRCLE('generated circle',#192,88.61) ;
#200=CIRCLE('generated circle',#199,88.61) ;
#217=CIRCLE('generated circle',#216,88.61) ;
#229=CIRCLE('generated circle',#228,88.61) ;
#260=CIRCLE('generated circle',#259,8.5) ;
#280=CIRCLE('generated circle',#279,8.5) ;
#312=CIRCLE('generated circle',#311,8.1) ;
#325=CIRCLE('generated circle',#324,8.1) ;
#414=CIRCLE('generated circle',#413,5.5) ;
#22=COLOUR_RGB('Colour',0.823529411765,0.823529411765,1.) ;
#80=COLOUR_RGB('Colour',0.964705882353,0.937254901961,0.894117647059) ;
#294=CONICAL_SURFACE('Cone',#293,8.1,0.197395559624) ;
#87=OVER_RIDING_STYLED_ITEM(' ',(#86),#79,#29) ;
#113=OVER_RIDING_STYLED_ITEM(' ',(#86),#112,#29) ;
#184=OVER_RIDING_STYLED_ITEM(' ',(#86),#183,#29) ;
#208=OVER_RIDING_STYLED_ITEM(' ',(#86),#207,#29) ;
#225=OVER_RIDING_STYLED_ITEM(' ',(#86),#224,#29) ;
#237=OVER_RIDING_STYLED_ITEM(' ',(#86),#236,#29) ;
#244=OVER_RIDING_STYLED_ITEM(' ',(#86),#243,#29) ;
#276=OVER_RIDING_STYLED_ITEM(' ',(#86),#275,#29) ;
#289=OVER_RIDING_STYLED_ITEM(' ',(#86),#288,#29) ;
#321=OVER_RIDING_STYLED_ITEM(' ',(#86),#320,#29) ;
#334=OVER_RIDING_STYLED_ITEM(' ',(#86),#333,#29) ;
#405=OVER_RIDING_STYLED_ITEM(' ',(#86),#404,#29) ;
#437=OVER_RIDING_STYLED_ITEM(' ',(#86),#436,#29) ;
#462=OVER_RIDING_STYLED_ITEM(' ',(#86),#461,#29) ;
#468=OVER_RIDING_STYLED_ITEM(' ',(#86),#467,#29) ;
#36=CYLINDRICAL_SURFACE('generated cylinder',#35,9.4) ;
#249=CYLINDRICAL_SURFACE('generated cylinder',#248,8.5) ;
#410=CYLINDRICAL_SURFACE('generated cylinder',#409,5.5) ;
#45=EDGE_CURVE('',#42,#44,#40,.T.) ;
#52=EDGE_CURVE('',#51,#44,#49,.T.) ;
#59=EDGE_CURVE('',#51,#58,#56,.F.) ;
#66=EDGE_CURVE('',#58,#65,#63,.T.) ;
#71=EDGE_CURVE('',#65,#42,#70,.T.) ;
#92=EDGE_CURVE('',#44,#51,#91,.T.) ;
#99=EDGE_CURVE('',#42,#98,#96,.T.) ;
#104=EDGE_CURVE('',#98,#58,#103,.T.) ;
#152=EDGE_CURVE('',#149,#151,#123,.T.) ;
#178=EDGE_CURVE('',#151,#149,#153,.T.) ;
#196=EDGE_CURVE('',#195,#58,#193,.T.) ;
#201=EDGE_CURVE('',#195,#65,#200,.T.) ;
#218=EDGE_CURVE('',#195,#42,#217,.T.) ;
#230=EDGE_CURVE('',#195,#98,#229,.T.) ;
#256=EDGE_CURVE('',#255,#151,#253,.F.) ;
#263=EDGE_CURVE('',#255,#262,#260,.F.) ;
#268=EDGE_CURVE('',#149,#262,#267,.T.) ;
#281=EDGE_CURVE('',#262,#255,#280,.F.) ;
#301=EDGE_CURVE('',#262,#300,#298,.F.) ;
#308=EDGE_CURVE('',#307,#255,#305,.T.) ;
#313=EDGE_CURVE('',#300,#307,#312,.F.) ;
#326=EDGE_CURVE('',#307,#300,#325,.F.) ;
#373=EDGE_CURVE('',#370,#372,#344,.T.) ;
#399=EDGE_CURVE('',#372,#370,#374,.T.) ;
#419=EDGE_CURVE('',#416,#418,#414,.F.) ;
#424=EDGE_CURVE('',#370,#418,#423,.F.) ;
#429=EDGE_CURVE('',#416,#372,#428,.T.) ;
#454=EDGE_CURVE('',#418,#416,#438,.F.) ;
#72=EDGE_LOOP('',(#73,#74,#75,#76,#77)) ;
#105=EDGE_LOOP('',(#106,#107,#108,#109,#110)) ;
#119=EDGE_LOOP('',(#120,#121)) ;
#179=EDGE_LOOP('',(#180,#181)) ;
#202=EDGE_LOOP('',(#203,#204,#205)) ;
#219=EDGE_LOOP('',(#220,#221,#222)) ;
#231=EDGE_LOOP('',(#232,#233,#234)) ;
#238=EDGE_LOOP('',(#239,#240,#241)) ;
#269=EDGE_LOOP('',(#270,#271,#272,#273)) ;
#282=EDGE_LOOP('',(#283,#284,#285,#286)) ;
#314=EDGE_LOOP('',(#315,#316,#317,#318)) ;
#327=EDGE_LOOP('',(#328,#329,#330,#331)) ;
#340=EDGE_LOOP('',(#341,#342)) ;
#400=EDGE_LOOP('',(#401,#402)) ;
#430=EDGE_LOOP('',(#431,#432,#433,#434)) ;
#455=EDGE_LOOP('',(#456,#457,#458,#459)) ;
#463=EDGE_LOOP('',(#464,#465)) ;
#78=FACE_OUTER_BOUND('',#72,.T.) ;
#111=FACE_OUTER_BOUND('',#105,.T.) ;
#122=FACE_OUTER_BOUND('',#119,.T.) ;
#206=FACE_OUTER_BOUND('',#202,.T.) ;
#223=FACE_OUTER_BOUND('',#219,.T.) ;
#235=FACE_OUTER_BOUND('',#231,.T.) ;
#242=FACE_OUTER_BOUND('',#238,.T.) ;
#274=FACE_OUTER_BOUND('',#269,.T.) ;
#287=FACE_OUTER_BOUND('',#282,.T.) ;
#319=FACE_OUTER_BOUND('',#314,.T.) ;
#332=FACE_OUTER_BOUND('',#327,.T.) ;
#343=FACE_OUTER_BOUND('',#340,.T.) ;
#435=FACE_OUTER_BOUND('',#430,.T.) ;
#460=FACE_OUTER_BOUND('',#455,.T.) ;
#466=FACE_OUTER_BOUND('',#463,.T.) ;
#40=LINE('Line',#37,#39) ;
#56=LINE('Line',#53,#55) ;
#253=LINE('Line',#250,#252) ;
#267=LINE('Line',#264,#266) ;
#298=LINE('Line',#295,#297) ;
#305=LINE('Line',#302,#304) ;
#423=LINE('Line',#420,#422) ;
#428=LINE('Line',#425,#427) ;
#118=PLANE('',#117) ;
#339=PLANE('',#338) ;
#9=PRODUCT_CATEGORY_RELATIONSHIP(' ',' ',#7,#8) ;
#6=PRODUCT_DEFINITION_FORMATION_WITH_SPECIFIED_SOURCE(' ',' ',#5,.NOT_KNOWN.) ;
#20=SHAPE_DEFINITION_REPRESENTATION(#11,#19) ;
#189=SPHERICAL_SURFACE('',#188,88.61) ;
#213=SPHERICAL_SURFACE('',#212,88.61) ;
#42=VERTEX_POINT('',#41) ;
#44=VERTEX_POINT('',#43) ;
#51=VERTEX_POINT('',#50) ;
#58=VERTEX_POINT('',#57) ;
#65=VERTEX_POINT('',#64) ;
#98=VERTEX_POINT('',#97) ;
#149=VERTEX_POINT('',#148) ;
#151=VERTEX_POINT('',#150) ;
#195=VERTEX_POINT('',#194) ;
#255=VERTEX_POINT('',#254) ;
#262=VERTEX_POINT('',#261) ;
#300=VERTEX_POINT('',#299) ;
#307=VERTEX_POINT('',#306) ;
#370=VERTEX_POINT('',#369) ;
#372=VERTEX_POINT('',#371) ;
#416=VERTEX_POINT('',#415) ;
#418=VERTEX_POINT('',#417) ;
#12=(LENGTH_UNIT()NAMED_UNIT(*)SI_UNIT(.MILLI.,.METRE.)) ;
#13=(NAMED_UNIT(*)PLANE_ANGLE_UNIT()SI_UNIT($,.RADIAN.)) ;
#14=(NAMED_UNIT(*)SI_UNIT($,.STERADIAN.)SOLID_ANGLE_UNIT()) ;
#16=(GEOMETRIC_REPRESENTATION_CONTEXT(3)GLOBAL_UNCERTAINTY_ASSIGNED_CONTEXT((#15))GLOBAL_UNIT_ASSIGNED_CONTEXT((#12,#13,#14))REPRESENTATION_CONTEXT(' ',' ')) ;
ENDSEC;
END-ISO-10303-21;
