ISO-10303-21;
HEADER;
FILE_DESCRIPTION(('CATIA V5R19 STEP'),'2;1');

FILE_NAME ('D1451250_0', '2015-03-27T08:31:44+00:00', ('Weidmueller Interface'), ('Weidmueller'), 'CATIA Version 5 Release 20 SP 5 (IN-10)', 'CATIA V5 STEP AP214', 'none');

FILE_SCHEMA(('AUTOMOTIVE_DESIGN { 1 0 10303 214 1 1 1 1 }'));

ENDSEC;
/* file written by CATIA V5R20 */
DATA;
#5=PRODUCT('THM MT30X DIA 30','','GERAETEMARKIERER',(#2)) ;
#2=PRODUCT_CONTEXT(' ',#1,'mechanical') ;
#1=APPLICATION_CONTEXT('automotive design') ;
#10=PRODUCT_DEFINITION('',' ',#6,#3) ;
#3=PRODUCT_DEFINITION_CONTEXT('part definition',#1,' ') ;
#11=PRODUCT_DEFINITION_SHAPE(' ',' ',#10) ;
#112=MECHANICAL_DESIGN_GEOMETRIC_PRESENTATION_REPRESENTATION(' ',(#30),#17) ;
#20=SHAPE_REPRESENTATION(' ',(#19),#17) ;
#19=AXIS2_PLACEMENT_3D(' ',#18,$,$) ;
#36=AXIS2_PLACEMENT_3D('Cylinder Axis2P3D',#33,#34,#35) ;
#49=AXIS2_PLACEMENT_3D('Circle Axis2P3D',#47,#48,$) ;
#63=AXIS2_PLACEMENT_3D('Circle Axis2P3D',#61,#62,$) ;
#75=AXIS2_PLACEMENT_3D('Circle Axis2P3D',#73,#74,$) ;
#80=AXIS2_PLACEMENT_3D('Circle Axis2P3D',#78,#79,$) ;
#93=AXIS2_PLACEMENT_3D('Plane Axis2P3D',#90,#91,#92) ;
#103=AXIS2_PLACEMENT_3D('Plane Axis2P3D',#100,#101,#102) ;
#18=CARTESIAN_POINT(' ',(0.,0.,0.)) ;
#33=CARTESIAN_POINT('Axis2P3D Location',(15.,15.,0.025)) ;
#38=CARTESIAN_POINT('Line Origine',(0.,15.,0.025)) ;
#42=CARTESIAN_POINT('Vertex',(0.,15.,0.)) ;
#44=CARTESIAN_POINT('Vertex',(0.,15.,0.05)) ;
#47=CARTESIAN_POINT('Axis2P3D Location',(15.,15.,0.)) ;
#51=CARTESIAN_POINT('Vertex',(30.,15.,5.20371305734E-031)) ;
#54=CARTESIAN_POINT('Line Origine',(30.,15.,0.025)) ;
#58=CARTESIAN_POINT('Vertex',(30.,15.,0.05)) ;
#61=CARTESIAN_POINT('Axis2P3D Location',(15.,15.,0.05)) ;
#73=CARTESIAN_POINT('Axis2P3D Location',(15.,15.,0.)) ;
#78=CARTESIAN_POINT('Axis2P3D Location',(15.,15.,0.05)) ;
#90=CARTESIAN_POINT('Axis2P3D Location',(15.,15.,0.)) ;
#100=CARTESIAN_POINT('Axis2P3D Location',(15.,15.,0.05)) ;
#34=DIRECTION('Axis2P3D Direction',(0.,6.12323399574E-017,1.)) ;
#35=DIRECTION('Axis2P3D XDirection',(-1.,0.,0.)) ;
#39=DIRECTION('Vector Direction',(0.,0.,1.)) ;
#48=DIRECTION('Axis2P3D Direction',(0.,6.12323399574E-017,1.)) ;
#55=DIRECTION('Vector Direction',(0.,0.,1.)) ;
#62=DIRECTION('Axis2P3D Direction',(0.,6.12323399574E-017,1.)) ;
#74=DIRECTION('Axis2P3D Direction',(0.,6.12323399574E-017,1.)) ;
#79=DIRECTION('Axis2P3D Direction',(0.,6.12323399574E-017,1.)) ;
#91=DIRECTION('Axis2P3D Direction',(0.,6.12323399574E-017,1.)) ;
#92=DIRECTION('Axis2P3D XDirection',(-1.,0.,0.)) ;
#101=DIRECTION('Axis2P3D Direction',(0.,6.12323399574E-017,1.)) ;
#102=DIRECTION('Axis2P3D XDirection',(-1.,0.,0.)) ;
#31=PRESENTATION_LAYER_ASSIGNMENT('1',' ',(#22)) ;
#8=PRODUCT_RELATED_PRODUCT_CATEGORY('part',$,(#5)) ;
#7=PRODUCT_CATEGORY('part','specification') ;
#30=STYLED_ITEM(' ',(#29),#22) ;
#29=PRESENTATION_STYLE_ASSIGNMENT((#28)) ;
#28=SURFACE_STYLE_USAGE(.BOTH.,#27) ;
#27=SURFACE_SIDE_STYLE(' ',(#26)) ;
#26=SURFACE_STYLE_FILL_AREA(#25) ;
#25=FILL_AREA_STYLE(' ',(#24)) ;
#24=FILL_AREA_STYLE_COLOUR(' ',#23) ;
#40=VECTOR('Line Direction',#39,1.) ;
#56=VECTOR('Line Direction',#55,1.) ;
#16=UNCERTAINTY_MEASURE_WITH_UNIT(LENGTH_MEASURE(0.005),#12,'distance_accuracy_value','CONFUSED CURVE UNCERTAINTY') ;
#111=SHAPE_REPRESENTATION_RELATIONSHIP(' ',' ',#20,#110) ;
#67=ORIENTED_EDGE('',*,*,#46,.F.) ;
#68=ORIENTED_EDGE('',*,*,#53,.T.) ;
#69=ORIENTED_EDGE('',*,*,#60,.T.) ;
#70=ORIENTED_EDGE('',*,*,#65,.F.) ;
#84=ORIENTED_EDGE('',*,*,#60,.F.) ;
#85=ORIENTED_EDGE('',*,*,#77,.T.) ;
#86=ORIENTED_EDGE('',*,*,#46,.T.) ;
#87=ORIENTED_EDGE('',*,*,#82,.F.) ;
#96=ORIENTED_EDGE('',*,*,#77,.F.) ;
#97=ORIENTED_EDGE('',*,*,#53,.F.) ;
#106=ORIENTED_EDGE('',*,*,#65,.T.) ;
#107=ORIENTED_EDGE('',*,*,#82,.T.) ;
#32=CLOSED_SHELL('Closed Shell',(#72,#89,#99,#109)) ;
#110=ADVANCED_BREP_SHAPE_REPRESENTATION('NONE',(#22),#17) ;
#72=ADVANCED_FACE('S3D gedreht',(#71),#37,.T.) ;
#89=ADVANCED_FACE('S3D gedreht',(#88),#37,.T.) ;
#99=ADVANCED_FACE('S3D gedreht',(#98),#94,.F.) ;
#109=ADVANCED_FACE('S3D gedreht',(#108),#104,.T.) ;
#4=APPLICATION_PROTOCOL_DEFINITION('international standard','automotive_design',2001,#1) ;
#22=MANIFOLD_SOLID_BREP('S3D gedreht',#32) ;
#50=CIRCLE('generated circle',#49,15.) ;
#64=CIRCLE('generated circle',#63,15.) ;
#76=CIRCLE('generated circle',#75,15.) ;
#81=CIRCLE('generated circle',#80,15.) ;
#37=CYLINDRICAL_SURFACE('generated cylinder',#36,15.) ;
#23=DRAUGHTING_PRE_DEFINED_COLOUR('white') ;
#46=EDGE_CURVE('',#43,#45,#41,.T.) ;
#53=EDGE_CURVE('',#43,#52,#50,.T.) ;
#60=EDGE_CURVE('',#52,#59,#57,.T.) ;
#65=EDGE_CURVE('',#45,#59,#64,.T.) ;
#77=EDGE_CURVE('',#52,#43,#76,.T.) ;
#82=EDGE_CURVE('',#59,#45,#81,.T.) ;
#66=EDGE_LOOP('',(#67,#68,#69,#70)) ;
#83=EDGE_LOOP('',(#84,#85,#86,#87)) ;
#95=EDGE_LOOP('',(#96,#97)) ;
#105=EDGE_LOOP('',(#106,#107)) ;
#71=FACE_OUTER_BOUND('',#66,.T.) ;
#88=FACE_OUTER_BOUND('',#83,.T.) ;
#98=FACE_OUTER_BOUND('',#95,.T.) ;
#108=FACE_OUTER_BOUND('',#105,.T.) ;
#41=LINE('Line',#38,#40) ;
#57=LINE('Line',#54,#56) ;
#94=PLANE('',#93) ;
#104=PLANE('',#103) ;
#14=PLANE_ANGLE_MEASURE_WITH_UNIT(PLANE_ANGLE_MEASURE(0.0174532925199),#13) ;
#9=PRODUCT_CATEGORY_RELATIONSHIP(' ',' ',#7,#8) ;
#6=PRODUCT_DEFINITION_FORMATION_WITH_SPECIFIED_SOURCE('',' ',#5,.BOUGHT.) ;
#21=SHAPE_DEFINITION_REPRESENTATION(#11,#20) ;
#43=VERTEX_POINT('',#42) ;
#45=VERTEX_POINT('',#44) ;
#52=VERTEX_POINT('',#51) ;
#59=VERTEX_POINT('',#58) ;
#12=(LENGTH_UNIT()NAMED_UNIT(*)SI_UNIT(.MILLI.,.METRE.)) ;
#13=(NAMED_UNIT(*)PLANE_ANGLE_UNIT()SI_UNIT($,.RADIAN.)) ;
#15=(NAMED_UNIT(*)SI_UNIT($,.STERADIAN.)SOLID_ANGLE_UNIT()) ;
#17=(GEOMETRIC_REPRESENTATION_CONTEXT(3)GLOBAL_UNCERTAINTY_ASSIGNED_CONTEXT((#16))GLOBAL_UNIT_ASSIGNED_CONTEXT((#12,#13,#15))REPRESENTATION_CONTEXT(' ',' ')) ;
ENDSEC;
END-ISO-10303-21;
