ISO-10303-21;
HEADER;
FILE_DESCRIPTION(('CATIA V5 STEP'),'2;1');

FILE_NAME ('401405_2_1065100000_1065100000_16351_WQL_2_WFF120_STP.stp','2006-02-15T09:48:59+00:00',('none'),('Weidmueller'),'CATIA Version 5 Release 12 (IN-9)','CATIA V5 STEP AP203','none');

FILE_SCHEMA(('CONFIG_CONTROL_DESIGN'));

ENDSEC;
DATA;
#5=PRODUCT('1065100000_16351_WQL_2_WFF120_STP','','',(#2)) ;
#1=APPLICATION_CONTEXT('configuration controlled 3D design of mechanical parts and assemblies') ;
#14=PRODUCT_DEFINITION(' ',' ',#6,#3) ;
#16=SECURITY_CLASSIFICATION(' ',' ',#15) ;
#15=SECURITY_CLASSIFICATION_LEVEL('unclassified') ;
#47=CARTESIAN_POINT(' ',(0.,0.,0.)) ;
#52=CARTESIAN_POINT('Axis2P3D Location',(59.5,15.,0.1)) ;
#57=CARTESIAN_POINT('Axis2P3D Location',(59.5,15.,0.)) ;
#61=CARTESIAN_POINT('Vertex',(54.6732959096,12.3631595377,-8.32667268469E-017)) ;
#63=CARTESIAN_POINT('Vertex',(64.3267040904,17.6368404623,-8.32667268469E-017)) ;
#66=CARTESIAN_POINT('Line Origine',(54.6732959096,12.3631595377,1.84499999998)) ;
#70=CARTESIAN_POINT('Vertex',(54.6732959096,12.3631595377,4.)) ;
#73=CARTESIAN_POINT('Axis2P3D Location',(59.5,15.,4.)) ;
#77=CARTESIAN_POINT('Vertex',(64.3267040904,17.6368404623,4.)) ;
#80=CARTESIAN_POINT('Line Origine',(64.3267040904,17.6368404623,1.84499999998)) ;
#92=CARTESIAN_POINT('Axis2P3D Location',(59.5,15.,0.)) ;
#97=CARTESIAN_POINT('Axis2P3D Location',(59.5,15.,4.)) ;
#109=CARTESIAN_POINT('Axis2P3D Location',(0.,0.,4.)) ;
#114=CARTESIAN_POINT('Line Origine',(38.5,0.,4.)) ;
#118=CARTESIAN_POINT('Vertex',(2.,0.,4.)) ;
#120=CARTESIAN_POINT('Vertex',(75.,0.,4.)) ;
#123=CARTESIAN_POINT('Line Origine',(76.,0.999999999984,4.)) ;
#127=CARTESIAN_POINT('Vertex',(77.,1.99999999997,4.)) ;
#130=CARTESIAN_POINT('Line Origine',(77.,15.,4.)) ;
#134=CARTESIAN_POINT('Vertex',(77.,28.,4.)) ;
#137=CARTESIAN_POINT('Line Origine',(76.,29.,4.)) ;
#141=CARTESIAN_POINT('Vertex',(75.,30.,4.)) ;
#144=CARTESIAN_POINT('Line Origine',(38.5,30.,4.)) ;
#148=CARTESIAN_POINT('Vertex',(2.,30.,4.)) ;
#151=CARTESIAN_POINT('Line Origine',(1.,29.,4.)) ;
#155=CARTESIAN_POINT('Vertex',(3.5527136788E-015,28.,4.)) ;
#158=CARTESIAN_POINT('Line Origine',(0.,15.,4.)) ;
#162=CARTESIAN_POINT('Vertex',(0.,1.99999999997,4.)) ;
#165=CARTESIAN_POINT('Line Origine',(1.,0.999999999984,4.)) ;
#180=CARTESIAN_POINT('Axis2P3D Location',(17.5,15.,4.)) ;
#184=CARTESIAN_POINT('Vertex',(22.3267040904,17.6368404623,4.)) ;
#186=CARTESIAN_POINT('Vertex',(12.6732959096,12.3631595377,4.)) ;
#189=CARTESIAN_POINT('Axis2P3D Location',(17.5,15.,4.)) ;
#203=CARTESIAN_POINT('Axis2P3D Location',(2.,0.,0.)) ;
#208=CARTESIAN_POINT('Line Origine',(2.,0.,2.)) ;
#212=CARTESIAN_POINT('Vertex',(2.,0.,0.)) ;
#215=CARTESIAN_POINT('Line Origine',(38.5,0.,0.)) ;
#219=CARTESIAN_POINT('Vertex',(75.,0.,0.)) ;
#222=CARTESIAN_POINT('Line Origine',(75.,0.,2.)) ;
#234=CARTESIAN_POINT('Axis2P3D Location',(75.,-6.99440505514E-015,0.)) ;
#239=CARTESIAN_POINT('Line Origine',(76.,0.999999999984,0.)) ;
#243=CARTESIAN_POINT('Vertex',(77.,1.99999999997,0.)) ;
#246=CARTESIAN_POINT('Line Origine',(77.,1.99999999997,2.)) ;
#258=CARTESIAN_POINT('Axis2P3D Location',(77.,1.99999999997,0.)) ;
#263=CARTESIAN_POINT('Line Origine',(77.,15.,0.)) ;
#267=CARTESIAN_POINT('Vertex',(77.,28.,0.)) ;
#270=CARTESIAN_POINT('Line Origine',(77.,28.,2.)) ;
#282=CARTESIAN_POINT('Axis2P3D Location',(75.,30.,0.)) ;
#287=CARTESIAN_POINT('Line Origine',(76.,29.,0.)) ;
#291=CARTESIAN_POINT('Vertex',(75.,30.,0.)) ;
#294=CARTESIAN_POINT('Line Origine',(75.,30.,2.)) ;
#306=CARTESIAN_POINT('Axis2P3D Location',(75.,30.,0.)) ;
#311=CARTESIAN_POINT('Line Origine',(38.5,30.,0.)) ;
#315=CARTESIAN_POINT('Vertex',(2.,30.,0.)) ;
#318=CARTESIAN_POINT('Line Origine',(2.,30.,2.)) ;
#330=CARTESIAN_POINT('Axis2P3D Location',(2.,30.,0.)) ;
#335=CARTESIAN_POINT('Line Origine',(1.,29.,0.)) ;
#339=CARTESIAN_POINT('Vertex',(3.5527136788E-015,28.,0.)) ;
#342=CARTESIAN_POINT('Line Origine',(1.7763568394E-015,28.,2.)) ;
#354=CARTESIAN_POINT('Axis2P3D Location',(0.,28.,0.)) ;
#359=CARTESIAN_POINT('Line Origine',(0.,15.,0.)) ;
#363=CARTESIAN_POINT('Vertex',(0.,1.99999999997,0.)) ;
#366=CARTESIAN_POINT('Line Origine',(0.,1.99999999997,2.)) ;
#378=CARTESIAN_POINT('Axis2P3D Location',(2.,-3.44169137634E-015,0.)) ;
#383=CARTESIAN_POINT('Line Origine',(1.,0.999999999984,0.)) ;
#395=CARTESIAN_POINT('Axis2P3D Location',(17.5,15.,0.1)) ;
#400=CARTESIAN_POINT('Axis2P3D Location',(17.5,15.,0.)) ;
#404=CARTESIAN_POINT('Vertex',(12.6732959096,12.3631595377,-8.32667268469E-017)) ;
#406=CARTESIAN_POINT('Vertex',(22.3267040904,17.6368404623,-8.32667268469E-017)) ;
#409=CARTESIAN_POINT('Line Origine',(12.6732959096,12.3631595377,1.84499999998)) ;
#414=CARTESIAN_POINT('Line Origine',(22.3267040904,17.6368404623,1.84499999998)) ;
#426=CARTESIAN_POINT('Axis2P3D Location',(17.5,15.,0.)) ;
#438=CARTESIAN_POINT('Axis2P3D Location',(0.,0.,0.)) ;
#465=CARTESIAN_POINT('K\X2\f6\X0\rper.2',(17.5,15.,4.)) ;
#469=CARTESIAN_POINT('K\X2\f6\X0\rper.2',(59.5,15.,4.)) ;
#53=DIRECTION('Axis2P3D Direction',(0.,0.,1.)) ;
#54=DIRECTION('Axis2P3D XDirection',(0.87758256189,0.479425538604,0.)) ;
#58=DIRECTION('Axis2P3D Direction',(0.,0.,1.)) ;
#67=DIRECTION('Vector Direction',(0.,0.,1.)) ;
#74=DIRECTION('Axis2P3D Direction',(0.,0.,1.)) ;
#81=DIRECTION('Vector Direction',(0.,0.,1.)) ;
#93=DIRECTION('Axis2P3D Direction',(0.,0.,1.)) ;
#98=DIRECTION('Axis2P3D Direction',(0.,0.,1.)) ;
#110=DIRECTION('Axis2P3D Direction',(0.,0.,1.)) ;
#111=DIRECTION('Axis2P3D XDirection',(1.,0.,0.)) ;
#115=DIRECTION('Vector Direction',(1.,0.,0.)) ;
#124=DIRECTION('Vector Direction',(0.707106781192,0.707106781181,0.)) ;
#131=DIRECTION('Vector Direction',(0.,1.,0.)) ;
#138=DIRECTION('Vector Direction',(0.707106781192,-0.707106781181,0.)) ;
#145=DIRECTION('Vector Direction',(-1.,0.,0.)) ;
#152=DIRECTION('Vector Direction',(-0.707106781192,-0.707106781181,0.)) ;
#159=DIRECTION('Vector Direction',(0.,-1.,0.)) ;
#166=DIRECTION('Vector Direction',(-0.707106781192,0.707106781181,0.)) ;
#181=DIRECTION('Axis2P3D Direction',(0.,0.,1.)) ;
#190=DIRECTION('Axis2P3D Direction',(0.,0.,1.)) ;
#204=DIRECTION('Axis2P3D Direction',(0.,-1.,0.)) ;
#205=DIRECTION('Axis2P3D XDirection',(1.,0.,0.)) ;
#209=DIRECTION('Vector Direction',(0.,0.,1.)) ;
#216=DIRECTION('Vector Direction',(1.,0.,0.)) ;
#223=DIRECTION('Vector Direction',(0.,0.,1.)) ;
#235=DIRECTION('Axis2P3D Direction',(0.707106781181,-0.707106781192,0.)) ;
#236=DIRECTION('Axis2P3D XDirection',(0.707106781192,0.707106781181,0.)) ;
#240=DIRECTION('Vector Direction',(0.707106781192,0.707106781181,0.)) ;
#247=DIRECTION('Vector Direction',(0.,0.,1.)) ;
#259=DIRECTION('Axis2P3D Direction',(1.,0.,0.)) ;
#260=DIRECTION('Axis2P3D XDirection',(0.,1.,0.)) ;
#264=DIRECTION('Vector Direction',(0.,1.,0.)) ;
#271=DIRECTION('Vector Direction',(0.,0.,1.)) ;
#283=DIRECTION('Axis2P3D Direction',(-0.707106781181,-0.707106781192,0.)) ;
#284=DIRECTION('Axis2P3D XDirection',(0.707106781192,-0.707106781181,0.)) ;
#288=DIRECTION('Vector Direction',(0.707106781192,-0.707106781181,0.)) ;
#295=DIRECTION('Vector Direction',(0.,0.,1.)) ;
#307=DIRECTION('Axis2P3D Direction',(0.,1.,0.)) ;
#308=DIRECTION('Axis2P3D XDirection',(-1.,0.,0.)) ;
#312=DIRECTION('Vector Direction',(-1.,0.,0.)) ;
#319=DIRECTION('Vector Direction',(0.,0.,1.)) ;
#331=DIRECTION('Axis2P3D Direction',(-0.707106781181,0.707106781192,0.)) ;
#332=DIRECTION('Axis2P3D XDirection',(-0.707106781192,-0.707106781181,0.)) ;
#336=DIRECTION('Vector Direction',(-0.707106781192,-0.707106781181,0.)) ;
#343=DIRECTION('Vector Direction',(0.,0.,1.)) ;
#355=DIRECTION('Axis2P3D Direction',(-1.,0.,0.)) ;
#356=DIRECTION('Axis2P3D XDirection',(0.,-1.,0.)) ;
#360=DIRECTION('Vector Direction',(0.,-1.,0.)) ;
#367=DIRECTION('Vector Direction',(0.,0.,1.)) ;
#379=DIRECTION('Axis2P3D Direction',(0.707106781181,0.707106781192,0.)) ;
#380=DIRECTION('Axis2P3D XDirection',(-0.707106781192,0.707106781181,0.)) ;
#384=DIRECTION('Vector Direction',(-0.707106781192,0.707106781181,0.)) ;
#396=DIRECTION('Axis2P3D Direction',(0.,0.,1.)) ;
#397=DIRECTION('Axis2P3D XDirection',(0.87758256189,0.479425538604,0.)) ;
#401=DIRECTION('Axis2P3D Direction',(0.,0.,1.)) ;
#410=DIRECTION('Vector Direction',(0.,0.,1.)) ;
#415=DIRECTION('Vector Direction',(0.,0.,1.)) ;
#427=DIRECTION('Axis2P3D Direction',(0.,0.,1.)) ;
#439=DIRECTION('Axis2P3D Direction',(0.,0.,1.)) ;
#440=DIRECTION('Axis2P3D XDirection',(1.,0.,0.)) ;
#48=AXIS2_PLACEMENT_3D(' ',#47,$,$) ;
#55=AXIS2_PLACEMENT_3D('Cylinder Axis2P3D',#52,#53,#54) ;
#59=AXIS2_PLACEMENT_3D('Circle Axis2P3D',#57,#58,$) ;
#75=AXIS2_PLACEMENT_3D('Circle Axis2P3D',#73,#74,$) ;
#94=AXIS2_PLACEMENT_3D('Circle Axis2P3D',#92,#93,$) ;
#99=AXIS2_PLACEMENT_3D('Circle Axis2P3D',#97,#98,$) ;
#112=AXIS2_PLACEMENT_3D('Plane Axis2P3D',#109,#110,#111) ;
#182=AXIS2_PLACEMENT_3D('Circle Axis2P3D',#180,#181,$) ;
#191=AXIS2_PLACEMENT_3D('Circle Axis2P3D',#189,#190,$) ;
#206=AXIS2_PLACEMENT_3D('Plane Axis2P3D',#203,#204,#205) ;
#237=AXIS2_PLACEMENT_3D('Plane Axis2P3D',#234,#235,#236) ;
#261=AXIS2_PLACEMENT_3D('Plane Axis2P3D',#258,#259,#260) ;
#285=AXIS2_PLACEMENT_3D('Plane Axis2P3D',#282,#283,#284) ;
#309=AXIS2_PLACEMENT_3D('Plane Axis2P3D',#306,#307,#308) ;
#333=AXIS2_PLACEMENT_3D('Plane Axis2P3D',#330,#331,#332) ;
#357=AXIS2_PLACEMENT_3D('Plane Axis2P3D',#354,#355,#356) ;
#381=AXIS2_PLACEMENT_3D('Plane Axis2P3D',#378,#379,#380) ;
#398=AXIS2_PLACEMENT_3D('Cylinder Axis2P3D',#395,#396,#397) ;
#402=AXIS2_PLACEMENT_3D('Circle Axis2P3D',#400,#401,$) ;
#428=AXIS2_PLACEMENT_3D('Circle Axis2P3D',#426,#427,$) ;
#441=AXIS2_PLACEMENT_3D('Plane Axis2P3D',#438,#439,#440) ;
#40=PRODUCT_DEFINITION_SHAPE(' ',' ',#14) ;
#31=APPROVAL_PERSON_ORGANIZATION(#25,#21,#19) ;
#25=PERSON_AND_ORGANIZATION(#22,#23) ;
#22=PERSON(' ',' ',' ',$,$,$) ;
#23=ORGANIZATION(' ',' ',' ') ;
#21=APPROVAL(#20,' ') ;
#20=APPROVAL_STATUS('not_yet_approved') ;
#19=APPROVAL_ROLE('APPROVER') ;
#13=DATE_AND_TIME(#11,#12) ;
#12=LOCAL_TIME(10,48,59.,#10) ;
#10=COORDINATED_UNIVERSAL_TIME_OFFSET(0,0,.AHEAD.) ;
#86=ORIENTED_EDGE('',*,*,#65,.F.) ;
#87=ORIENTED_EDGE('',*,*,#72,.F.) ;
#88=ORIENTED_EDGE('',*,*,#79,.T.) ;
#89=ORIENTED_EDGE('',*,*,#84,.T.) ;
#103=ORIENTED_EDGE('',*,*,#96,.F.) ;
#104=ORIENTED_EDGE('',*,*,#84,.F.) ;
#105=ORIENTED_EDGE('',*,*,#101,.T.) ;
#106=ORIENTED_EDGE('',*,*,#72,.T.) ;
#171=ORIENTED_EDGE('',*,*,#122,.T.) ;
#172=ORIENTED_EDGE('',*,*,#129,.T.) ;
#173=ORIENTED_EDGE('',*,*,#136,.T.) ;
#174=ORIENTED_EDGE('',*,*,#143,.T.) ;
#175=ORIENTED_EDGE('',*,*,#150,.T.) ;
#176=ORIENTED_EDGE('',*,*,#157,.T.) ;
#177=ORIENTED_EDGE('',*,*,#164,.T.) ;
#178=ORIENTED_EDGE('',*,*,#169,.T.) ;
#195=ORIENTED_EDGE('',*,*,#188,.F.) ;
#196=ORIENTED_EDGE('',*,*,#193,.F.) ;
#199=ORIENTED_EDGE('',*,*,#101,.F.) ;
#200=ORIENTED_EDGE('',*,*,#79,.F.) ;
#228=ORIENTED_EDGE('',*,*,#214,.F.) ;
#229=ORIENTED_EDGE('',*,*,#221,.T.) ;
#230=ORIENTED_EDGE('',*,*,#226,.T.) ;
#231=ORIENTED_EDGE('',*,*,#122,.F.) ;
#252=ORIENTED_EDGE('',*,*,#226,.F.) ;
#253=ORIENTED_EDGE('',*,*,#245,.T.) ;
#254=ORIENTED_EDGE('',*,*,#250,.T.) ;
#255=ORIENTED_EDGE('',*,*,#129,.F.) ;
#276=ORIENTED_EDGE('',*,*,#250,.F.) ;
#277=ORIENTED_EDGE('',*,*,#269,.T.) ;
#278=ORIENTED_EDGE('',*,*,#274,.T.) ;
#279=ORIENTED_EDGE('',*,*,#136,.F.) ;
#300=ORIENTED_EDGE('',*,*,#274,.F.) ;
#301=ORIENTED_EDGE('',*,*,#293,.T.) ;
#302=ORIENTED_EDGE('',*,*,#298,.T.) ;
#303=ORIENTED_EDGE('',*,*,#143,.F.) ;
#324=ORIENTED_EDGE('',*,*,#298,.F.) ;
#325=ORIENTED_EDGE('',*,*,#317,.T.) ;
#326=ORIENTED_EDGE('',*,*,#322,.T.) ;
#327=ORIENTED_EDGE('',*,*,#150,.F.) ;
#348=ORIENTED_EDGE('',*,*,#322,.F.) ;
#349=ORIENTED_EDGE('',*,*,#341,.T.) ;
#350=ORIENTED_EDGE('',*,*,#346,.T.) ;
#351=ORIENTED_EDGE('',*,*,#157,.F.) ;
#372=ORIENTED_EDGE('',*,*,#346,.F.) ;
#373=ORIENTED_EDGE('',*,*,#365,.T.) ;
#374=ORIENTED_EDGE('',*,*,#370,.T.) ;
#375=ORIENTED_EDGE('',*,*,#164,.F.) ;
#389=ORIENTED_EDGE('',*,*,#370,.F.) ;
#390=ORIENTED_EDGE('',*,*,#387,.T.) ;
#391=ORIENTED_EDGE('',*,*,#214,.T.) ;
#392=ORIENTED_EDGE('',*,*,#169,.F.) ;
#420=ORIENTED_EDGE('',*,*,#408,.F.) ;
#421=ORIENTED_EDGE('',*,*,#413,.F.) ;
#422=ORIENTED_EDGE('',*,*,#193,.T.) ;
#423=ORIENTED_EDGE('',*,*,#418,.T.) ;
#432=ORIENTED_EDGE('',*,*,#430,.F.) ;
#433=ORIENTED_EDGE('',*,*,#418,.F.) ;
#434=ORIENTED_EDGE('',*,*,#188,.T.) ;
#435=ORIENTED_EDGE('',*,*,#413,.T.) ;
#444=ORIENTED_EDGE('',*,*,#387,.F.) ;
#445=ORIENTED_EDGE('',*,*,#365,.F.) ;
#446=ORIENTED_EDGE('',*,*,#341,.F.) ;
#447=ORIENTED_EDGE('',*,*,#317,.F.) ;
#448=ORIENTED_EDGE('',*,*,#293,.F.) ;
#449=ORIENTED_EDGE('',*,*,#269,.F.) ;
#450=ORIENTED_EDGE('',*,*,#245,.F.) ;
#451=ORIENTED_EDGE('',*,*,#221,.F.) ;
#454=ORIENTED_EDGE('',*,*,#408,.T.) ;
#455=ORIENTED_EDGE('',*,*,#430,.T.) ;
#458=ORIENTED_EDGE('',*,*,#65,.T.) ;
#459=ORIENTED_EDGE('',*,*,#96,.T.) ;
#197=FACE_BOUND('',#194,.T.) ;
#201=FACE_BOUND('',#198,.T.) ;
#456=FACE_BOUND('',#453,.T.) ;
#460=FACE_BOUND('',#457,.T.) ;
#51=CLOSED_SHELL('Closed Shell',(#91,#108,#202,#233,#257,#281,#305,#329,#353,#377,#394,#425,#437,#461)) ;
#68=VECTOR('Line Direction',#67,1.) ;
#82=VECTOR('Line Direction',#81,1.) ;
#116=VECTOR('Line Direction',#115,1.) ;
#125=VECTOR('Line Direction',#124,1.) ;
#132=VECTOR('Line Direction',#131,1.) ;
#139=VECTOR('Line Direction',#138,1.) ;
#146=VECTOR('Line Direction',#145,1.) ;
#153=VECTOR('Line Direction',#152,1.) ;
#160=VECTOR('Line Direction',#159,1.) ;
#167=VECTOR('Line Direction',#166,1.) ;
#210=VECTOR('Line Direction',#209,1.) ;
#217=VECTOR('Line Direction',#216,1.) ;
#224=VECTOR('Line Direction',#223,1.) ;
#241=VECTOR('Line Direction',#240,1.) ;
#248=VECTOR('Line Direction',#247,1.) ;
#265=VECTOR('Line Direction',#264,1.) ;
#272=VECTOR('Line Direction',#271,1.) ;
#289=VECTOR('Line Direction',#288,1.) ;
#296=VECTOR('Line Direction',#295,1.) ;
#313=VECTOR('Line Direction',#312,1.) ;
#320=VECTOR('Line Direction',#319,1.) ;
#337=VECTOR('Line Direction',#336,1.) ;
#344=VECTOR('Line Direction',#343,1.) ;
#361=VECTOR('Line Direction',#360,1.) ;
#368=VECTOR('Line Direction',#367,1.) ;
#385=VECTOR('Line Direction',#384,1.) ;
#411=VECTOR('Line Direction',#410,1.) ;
#416=VECTOR('Line Direction',#415,1.) ;
#463=ADVANCED_BREP_SHAPE_REPRESENTATION('NONE',(#462),#46) ;
#49=SHAPE_REPRESENTATION(' ',(#48),#46) ;
#91=ADVANCED_FACE('',(#90),#56,.F.) ;
#108=ADVANCED_FACE('',(#107),#56,.F.) ;
#202=ADVANCED_FACE('',(#179,#197,#201),#113,.T.) ;
#233=ADVANCED_FACE('',(#232),#207,.T.) ;
#257=ADVANCED_FACE('',(#256),#238,.T.) ;
#281=ADVANCED_FACE('',(#280),#262,.T.) ;
#305=ADVANCED_FACE('',(#304),#286,.F.) ;
#329=ADVANCED_FACE('',(#328),#310,.T.) ;
#353=ADVANCED_FACE('',(#352),#334,.T.) ;
#377=ADVANCED_FACE('',(#376),#358,.T.) ;
#394=ADVANCED_FACE('',(#393),#382,.F.) ;
#425=ADVANCED_FACE('',(#424),#399,.F.) ;
#437=ADVANCED_FACE('',(#436),#399,.F.) ;
#461=ADVANCED_FACE('',(#452,#456,#460),#442,.F.) ;
#4=APPLICATION_PROTOCOL_DEFINITION('international standard','config_control_design',1994,#1) ;
#32=APPROVAL_DATE_TIME(#13,#21) ;
#462=MANIFOLD_SOLID_BREP('K\X2\f6\X0\rper.2',#51) ;
#11=CALENDAR_DATE(2006,15,2) ;
#30=CC_DESIGN_APPROVAL(#21,(#16,#6,#14)) ;
#18=CC_DESIGN_DATE_AND_TIME_ASSIGNMENT(#13,#17,(#16)) ;
#29=CC_DESIGN_DATE_AND_TIME_ASSIGNMENT(#13,#28,(#14)) ;
#17=DATE_TIME_ROLE('classification_date') ;
#28=DATE_TIME_ROLE('creation_date') ;
#27=CC_DESIGN_PERSON_AND_ORGANIZATION_ASSIGNMENT(#25,#26,(#16)) ;
#33=CC_DESIGN_PERSON_AND_ORGANIZATION_ASSIGNMENT(#25,#34,(#6)) ;
#35=CC_DESIGN_PERSON_AND_ORGANIZATION_ASSIGNMENT(#25,#36,(#6,#14)) ;
#37=CC_DESIGN_PERSON_AND_ORGANIZATION_ASSIGNMENT(#25,#38,(#5)) ;
#26=PERSON_AND_ORGANIZATION_ROLE('classification_officer') ;
#34=PERSON_AND_ORGANIZATION_ROLE('design_supplier') ;
#36=PERSON_AND_ORGANIZATION_ROLE('creator') ;
#38=PERSON_AND_ORGANIZATION_ROLE('design_owner') ;
#39=CC_DESIGN_SECURITY_CLASSIFICATION(#16,(#6)) ;
#60=CIRCLE('generated circle',#59,5.5) ;
#76=CIRCLE('generated circle',#75,5.5) ;
#95=CIRCLE('generated circle',#94,5.5) ;
#100=CIRCLE('generated circle',#99,5.5) ;
#183=CIRCLE('generated circle',#182,5.5) ;
#192=CIRCLE('generated circle',#191,5.5) ;
#403=CIRCLE('generated circle',#402,5.5) ;
#429=CIRCLE('generated circle',#428,5.5) ;
#464=SHAPE_REPRESENTATION_RELATIONSHIP(' ',' ',#49,#463) ;
#468=SHAPE_REPRESENTATION_RELATIONSHIP(' ',' ',#49,#466) ;
#56=CYLINDRICAL_SURFACE('generated cylinder',#55,5.5) ;
#399=CYLINDRICAL_SURFACE('generated cylinder',#398,5.5) ;
#3=DESIGN_CONTEXT(' ',#1,'design') ;
#65=EDGE_CURVE('',#62,#64,#60,.T.) ;
#72=EDGE_CURVE('',#71,#62,#69,.F.) ;
#79=EDGE_CURVE('',#71,#78,#76,.T.) ;
#84=EDGE_CURVE('',#78,#64,#83,.F.) ;
#96=EDGE_CURVE('',#64,#62,#95,.T.) ;
#101=EDGE_CURVE('',#78,#71,#100,.T.) ;
#122=EDGE_CURVE('',#119,#121,#117,.T.) ;
#129=EDGE_CURVE('',#121,#128,#126,.T.) ;
#136=EDGE_CURVE('',#128,#135,#133,.T.) ;
#143=EDGE_CURVE('',#135,#142,#140,.F.) ;
#150=EDGE_CURVE('',#142,#149,#147,.T.) ;
#157=EDGE_CURVE('',#149,#156,#154,.T.) ;
#164=EDGE_CURVE('',#156,#163,#161,.T.) ;
#169=EDGE_CURVE('',#163,#119,#168,.F.) ;
#188=EDGE_CURVE('',#185,#187,#183,.T.) ;
#193=EDGE_CURVE('',#187,#185,#192,.T.) ;
#214=EDGE_CURVE('',#213,#119,#211,.T.) ;
#221=EDGE_CURVE('',#213,#220,#218,.T.) ;
#226=EDGE_CURVE('',#220,#121,#225,.T.) ;
#245=EDGE_CURVE('',#220,#244,#242,.T.) ;
#250=EDGE_CURVE('',#244,#128,#249,.T.) ;
#269=EDGE_CURVE('',#244,#268,#266,.T.) ;
#274=EDGE_CURVE('',#268,#135,#273,.T.) ;
#293=EDGE_CURVE('',#268,#292,#290,.F.) ;
#298=EDGE_CURVE('',#292,#142,#297,.T.) ;
#317=EDGE_CURVE('',#292,#316,#314,.T.) ;
#322=EDGE_CURVE('',#316,#149,#321,.T.) ;
#341=EDGE_CURVE('',#316,#340,#338,.T.) ;
#346=EDGE_CURVE('',#340,#156,#345,.T.) ;
#365=EDGE_CURVE('',#340,#364,#362,.T.) ;
#370=EDGE_CURVE('',#364,#163,#369,.T.) ;
#387=EDGE_CURVE('',#364,#213,#386,.F.) ;
#408=EDGE_CURVE('',#405,#407,#403,.T.) ;
#413=EDGE_CURVE('',#187,#405,#412,.F.) ;
#418=EDGE_CURVE('',#185,#407,#417,.F.) ;
#430=EDGE_CURVE('',#407,#405,#429,.T.) ;
#85=EDGE_LOOP('',(#86,#87,#88,#89)) ;
#102=EDGE_LOOP('',(#103,#104,#105,#106)) ;
#170=EDGE_LOOP('',(#171,#172,#173,#174,#175,#176,#177,#178)) ;
#194=EDGE_LOOP('',(#195,#196)) ;
#198=EDGE_LOOP('',(#199,#200)) ;
#227=EDGE_LOOP('',(#228,#229,#230,#231)) ;
#251=EDGE_LOOP('',(#252,#253,#254,#255)) ;
#275=EDGE_LOOP('',(#276,#277,#278,#279)) ;
#299=EDGE_LOOP('',(#300,#301,#302,#303)) ;
#323=EDGE_LOOP('',(#324,#325,#326,#327)) ;
#347=EDGE_LOOP('',(#348,#349,#350,#351)) ;
#371=EDGE_LOOP('',(#372,#373,#374,#375)) ;
#388=EDGE_LOOP('',(#389,#390,#391,#392)) ;
#419=EDGE_LOOP('',(#420,#421,#422,#423)) ;
#431=EDGE_LOOP('',(#432,#433,#434,#435)) ;
#443=EDGE_LOOP('',(#444,#445,#446,#447,#448,#449,#450,#451)) ;
#453=EDGE_LOOP('',(#454,#455)) ;
#457=EDGE_LOOP('',(#458,#459)) ;
#90=FACE_OUTER_BOUND('',#85,.T.) ;
#107=FACE_OUTER_BOUND('',#102,.T.) ;
#179=FACE_OUTER_BOUND('',#170,.T.) ;
#232=FACE_OUTER_BOUND('',#227,.T.) ;
#256=FACE_OUTER_BOUND('',#251,.T.) ;
#280=FACE_OUTER_BOUND('',#275,.T.) ;
#304=FACE_OUTER_BOUND('',#299,.T.) ;
#328=FACE_OUTER_BOUND('',#323,.T.) ;
#352=FACE_OUTER_BOUND('',#347,.T.) ;
#376=FACE_OUTER_BOUND('',#371,.T.) ;
#393=FACE_OUTER_BOUND('',#388,.T.) ;
#424=FACE_OUTER_BOUND('',#419,.T.) ;
#436=FACE_OUTER_BOUND('',#431,.T.) ;
#452=FACE_OUTER_BOUND('',#443,.T.) ;
#467=GEOMETRIC_SET('NONE',(#465,#469)) ;
#466=GEOMETRICALLY_BOUNDED_SURFACE_SHAPE_REPRESENTATION('NONE',(#467),#46) ;
#45=UNCERTAINTY_MEASURE_WITH_UNIT(LENGTH_MEASURE(0.005),#41,'TOL_CRV','CONFUSED CURVE UNCERTAINTY') ;
#69=LINE('Line',#66,#68) ;
#83=LINE('Line',#80,#82) ;
#117=LINE('Line',#114,#116) ;
#126=LINE('Line',#123,#125) ;
#133=LINE('Line',#130,#132) ;
#140=LINE('Line',#137,#139) ;
#147=LINE('Line',#144,#146) ;
#154=LINE('Line',#151,#153) ;
#161=LINE('Line',#158,#160) ;
#168=LINE('Line',#165,#167) ;
#211=LINE('Line',#208,#210) ;
#218=LINE('Line',#215,#217) ;
#225=LINE('Line',#222,#224) ;
#242=LINE('Line',#239,#241) ;
#249=LINE('Line',#246,#248) ;
#266=LINE('Line',#263,#265) ;
#273=LINE('Line',#270,#272) ;
#290=LINE('Line',#287,#289) ;
#297=LINE('Line',#294,#296) ;
#314=LINE('Line',#311,#313) ;
#321=LINE('Line',#318,#320) ;
#338=LINE('Line',#335,#337) ;
#345=LINE('Line',#342,#344) ;
#362=LINE('Line',#359,#361) ;
#369=LINE('Line',#366,#368) ;
#386=LINE('Line',#383,#385) ;
#412=LINE('Line',#409,#411) ;
#417=LINE('Line',#414,#416) ;
#2=MECHANICAL_CONTEXT(' ',#1,'mechanical') ;
#24=PERSONAL_ADDRESS(' ',' ',' ',' ',' ',' ',' ',' ',' ',' ',' ',' ',(#22),' ') ;
#113=PLANE('Plane',#112) ;
#207=PLANE('Plane',#206) ;
#238=PLANE('Plane',#237) ;
#262=PLANE('Plane',#261) ;
#286=PLANE('Plane',#285) ;
#310=PLANE('Plane',#309) ;
#334=PLANE('Plane',#333) ;
#358=PLANE('Plane',#357) ;
#382=PLANE('Plane',#381) ;
#442=PLANE('Plane',#441) ;
#43=PLANE_ANGLE_MEASURE_WITH_UNIT(PLANE_ANGLE_MEASURE(0.0174532925199),#42) ;
#7=PRODUCT_CATEGORY('part',$) ;
#9=PRODUCT_CATEGORY_RELATIONSHIP(' ',' ',#7,#8) ;
#6=PRODUCT_DEFINITION_FORMATION_WITH_SPECIFIED_SOURCE('',' ',#5,.NOT_KNOWN.) ;
#8=PRODUCT_RELATED_PRODUCT_CATEGORY('detail',$,(#5)) ;
#50=SHAPE_DEFINITION_REPRESENTATION(#40,#49) ;
#62=VERTEX_POINT('',#61) ;
#64=VERTEX_POINT('',#63) ;
#71=VERTEX_POINT('',#70) ;
#78=VERTEX_POINT('',#77) ;
#119=VERTEX_POINT('',#118) ;
#121=VERTEX_POINT('',#120) ;
#128=VERTEX_POINT('',#127) ;
#135=VERTEX_POINT('',#134) ;
#142=VERTEX_POINT('',#141) ;
#149=VERTEX_POINT('',#148) ;
#156=VERTEX_POINT('',#155) ;
#163=VERTEX_POINT('',#162) ;
#185=VERTEX_POINT('',#184) ;
#187=VERTEX_POINT('',#186) ;
#213=VERTEX_POINT('',#212) ;
#220=VERTEX_POINT('',#219) ;
#244=VERTEX_POINT('',#243) ;
#268=VERTEX_POINT('',#267) ;
#292=VERTEX_POINT('',#291) ;
#316=VERTEX_POINT('',#315) ;
#340=VERTEX_POINT('',#339) ;
#364=VERTEX_POINT('',#363) ;
#405=VERTEX_POINT('',#404) ;
#407=VERTEX_POINT('',#406) ;
#41=(LENGTH_UNIT()NAMED_UNIT(*)SI_UNIT(.MILLI.,.METRE.)) ;
#42=(NAMED_UNIT(*)PLANE_ANGLE_UNIT()SI_UNIT($,.RADIAN.)) ;
#44=(NAMED_UNIT(*)SI_UNIT($,.STERADIAN.)SOLID_ANGLE_UNIT()) ;
#46=(GEOMETRIC_REPRESENTATION_CONTEXT(3)GLOBAL_UNCERTAINTY_ASSIGNED_CONTEXT((#45))GLOBAL_UNIT_ASSIGNED_CONTEXT((#41,#42,#44))REPRESENTATION_CONTEXT(' ',' ')) ;
ENDSEC;
END-ISO-10303-21;
