ISO-10303-21;
HEADER;
FILE_DESCRIPTION(('CATIA V5R24 STEP','CAx-IF Rec.Pracs.--- Model Styling and Organization---1.2---2011-12-15'),'2;1');

FILE_NAME ('D1456637_0_1812740000_1812740000.stp','2016-12-22T10:26:38+00:00',('none'),('Weidmueller'),'CATIA Version 5-6 Release 2014 SP4 HF52','CATIA V5 STEP AP214','none');

FILE_SCHEMA(('AUTOMOTIVE_DESIGN { 1 0 10303 214 1 1 1 1 }'));

ENDSEC;
DATA;
#5=PRODUCT('v5-standard_part','','',(#2)) ;
#2=PRODUCT_CONTEXT(' ',#1,'mechanical') ;
#1=APPLICATION_CONTEXT('automotive design') ;
#10=PRODUCT_DEFINITION('',' ',#6,#3) ;
#3=PRODUCT_DEFINITION_CONTEXT('part definition',#1,' ') ;
#11=PRODUCT_DEFINITION_SHAPE(' ',' ',#10) ;
#394=MECHANICAL_DESIGN_GEOMETRIC_PRESENTATION_REPRESENTATION(' ',(#46),#16) ;
#19=SHAPE_REPRESENTATION(' ',(#18),#16) ;
#18=AXIS2_PLACEMENT_3D(' ',#17,$,$) ;
#24=AXIS2_PLACEMENT_3D('Plane Axis2P3D',#21,#22,#23) ;
#31=AXIS2_PLACEMENT_3D('Plane Axis2P3D',#28,#29,#30) ;
#36=AXIS2_PLACEMENT_3D('Plane Axis2P3D',#33,#34,#35) ;
#52=AXIS2_PLACEMENT_3D('Plane Axis2P3D',#49,#50,#51) ;
#92=AXIS2_PLACEMENT_3D('Plane Axis2P3D',#89,#90,#91) ;
#123=AXIS2_PLACEMENT_3D('Plane Axis2P3D',#120,#121,#122) ;
#154=AXIS2_PLACEMENT_3D('Plane Axis2P3D',#151,#152,#153) ;
#176=AXIS2_PLACEMENT_3D('Plane Axis2P3D',#173,#174,#175) ;
#186=AXIS2_PLACEMENT_3D('Circle Axis2P3D',#184,#185,$) ;
#195=AXIS2_PLACEMENT_3D('Circle Axis2P3D',#193,#194,$) ;
#204=AXIS2_PLACEMENT_3D('Circle Axis2P3D',#202,#203,$) ;
#213=AXIS2_PLACEMENT_3D('Circle Axis2P3D',#211,#212,$) ;
#222=AXIS2_PLACEMENT_3D('Circle Axis2P3D',#220,#221,$) ;
#231=AXIS2_PLACEMENT_3D('Circle Axis2P3D',#229,#230,$) ;
#242=AXIS2_PLACEMENT_3D('Plane Axis2P3D',#239,#240,#241) ;
#252=AXIS2_PLACEMENT_3D('Circle Axis2P3D',#250,#251,$) ;
#261=AXIS2_PLACEMENT_3D('Circle Axis2P3D',#259,#260,$) ;
#270=AXIS2_PLACEMENT_3D('Circle Axis2P3D',#268,#269,$) ;
#279=AXIS2_PLACEMENT_3D('Circle Axis2P3D',#277,#278,$) ;
#288=AXIS2_PLACEMENT_3D('Circle Axis2P3D',#286,#287,$) ;
#297=AXIS2_PLACEMENT_3D('Circle Axis2P3D',#295,#296,$) ;
#308=AXIS2_PLACEMENT_3D('Cylinder Axis2P3D',#305,#306,#307) ;
#337=AXIS2_PLACEMENT_3D('Cylinder Axis2P3D',#334,#335,#336) ;
#366=AXIS2_PLACEMENT_3D('Cylinder Axis2P3D',#363,#364,#365) ;
#17=CARTESIAN_POINT(' ',(0.,0.,0.)) ;
#21=CARTESIAN_POINT('Axis2P3D Location',(0.,0.,0.)) ;
#28=CARTESIAN_POINT('Axis2P3D Location',(0.,0.,0.)) ;
#33=CARTESIAN_POINT('Axis2P3D Location',(0.,0.,0.)) ;
#49=CARTESIAN_POINT('Axis2P3D Location',(0.,0.,4.)) ;
#54=CARTESIAN_POINT('Line Origine',(19.,0.,0.)) ;
#58=CARTESIAN_POINT('Vertex',(0.,0.,0.)) ;
#60=CARTESIAN_POINT('Vertex',(38.,0.,0.)) ;
#63=CARTESIAN_POINT('Line Origine',(38.,0.,2.)) ;
#67=CARTESIAN_POINT('Vertex',(38.,0.,4.)) ;
#70=CARTESIAN_POINT('Line Origine',(19.,0.,4.)) ;
#74=CARTESIAN_POINT('Vertex',(0.,0.,4.)) ;
#77=CARTESIAN_POINT('Line Origine',(0.,0.,2.)) ;
#89=CARTESIAN_POINT('Axis2P3D Location',(38.,0.,4.)) ;
#94=CARTESIAN_POINT('Line Origine',(38.,6.,0.)) ;
#98=CARTESIAN_POINT('Vertex',(38.,12.,0.)) ;
#101=CARTESIAN_POINT('Line Origine',(38.,12.,2.)) ;
#105=CARTESIAN_POINT('Vertex',(38.,12.,4.)) ;
#108=CARTESIAN_POINT('Line Origine',(38.,6.,4.)) ;
#120=CARTESIAN_POINT('Axis2P3D Location',(0.,12.,4.)) ;
#125=CARTESIAN_POINT('Line Origine',(19.,12.,0.)) ;
#129=CARTESIAN_POINT('Vertex',(0.,12.,0.)) ;
#132=CARTESIAN_POINT('Line Origine',(0.,12.,2.)) ;
#136=CARTESIAN_POINT('Vertex',(0.,12.,4.)) ;
#139=CARTESIAN_POINT('Line Origine',(19.,12.,4.)) ;
#151=CARTESIAN_POINT('Axis2P3D Location',(0.,0.,4.)) ;
#156=CARTESIAN_POINT('Line Origine',(0.,6.,0.)) ;
#161=CARTESIAN_POINT('Line Origine',(0.,6.,4.)) ;
#173=CARTESIAN_POINT('Axis2P3D Location',(19.,6.,0.)) ;
#184=CARTESIAN_POINT('Axis2P3D Location',(19.,6.,0.)) ;
#188=CARTESIAN_POINT('Vertex',(19.,8.8,0.)) ;
#190=CARTESIAN_POINT('Vertex',(19.,3.2,0.)) ;
#193=CARTESIAN_POINT('Axis2P3D Location',(19.,6.,0.)) ;
#202=CARTESIAN_POINT('Axis2P3D Location',(6.,6.,0.)) ;
#206=CARTESIAN_POINT('Vertex',(6.,8.8,0.)) ;
#208=CARTESIAN_POINT('Vertex',(6.,3.2,0.)) ;
#211=CARTESIAN_POINT('Axis2P3D Location',(6.,6.,0.)) ;
#220=CARTESIAN_POINT('Axis2P3D Location',(32.,6.,0.)) ;
#224=CARTESIAN_POINT('Vertex',(32.,8.8,0.)) ;
#226=CARTESIAN_POINT('Vertex',(32.,3.2,0.)) ;
#229=CARTESIAN_POINT('Axis2P3D Location',(32.,6.,0.)) ;
#239=CARTESIAN_POINT('Axis2P3D Location',(19.,6.,4.)) ;
#250=CARTESIAN_POINT('Axis2P3D Location',(19.,6.,4.)) ;
#254=CARTESIAN_POINT('Vertex',(19.,3.2,4.)) ;
#256=CARTESIAN_POINT('Vertex',(19.,8.8,4.)) ;
#259=CARTESIAN_POINT('Axis2P3D Location',(19.,6.,4.)) ;
#268=CARTESIAN_POINT('Axis2P3D Location',(6.,6.,4.)) ;
#272=CARTESIAN_POINT('Vertex',(6.,3.2,4.)) ;
#274=CARTESIAN_POINT('Vertex',(6.,8.8,4.)) ;
#277=CARTESIAN_POINT('Axis2P3D Location',(6.,6.,4.)) ;
#286=CARTESIAN_POINT('Axis2P3D Location',(32.,6.,4.)) ;
#290=CARTESIAN_POINT('Vertex',(32.,3.2,4.)) ;
#292=CARTESIAN_POINT('Vertex',(32.,8.8,4.)) ;
#295=CARTESIAN_POINT('Axis2P3D Location',(32.,6.,4.)) ;
#305=CARTESIAN_POINT('Axis2P3D Location',(32.,6.,2.)) ;
#310=CARTESIAN_POINT('Line Origine',(32.,3.2,2.)) ;
#315=CARTESIAN_POINT('Line Origine',(32.,8.8,2.)) ;
#334=CARTESIAN_POINT('Axis2P3D Location',(6.,6.,2.)) ;
#339=CARTESIAN_POINT('Line Origine',(6.,3.2,2.)) ;
#344=CARTESIAN_POINT('Line Origine',(6.,8.8,2.)) ;
#363=CARTESIAN_POINT('Axis2P3D Location',(19.,6.,2.)) ;
#368=CARTESIAN_POINT('Line Origine',(19.,3.2,2.)) ;
#373=CARTESIAN_POINT('Line Origine',(19.,8.8,2.)) ;
#22=DIRECTION('Axis2P3D Direction',(0.,0.,1.)) ;
#23=DIRECTION('Axis2P3D XDirection',(1.,0.,0.)) ;
#29=DIRECTION('Axis2P3D Direction',(1.,0.,0.)) ;
#30=DIRECTION('Axis2P3D XDirection',(0.,1.,0.)) ;
#34=DIRECTION('Axis2P3D Direction',(0.,1.,0.)) ;
#35=DIRECTION('Axis2P3D XDirection',(0.,0.,1.)) ;
#50=DIRECTION('Axis2P3D Direction',(-0.,1.,0.)) ;
#51=DIRECTION('Axis2P3D XDirection',(1.,0.,0.)) ;
#55=DIRECTION('Vector Direction',(1.,0.,0.)) ;
#64=DIRECTION('Vector Direction',(0.,0.,-1.)) ;
#71=DIRECTION('Vector Direction',(1.,0.,0.)) ;
#78=DIRECTION('Vector Direction',(0.,0.,-1.)) ;
#90=DIRECTION('Axis2P3D Direction',(-1.,0.,0.)) ;
#91=DIRECTION('Axis2P3D XDirection',(0.,1.,0.)) ;
#95=DIRECTION('Vector Direction',(0.,1.,0.)) ;
#102=DIRECTION('Vector Direction',(0.,0.,-1.)) ;
#109=DIRECTION('Vector Direction',(0.,1.,0.)) ;
#121=DIRECTION('Axis2P3D Direction',(-0.,1.,0.)) ;
#122=DIRECTION('Axis2P3D XDirection',(1.,0.,0.)) ;
#126=DIRECTION('Vector Direction',(1.,0.,0.)) ;
#133=DIRECTION('Vector Direction',(0.,0.,-1.)) ;
#140=DIRECTION('Vector Direction',(1.,0.,0.)) ;
#152=DIRECTION('Axis2P3D Direction',(-1.,0.,0.)) ;
#153=DIRECTION('Axis2P3D XDirection',(0.,1.,0.)) ;
#157=DIRECTION('Vector Direction',(0.,1.,0.)) ;
#162=DIRECTION('Vector Direction',(0.,1.,0.)) ;
#174=DIRECTION('Axis2P3D Direction',(0.,0.,1.)) ;
#175=DIRECTION('Axis2P3D XDirection',(-1.,0.,0.)) ;
#185=DIRECTION('Axis2P3D Direction',(0.,0.,1.)) ;
#194=DIRECTION('Axis2P3D Direction',(0.,0.,1.)) ;
#203=DIRECTION('Axis2P3D Direction',(0.,0.,1.)) ;
#212=DIRECTION('Axis2P3D Direction',(0.,0.,1.)) ;
#221=DIRECTION('Axis2P3D Direction',(0.,0.,1.)) ;
#230=DIRECTION('Axis2P3D Direction',(0.,0.,1.)) ;
#240=DIRECTION('Axis2P3D Direction',(0.,0.,1.)) ;
#241=DIRECTION('Axis2P3D XDirection',(-1.,0.,0.)) ;
#251=DIRECTION('Axis2P3D Direction',(0.,0.,1.)) ;
#260=DIRECTION('Axis2P3D Direction',(0.,0.,1.)) ;
#269=DIRECTION('Axis2P3D Direction',(0.,0.,1.)) ;
#278=DIRECTION('Axis2P3D Direction',(0.,0.,1.)) ;
#287=DIRECTION('Axis2P3D Direction',(0.,0.,1.)) ;
#296=DIRECTION('Axis2P3D Direction',(0.,0.,1.)) ;
#306=DIRECTION('Axis2P3D Direction',(-0.,0.,1.)) ;
#307=DIRECTION('Axis2P3D XDirection',(0.,-1.,0.)) ;
#311=DIRECTION('Vector Direction',(0.,0.,1.)) ;
#316=DIRECTION('Vector Direction',(0.,0.,1.)) ;
#335=DIRECTION('Axis2P3D Direction',(-0.,0.,1.)) ;
#336=DIRECTION('Axis2P3D XDirection',(0.,-1.,0.)) ;
#340=DIRECTION('Vector Direction',(0.,0.,1.)) ;
#345=DIRECTION('Vector Direction',(0.,0.,1.)) ;
#364=DIRECTION('Axis2P3D Direction',(-0.,0.,1.)) ;
#365=DIRECTION('Axis2P3D XDirection',(0.,-1.,0.)) ;
#369=DIRECTION('Vector Direction',(0.,0.,1.)) ;
#374=DIRECTION('Vector Direction',(0.,0.,1.)) ;
#47=PRESENTATION_LAYER_ASSIGNMENT('100',' ',(#38)) ;
#8=PRODUCT_RELATED_PRODUCT_CATEGORY('part',$,(#5)) ;
#7=PRODUCT_CATEGORY('part','specification') ;
#46=STYLED_ITEM(' ',(#45),#38) ;
#45=PRESENTATION_STYLE_ASSIGNMENT((#44)) ;
#44=SURFACE_STYLE_USAGE(.BOTH.,#43) ;
#43=SURFACE_SIDE_STYLE(' ',(#42)) ;
#42=SURFACE_STYLE_FILL_AREA(#41) ;
#41=FILL_AREA_STYLE(' ',(#40)) ;
#40=FILL_AREA_STYLE_COLOUR(' ',#39) ;
#56=VECTOR('Line Direction',#55,1.) ;
#65=VECTOR('Line Direction',#64,1.) ;
#72=VECTOR('Line Direction',#71,1.) ;
#79=VECTOR('Line Direction',#78,1.) ;
#96=VECTOR('Line Direction',#95,1.) ;
#103=VECTOR('Line Direction',#102,1.) ;
#110=VECTOR('Line Direction',#109,1.) ;
#127=VECTOR('Line Direction',#126,1.) ;
#134=VECTOR('Line Direction',#133,1.) ;
#141=VECTOR('Line Direction',#140,1.) ;
#158=VECTOR('Line Direction',#157,1.) ;
#163=VECTOR('Line Direction',#162,1.) ;
#312=VECTOR('Line Direction',#311,1.) ;
#317=VECTOR('Line Direction',#316,1.) ;
#341=VECTOR('Line Direction',#340,1.) ;
#346=VECTOR('Line Direction',#345,1.) ;
#370=VECTOR('Line Direction',#369,1.) ;
#375=VECTOR('Line Direction',#374,1.) ;
#15=UNCERTAINTY_MEASURE_WITH_UNIT(LENGTH_MEASURE(0.005),#12,'distance_accuracy_value','CONFUSED CURVE UNCERTAINTY') ;
#393=SHAPE_REPRESENTATION_RELATIONSHIP(' ',' ',#19,#392) ;
#83=ORIENTED_EDGE('',*,*,#62,.T.) ;
#84=ORIENTED_EDGE('',*,*,#69,.F.) ;
#85=ORIENTED_EDGE('',*,*,#76,.F.) ;
#86=ORIENTED_EDGE('',*,*,#81,.T.) ;
#114=ORIENTED_EDGE('',*,*,#100,.T.) ;
#115=ORIENTED_EDGE('',*,*,#107,.F.) ;
#116=ORIENTED_EDGE('',*,*,#112,.F.) ;
#117=ORIENTED_EDGE('',*,*,#69,.T.) ;
#145=ORIENTED_EDGE('',*,*,#131,.T.) ;
#146=ORIENTED_EDGE('',*,*,#138,.F.) ;
#147=ORIENTED_EDGE('',*,*,#143,.F.) ;
#148=ORIENTED_EDGE('',*,*,#107,.T.) ;
#167=ORIENTED_EDGE('',*,*,#160,.T.) ;
#168=ORIENTED_EDGE('',*,*,#81,.F.) ;
#169=ORIENTED_EDGE('',*,*,#165,.F.) ;
#170=ORIENTED_EDGE('',*,*,#138,.T.) ;
#179=ORIENTED_EDGE('',*,*,#160,.F.) ;
#180=ORIENTED_EDGE('',*,*,#131,.F.) ;
#181=ORIENTED_EDGE('',*,*,#100,.F.) ;
#182=ORIENTED_EDGE('',*,*,#62,.F.) ;
#199=ORIENTED_EDGE('',*,*,#192,.T.) ;
#200=ORIENTED_EDGE('',*,*,#197,.T.) ;
#217=ORIENTED_EDGE('',*,*,#210,.T.) ;
#218=ORIENTED_EDGE('',*,*,#215,.T.) ;
#235=ORIENTED_EDGE('',*,*,#228,.T.) ;
#236=ORIENTED_EDGE('',*,*,#233,.T.) ;
#245=ORIENTED_EDGE('',*,*,#76,.T.) ;
#246=ORIENTED_EDGE('',*,*,#112,.T.) ;
#247=ORIENTED_EDGE('',*,*,#143,.T.) ;
#248=ORIENTED_EDGE('',*,*,#165,.T.) ;
#265=ORIENTED_EDGE('',*,*,#258,.F.) ;
#266=ORIENTED_EDGE('',*,*,#263,.F.) ;
#283=ORIENTED_EDGE('',*,*,#276,.F.) ;
#284=ORIENTED_EDGE('',*,*,#281,.F.) ;
#301=ORIENTED_EDGE('',*,*,#294,.F.) ;
#302=ORIENTED_EDGE('',*,*,#299,.F.) ;
#321=ORIENTED_EDGE('',*,*,#314,.F.) ;
#322=ORIENTED_EDGE('',*,*,#294,.T.) ;
#323=ORIENTED_EDGE('',*,*,#319,.T.) ;
#324=ORIENTED_EDGE('',*,*,#233,.F.) ;
#328=ORIENTED_EDGE('',*,*,#319,.F.) ;
#329=ORIENTED_EDGE('',*,*,#299,.T.) ;
#330=ORIENTED_EDGE('',*,*,#314,.T.) ;
#331=ORIENTED_EDGE('',*,*,#228,.F.) ;
#350=ORIENTED_EDGE('',*,*,#343,.F.) ;
#351=ORIENTED_EDGE('',*,*,#276,.T.) ;
#352=ORIENTED_EDGE('',*,*,#348,.T.) ;
#353=ORIENTED_EDGE('',*,*,#215,.F.) ;
#357=ORIENTED_EDGE('',*,*,#348,.F.) ;
#358=ORIENTED_EDGE('',*,*,#281,.T.) ;
#359=ORIENTED_EDGE('',*,*,#343,.T.) ;
#360=ORIENTED_EDGE('',*,*,#210,.F.) ;
#379=ORIENTED_EDGE('',*,*,#372,.F.) ;
#380=ORIENTED_EDGE('',*,*,#258,.T.) ;
#381=ORIENTED_EDGE('',*,*,#377,.T.) ;
#382=ORIENTED_EDGE('',*,*,#197,.F.) ;
#386=ORIENTED_EDGE('',*,*,#377,.F.) ;
#387=ORIENTED_EDGE('',*,*,#263,.T.) ;
#388=ORIENTED_EDGE('',*,*,#372,.T.) ;
#389=ORIENTED_EDGE('',*,*,#192,.F.) ;
#201=FACE_BOUND('',#198,.T.) ;
#219=FACE_BOUND('',#216,.T.) ;
#237=FACE_BOUND('',#234,.T.) ;
#267=FACE_BOUND('',#264,.T.) ;
#285=FACE_BOUND('',#282,.T.) ;
#303=FACE_BOUND('',#300,.T.) ;
#48=CLOSED_SHELL('Closed Shell',(#88,#119,#150,#172,#238,#304,#326,#333,#355,#362,#384,#391)) ;
#392=ADVANCED_BREP_SHAPE_REPRESENTATION('NONE',(#38),#16) ;
#88=ADVANCED_FACE('V1',(#87),#53,.F.) ;
#119=ADVANCED_FACE('V1',(#118),#93,.F.) ;
#150=ADVANCED_FACE('V1',(#149),#124,.T.) ;
#172=ADVANCED_FACE('V1',(#171),#155,.T.) ;
#238=ADVANCED_FACE('V1',(#183,#201,#219,#237),#177,.F.) ;
#304=ADVANCED_FACE('V1',(#249,#267,#285,#303),#243,.T.) ;
#326=ADVANCED_FACE('V1',(#325),#309,.F.) ;
#333=ADVANCED_FACE('V1',(#332),#309,.F.) ;
#355=ADVANCED_FACE('V1',(#354),#338,.F.) ;
#362=ADVANCED_FACE('V1',(#361),#338,.F.) ;
#384=ADVANCED_FACE('V1',(#383),#367,.F.) ;
#391=ADVANCED_FACE('V1',(#390),#367,.F.) ;
#4=APPLICATION_PROTOCOL_DEFINITION('international standard','automotive_design',2001,#1) ;
#38=MANIFOLD_SOLID_BREP('V1',#48) ;
#187=CIRCLE('generated circle',#186,2.8) ;
#196=CIRCLE('generated circle',#195,2.8) ;
#205=CIRCLE('generated circle',#204,2.8) ;
#214=CIRCLE('generated circle',#213,2.8) ;
#223=CIRCLE('generated circle',#222,2.8) ;
#232=CIRCLE('generated circle',#231,2.8) ;
#253=CIRCLE('generated circle',#252,2.8) ;
#262=CIRCLE('generated circle',#261,2.8) ;
#271=CIRCLE('generated circle',#270,2.8) ;
#280=CIRCLE('generated circle',#279,2.8) ;
#289=CIRCLE('generated circle',#288,2.8) ;
#298=CIRCLE('generated circle',#297,2.8) ;
#39=COLOUR_RGB('Colour',0.823529411765,0.823529411765,1.) ;
#26=CONSTRUCTIVE_GEOMETRY_REPRESENTATION('supplemental geometry',(#25,#32,#37),#16) ;
#27=CONSTRUCTIVE_GEOMETRY_REPRESENTATION_RELATIONSHIP('supplemental geometry','',#19,#26) ;
#309=CYLINDRICAL_SURFACE('generated cylinder',#308,2.8) ;
#338=CYLINDRICAL_SURFACE('generated cylinder',#337,2.8) ;
#367=CYLINDRICAL_SURFACE('generated cylinder',#366,2.8) ;
#62=EDGE_CURVE('',#59,#61,#57,.T.) ;
#69=EDGE_CURVE('',#68,#61,#66,.T.) ;
#76=EDGE_CURVE('',#75,#68,#73,.T.) ;
#81=EDGE_CURVE('',#75,#59,#80,.T.) ;
#100=EDGE_CURVE('',#61,#99,#97,.T.) ;
#107=EDGE_CURVE('',#106,#99,#104,.T.) ;
#112=EDGE_CURVE('',#68,#106,#111,.T.) ;
#131=EDGE_CURVE('',#99,#130,#128,.F.) ;
#138=EDGE_CURVE('',#137,#130,#135,.T.) ;
#143=EDGE_CURVE('',#106,#137,#142,.F.) ;
#160=EDGE_CURVE('',#130,#59,#159,.F.) ;
#165=EDGE_CURVE('',#137,#75,#164,.F.) ;
#192=EDGE_CURVE('',#189,#191,#187,.T.) ;
#197=EDGE_CURVE('',#191,#189,#196,.T.) ;
#210=EDGE_CURVE('',#207,#209,#205,.T.) ;
#215=EDGE_CURVE('',#209,#207,#214,.T.) ;
#228=EDGE_CURVE('',#225,#227,#223,.T.) ;
#233=EDGE_CURVE('',#227,#225,#232,.T.) ;
#258=EDGE_CURVE('',#255,#257,#253,.T.) ;
#263=EDGE_CURVE('',#257,#255,#262,.T.) ;
#276=EDGE_CURVE('',#273,#275,#271,.T.) ;
#281=EDGE_CURVE('',#275,#273,#280,.T.) ;
#294=EDGE_CURVE('',#291,#293,#289,.T.) ;
#299=EDGE_CURVE('',#293,#291,#298,.T.) ;
#314=EDGE_CURVE('',#291,#227,#313,.F.) ;
#319=EDGE_CURVE('',#293,#225,#318,.F.) ;
#343=EDGE_CURVE('',#273,#209,#342,.F.) ;
#348=EDGE_CURVE('',#275,#207,#347,.F.) ;
#372=EDGE_CURVE('',#255,#191,#371,.F.) ;
#377=EDGE_CURVE('',#257,#189,#376,.F.) ;
#82=EDGE_LOOP('',(#83,#84,#85,#86)) ;
#113=EDGE_LOOP('',(#114,#115,#116,#117)) ;
#144=EDGE_LOOP('',(#145,#146,#147,#148)) ;
#166=EDGE_LOOP('',(#167,#168,#169,#170)) ;
#178=EDGE_LOOP('',(#179,#180,#181,#182)) ;
#198=EDGE_LOOP('',(#199,#200)) ;
#216=EDGE_LOOP('',(#217,#218)) ;
#234=EDGE_LOOP('',(#235,#236)) ;
#244=EDGE_LOOP('',(#245,#246,#247,#248)) ;
#264=EDGE_LOOP('',(#265,#266)) ;
#282=EDGE_LOOP('',(#283,#284)) ;
#300=EDGE_LOOP('',(#301,#302)) ;
#320=EDGE_LOOP('',(#321,#322,#323,#324)) ;
#327=EDGE_LOOP('',(#328,#329,#330,#331)) ;
#349=EDGE_LOOP('',(#350,#351,#352,#353)) ;
#356=EDGE_LOOP('',(#357,#358,#359,#360)) ;
#378=EDGE_LOOP('',(#379,#380,#381,#382)) ;
#385=EDGE_LOOP('',(#386,#387,#388,#389)) ;
#87=FACE_OUTER_BOUND('',#82,.T.) ;
#118=FACE_OUTER_BOUND('',#113,.T.) ;
#149=FACE_OUTER_BOUND('',#144,.T.) ;
#171=FACE_OUTER_BOUND('',#166,.T.) ;
#183=FACE_OUTER_BOUND('',#178,.T.) ;
#249=FACE_OUTER_BOUND('',#244,.T.) ;
#325=FACE_OUTER_BOUND('',#320,.T.) ;
#332=FACE_OUTER_BOUND('',#327,.T.) ;
#354=FACE_OUTER_BOUND('',#349,.T.) ;
#361=FACE_OUTER_BOUND('',#356,.T.) ;
#383=FACE_OUTER_BOUND('',#378,.T.) ;
#390=FACE_OUTER_BOUND('',#385,.T.) ;
#57=LINE('Line',#54,#56) ;
#66=LINE('Line',#63,#65) ;
#73=LINE('Line',#70,#72) ;
#80=LINE('Line',#77,#79) ;
#97=LINE('Line',#94,#96) ;
#104=LINE('Line',#101,#103) ;
#111=LINE('Line',#108,#110) ;
#128=LINE('Line',#125,#127) ;
#135=LINE('Line',#132,#134) ;
#142=LINE('Line',#139,#141) ;
#159=LINE('Line',#156,#158) ;
#164=LINE('Line',#161,#163) ;
#313=LINE('Line',#310,#312) ;
#318=LINE('Line',#315,#317) ;
#342=LINE('Line',#339,#341) ;
#347=LINE('Line',#344,#346) ;
#371=LINE('Line',#368,#370) ;
#376=LINE('Line',#373,#375) ;
#25=PLANE('Referenz_xy',#24) ;
#32=PLANE('Referenz_yz',#31) ;
#37=PLANE('Referenz_xz',#36) ;
#53=PLANE('',#52) ;
#93=PLANE('',#92) ;
#124=PLANE('',#123) ;
#155=PLANE('',#154) ;
#177=PLANE('',#176) ;
#243=PLANE('',#242) ;
#9=PRODUCT_CATEGORY_RELATIONSHIP(' ',' ',#7,#8) ;
#6=PRODUCT_DEFINITION_FORMATION_WITH_SPECIFIED_SOURCE('',' ',#5,.NOT_KNOWN.) ;
#20=SHAPE_DEFINITION_REPRESENTATION(#11,#19) ;
#59=VERTEX_POINT('',#58) ;
#61=VERTEX_POINT('',#60) ;
#68=VERTEX_POINT('',#67) ;
#75=VERTEX_POINT('',#74) ;
#99=VERTEX_POINT('',#98) ;
#106=VERTEX_POINT('',#105) ;
#130=VERTEX_POINT('',#129) ;
#137=VERTEX_POINT('',#136) ;
#189=VERTEX_POINT('',#188) ;
#191=VERTEX_POINT('',#190) ;
#207=VERTEX_POINT('',#206) ;
#209=VERTEX_POINT('',#208) ;
#225=VERTEX_POINT('',#224) ;
#227=VERTEX_POINT('',#226) ;
#255=VERTEX_POINT('',#254) ;
#257=VERTEX_POINT('',#256) ;
#273=VERTEX_POINT('',#272) ;
#275=VERTEX_POINT('',#274) ;
#291=VERTEX_POINT('',#290) ;
#293=VERTEX_POINT('',#292) ;
#12=(LENGTH_UNIT()NAMED_UNIT(*)SI_UNIT(.MILLI.,.METRE.)) ;
#13=(NAMED_UNIT(*)PLANE_ANGLE_UNIT()SI_UNIT($,.RADIAN.)) ;
#14=(NAMED_UNIT(*)SI_UNIT($,.STERADIAN.)SOLID_ANGLE_UNIT()) ;
#16=(GEOMETRIC_REPRESENTATION_CONTEXT(3)GLOBAL_UNCERTAINTY_ASSIGNED_CONTEXT((#15))GLOBAL_UNIT_ASSIGNED_CONTEXT((#12,#13,#14))REPRESENTATION_CONTEXT(' ',' ')) ;
ENDSEC;
END-ISO-10303-21;
