ISO-10303-21;
HEADER;
FILE_DESCRIPTION(('CATIA V5R24 STEP','CAx-IF Rec.Pracs.--- Model Styling and Organization---1.2---2011-12-15'),'2;1');

FILE_NAME ('D1461318_0_2003770000_2003770000.stp','2016-08-23T12:19:57+00:00',('none'),('Weidmueller'),'CATIA Version 5-6 Release 2014 SP4','CATIA V5 STEP AP214','none');

FILE_SCHEMA(('AUTOMOTIVE_DESIGN { 1 0 10303 214 1 1 1 1 }'));

ENDSEC;
DATA;
#5=PRODUCT('WS 10/5.1 PLUS','','<Q-CHECKER_SEAL> Q-Checker Version 2.14.8  \X2\000A\X0\CATIA-Version         : Catia V5 R20 SP5 Build Date 01-06-2014.17.15\X2\000A\X0\Model size (in KByte) : 0\X2\000A\X0\Checking date         : 2015-03-09 15:39:19\X2\000A\X0\Checking profile      : ADMIN / Release_2D-3D [CATPart]\X2\000A\X0\Model assessment      : In Ordnung (IO)\X2\000A\X0\Total weight sum      : 0\X2\000A\X0\<CROSS_CHECK_SUM>\X2\000A\X0\  <CHKSUM_DATE> -60133332 </CHKSUM_DATE>\X2\000A\X0\  <CHKSUM_ENTITIES> -1057268084 </CHKSUM_ENTITIES>\X2\000A\X0\  <CHKSUM_PROFILE> 1594213346 </CHKSUM_PROFILE>\X2\000A\X0\  <CHKSUM_DIMENSION> -186917087 </CHKSUM_DIMENSION>\X2\000A\X0\  <CHKSUM_PROJINTERSEC> -896974048 </CHKSUM_PROJINTERSEC>\X2\000A\X0\  <CHKSUM_IDENTCRV> -896974048 </CHKSUM_IDENTCRV>\X2\000A\X0\  <CHKSUM_INFINITY> 138018827 </CHKSUM_INFINITY>\X2\000A\X0\</CROSS_CHECK_SUM>\X2\000A\X0\</Q-CHECKER_SEAL> \X2\000A\X0\ \X2\000A\X0\ \X2\000A\X0\ \X2\000A\X0\ \X2\000A\X0\ \X2\000A\X0\ \X2\000A\X0\ \X2\000A\X0\ \X2\000A\X0\ \X2\000A\X0\ \X2\000D\X0\\X2\000A\X0\ \X2\000D\X0\\X2\000A\X0\ \X2\000D\X0\\X2\000A\X0\ \X2\000D\X0\\X2\000A\X0\ \X2\000D\X0\\X2\000A\X0\ \X2\000D\X0\\X2\000A\X0\ \X2\000D\X0\\X2\000A\X0\ \X2\000D\X0\\X2\000A\X0\ \X2\000D\X0\\X2\000A\X0\',(#2)) ;
#2=PRODUCT_CONTEXT(' ',#1,'mechanical') ;
#1=APPLICATION_CONTEXT('automotive design') ;
#10=PRODUCT_DEFINITION('',' ',#6,#3) ;
#3=PRODUCT_DEFINITION_CONTEXT('part definition',#1,' ') ;
#11=PRODUCT_DEFINITION_SHAPE(' ',' ',#10) ;
#572=MECHANICAL_DESIGN_GEOMETRIC_PRESENTATION_REPRESENTATION(' ',(#29),#16) ;
#19=SHAPE_REPRESENTATION(' ',(#18),#16) ;
#18=AXIS2_PLACEMENT_3D(' ',#17,$,$) ;
#34=AXIS2_PLACEMENT_3D('Plane Axis2P3D',#31,#32,#33) ;
#74=AXIS2_PLACEMENT_3D('Plane Axis2P3D',#71,#72,#73) ;
#105=AXIS2_PLACEMENT_3D('Plane Axis2P3D',#102,#103,#104) ;
#136=AXIS2_PLACEMENT_3D('Plane Axis2P3D',#133,#134,#135) ;
#202=AXIS2_PLACEMENT_3D('Plane Axis2P3D',#199,#200,#201) ;
#233=AXIS2_PLACEMENT_3D('Plane Axis2P3D',#230,#231,#232) ;
#273=AXIS2_PLACEMENT_3D('Plane Axis2P3D',#270,#271,#272) ;
#338=AXIS2_PLACEMENT_3D('Plane Axis2P3D',#335,#336,#337) ;
#360=AXIS2_PLACEMENT_3D('Plane Axis2P3D',#357,#358,#359) ;
#391=AXIS2_PLACEMENT_3D('Plane Axis2P3D',#388,#389,#390) ;
#415=AXIS2_PLACEMENT_3D('Plane Axis2P3D',#412,#413,#414) ;
#439=AXIS2_PLACEMENT_3D('Plane Axis2P3D',#436,#437,#438) ;
#456=AXIS2_PLACEMENT_3D('Plane Axis2P3D',#453,#454,#455) ;
#521=AXIS2_PLACEMENT_3D('Plane Axis2P3D',#518,#519,#520) ;
#533=AXIS2_PLACEMENT_3D('Plane Axis2P3D',#530,#531,#532) ;
#553=AXIS2_PLACEMENT_3D('Plane Axis2P3D',#550,#551,#552) ;
#17=CARTESIAN_POINT(' ',(0.,0.,0.)) ;
#31=CARTESIAN_POINT('Axis2P3D Location',(2.55,3.32106611995,8.31982482907E-010)) ;
#36=CARTESIAN_POINT('Line Origine',(2.55,3.32106611995,8.31982482907E-010)) ;
#40=CARTESIAN_POINT('Vertex',(0.625,3.32106611995,8.31982482907E-010)) ;
#42=CARTESIAN_POINT('Vertex',(4.475,3.32106611995,8.31982482907E-010)) ;
#45=CARTESIAN_POINT('Line Origine',(0.625,3.53035368592,0.781071830416)) ;
#49=CARTESIAN_POINT('Vertex',(0.625,3.73964125188,1.56214366)) ;
#52=CARTESIAN_POINT('Line Origine',(2.55,3.73964125188,1.56214366)) ;
#56=CARTESIAN_POINT('Vertex',(4.475,3.73964125188,1.56214366)) ;
#59=CARTESIAN_POINT('Line Origine',(4.475,3.53035368592,0.781071830416)) ;
#71=CARTESIAN_POINT('Axis2P3D Location',(2.55,2.9,8.31982482907E-010)) ;
#76=CARTESIAN_POINT('Line Origine',(2.55,2.9,8.31982482907E-010)) ;
#80=CARTESIAN_POINT('Vertex',(0.625,2.9,8.31983371086E-010)) ;
#82=CARTESIAN_POINT('Vertex',(4.475,2.9,8.31983371086E-010)) ;
#85=CARTESIAN_POINT('Line Origine',(0.625,3.11053305997,8.31982365035E-010)) ;
#90=CARTESIAN_POINT('Line Origine',(4.475,3.11053305997,8.3198260078E-010)) ;
#102=CARTESIAN_POINT('Axis2P3D Location',(2.55,2.9,1.56214366)) ;
#107=CARTESIAN_POINT('Line Origine',(2.55,2.9,1.56214366)) ;
#111=CARTESIAN_POINT('Vertex',(0.625,2.9,1.56214366)) ;
#113=CARTESIAN_POINT('Vertex',(4.475,2.9,1.56214366)) ;
#116=CARTESIAN_POINT('Line Origine',(0.625,2.9,0.781071830416)) ;
#121=CARTESIAN_POINT('Line Origine',(4.475,2.9,0.781071830416)) ;
#133=CARTESIAN_POINT('Axis2P3D Location',(2.55,6.47893388005,8.31982482907E-010)) ;
#138=CARTESIAN_POINT('Line Origine',(4.475,6.26964631408,0.781071830416)) ;
#142=CARTESIAN_POINT('Vertex',(4.475,6.47893388005,8.31982482907E-010)) ;
#144=CARTESIAN_POINT('Vertex',(4.475,6.06035874812,1.56214366)) ;
#147=CARTESIAN_POINT('Line Origine',(2.55,6.06035874812,1.56214366)) ;
#151=CARTESIAN_POINT('Vertex',(0.625,6.06035874812,1.56214366)) ;
#154=CARTESIAN_POINT('Line Origine',(0.625,6.26964631408,0.781071830416)) ;
#158=CARTESIAN_POINT('Vertex',(0.625,6.47893388005,8.31982482907E-010)) ;
#161=CARTESIAN_POINT('Line Origine',(2.55,6.47893388005,8.31982482907E-010)) ;
#173=CARTESIAN_POINT('Line Origine',(4.475,6.68946694003,8.3198260078E-010)) ;
#177=CARTESIAN_POINT('Vertex',(4.475,6.9,8.31982038818E-010)) ;
#180=CARTESIAN_POINT('Line Origine',(0.625,6.68946694003,8.31982365035E-010)) ;
#184=CARTESIAN_POINT('Vertex',(0.625,6.9,8.31982038818E-010)) ;
#187=CARTESIAN_POINT('Line Origine',(2.55,6.9,8.31982482907E-010)) ;
#199=CARTESIAN_POINT('Axis2P3D Location',(2.55,6.9,1.56214366)) ;
#204=CARTESIAN_POINT('Line Origine',(4.475,6.9,0.781071830416)) ;
#208=CARTESIAN_POINT('Vertex',(4.475,6.9,1.56214366)) ;
#211=CARTESIAN_POINT('Line Origine',(0.625,6.9,0.781071830416)) ;
#215=CARTESIAN_POINT('Vertex',(0.625,6.9,1.56214366)) ;
#218=CARTESIAN_POINT('Line Origine',(2.55,6.9,1.56214366)) ;
#230=CARTESIAN_POINT('Axis2P3D Location',(2.55,1.9,2.11214366)) ;
#235=CARTESIAN_POINT('Line Origine',(2.55,1.9,2.11214366)) ;
#239=CARTESIAN_POINT('Vertex',(0.625,1.9,2.11214366)) ;
#241=CARTESIAN_POINT('Vertex',(4.475,1.9,2.11214366)) ;
#244=CARTESIAN_POINT('Line Origine',(0.625,1.9,1.83714366)) ;
#248=CARTESIAN_POINT('Vertex',(0.625,1.9,1.56214366)) ;
#251=CARTESIAN_POINT('Line Origine',(2.55,1.9,1.56214366)) ;
#255=CARTESIAN_POINT('Vertex',(4.475,1.9,1.56214366)) ;
#258=CARTESIAN_POINT('Line Origine',(4.475,1.9,1.83714366)) ;
#270=CARTESIAN_POINT('Axis2P3D Location',(2.55,0.,2.11214366)) ;
#275=CARTESIAN_POINT('Line Origine',(4.975,4.9,2.11214366)) ;
#279=CARTESIAN_POINT('Vertex',(4.975,9.8,2.11214366)) ;
#281=CARTESIAN_POINT('Vertex',(4.975,-2.99951956532E-033,2.11214366)) ;
#284=CARTESIAN_POINT('Line Origine',(2.55,0.,2.11214366)) ;
#288=CARTESIAN_POINT('Vertex',(0.125,-2.99951956532E-033,2.11214366)) ;
#291=CARTESIAN_POINT('Line Origine',(0.125,4.9,2.11214366)) ;
#295=CARTESIAN_POINT('Vertex',(0.125,9.8,2.11214366)) ;
#298=CARTESIAN_POINT('Line Origine',(2.55,9.8,2.11214366)) ;
#309=CARTESIAN_POINT('Line Origine',(0.625,4.9,2.11214366)) ;
#313=CARTESIAN_POINT('Vertex',(0.625,7.9,2.11214366)) ;
#316=CARTESIAN_POINT('Line Origine',(4.475,4.9,2.11214366)) ;
#320=CARTESIAN_POINT('Vertex',(4.475,7.9,2.11214366)) ;
#323=CARTESIAN_POINT('Line Origine',(2.55,7.9,2.11214366)) ;
#335=CARTESIAN_POINT('Axis2P3D Location',(2.55,7.9,1.56214366)) ;
#340=CARTESIAN_POINT('Line Origine',(4.475,2.4,1.56214366)) ;
#345=CARTESIAN_POINT('Line Origine',(0.625,2.4,1.56214366)) ;
#357=CARTESIAN_POINT('Axis2P3D Location',(4.975,4.9,2.91214366)) ;
#362=CARTESIAN_POINT('Line Origine',(4.975,-1.49975978266E-033,2.51214366)) ;
#366=CARTESIAN_POINT('Vertex',(4.975,0.,2.91214366)) ;
#369=CARTESIAN_POINT('Line Origine',(4.975,9.8,2.51214366)) ;
#373=CARTESIAN_POINT('Vertex',(4.975,9.8,2.91214366)) ;
#376=CARTESIAN_POINT('Line Origine',(4.975,4.9,2.91214366)) ;
#388=CARTESIAN_POINT('Axis2P3D Location',(2.55,0.,2.91214366)) ;
#393=CARTESIAN_POINT('Line Origine',(2.55,0.,2.91214366)) ;
#397=CARTESIAN_POINT('Vertex',(0.125,0.,2.91214366)) ;
#400=CARTESIAN_POINT('Line Origine',(0.125,1.48488424397E-016,2.51214366)) ;
#412=CARTESIAN_POINT('Axis2P3D Location',(0.125,4.9,2.91214366)) ;
#417=CARTESIAN_POINT('Line Origine',(0.125,4.9,2.91214366)) ;
#421=CARTESIAN_POINT('Vertex',(0.125,9.8,2.91214366)) ;
#424=CARTESIAN_POINT('Line Origine',(0.125,9.8,2.51214366)) ;
#436=CARTESIAN_POINT('Axis2P3D Location',(2.55,9.8,2.11214366)) ;
#441=CARTESIAN_POINT('Line Origine',(2.55,9.8,2.91214366)) ;
#453=CARTESIAN_POINT('Axis2P3D Location',(2.55,7.9,1.56214366)) ;
#458=CARTESIAN_POINT('Line Origine',(2.55,7.9,1.56214366)) ;
#462=CARTESIAN_POINT('Vertex',(0.625,7.9,1.56214366)) ;
#464=CARTESIAN_POINT('Vertex',(4.475,7.9,1.56214366)) ;
#467=CARTESIAN_POINT('Line Origine',(0.625,7.9,1.83714366)) ;
#472=CARTESIAN_POINT('Line Origine',(4.475,7.9,1.83714366)) ;
#484=CARTESIAN_POINT('Line Origine',(0.625,4.9,1.56214366)) ;
#489=CARTESIAN_POINT('Line Origine',(4.475,4.9,1.56214366)) ;
#501=CARTESIAN_POINT('Line Origine',(0.625,7.4,1.56214366)) ;
#506=CARTESIAN_POINT('Line Origine',(4.475,7.4,1.56214366)) ;
#518=CARTESIAN_POINT('Axis2P3D Location',(2.55,0.,2.91214366)) ;
#530=CARTESIAN_POINT('Axis2P3D Location',(4.475,4.9,2.91214366)) ;
#550=CARTESIAN_POINT('Axis2P3D Location',(0.625,4.9,2.91214366)) ;
#32=DIRECTION('Axis2P3D Direction',(7.49939943261E-017,0.965925826289,-0.258819045103)) ;
#33=DIRECTION('Axis2P3D XDirection',(-4.32978028118E-017,0.258819045103,0.965925826289)) ;
#37=DIRECTION('Vector Direction',(1.,0.,6.12323399436E-017)) ;
#46=DIRECTION('Vector Direction',(0.,0.258819045103,0.965925826289)) ;
#53=DIRECTION('Vector Direction',(1.,0.,1.15347846714E-016)) ;
#60=DIRECTION('Vector Direction',(0.,0.258819045103,0.965925826289)) ;
#72=DIRECTION('Axis2P3D Direction',(6.12323399574E-017,-3.74939945665E-033,-1.)) ;
#73=DIRECTION('Axis2P3D XDirection',(6.12323399574E-017,1.,0.)) ;
#77=DIRECTION('Vector Direction',(1.,0.,6.12323399436E-017)) ;
#86=DIRECTION('Vector Direction',(0.,1.,0.)) ;
#91=DIRECTION('Vector Direction',(0.,1.,0.)) ;
#103=DIRECTION('Axis2P3D Direction',(-6.12323399574E-017,-1.,0.)) ;
#104=DIRECTION('Axis2P3D XDirection',(6.12323399574E-017,-3.74939945665E-033,-1.)) ;
#108=DIRECTION('Vector Direction',(1.,0.,1.15347846714E-016)) ;
#117=DIRECTION('Vector Direction',(0.,0.,-1.)) ;
#122=DIRECTION('Vector Direction',(0.,0.,-1.)) ;
#134=DIRECTION('Axis2P3D Direction',(4.32978028118E-017,0.965925826289,0.258819045103)) ;
#135=DIRECTION('Axis2P3D XDirection',(-7.49939943261E-017,-0.258819045103,0.965925826289)) ;
#139=DIRECTION('Vector Direction',(0.,-0.258819045103,0.965925826289)) ;
#148=DIRECTION('Vector Direction',(1.,0.,1.15347846714E-016)) ;
#155=DIRECTION('Vector Direction',(0.,-0.258819045103,0.965925826289)) ;
#162=DIRECTION('Vector Direction',(1.,0.,6.12323399436E-017)) ;
#174=DIRECTION('Vector Direction',(-2.10935617382E-015,-1.,0.)) ;
#181=DIRECTION('Vector Direction',(-1.05467808691E-015,-1.,0.)) ;
#188=DIRECTION('Vector Direction',(1.,0.,6.12323399436E-017)) ;
#200=DIRECTION('Axis2P3D Direction',(-6.12323399574E-017,-1.,0.)) ;
#201=DIRECTION('Axis2P3D XDirection',(6.12323399574E-017,-3.74939945665E-033,-1.)) ;
#205=DIRECTION('Vector Direction',(0.,0.,-1.)) ;
#212=DIRECTION('Vector Direction',(0.,0.,-1.)) ;
#219=DIRECTION('Vector Direction',(1.,0.,1.15347846714E-016)) ;
#231=DIRECTION('Axis2P3D Direction',(-6.12323399574E-017,-1.,0.)) ;
#232=DIRECTION('Axis2P3D XDirection',(6.12323399574E-017,-3.74939945665E-033,-1.)) ;
#236=DIRECTION('Vector Direction',(1.,-1.15347846714E-016,0.)) ;
#245=DIRECTION('Vector Direction',(0.,0.,-1.)) ;
#252=DIRECTION('Vector Direction',(1.,-1.15347846714E-016,1.15347846714E-016)) ;
#259=DIRECTION('Vector Direction',(0.,0.,-1.)) ;
#271=DIRECTION('Axis2P3D Direction',(6.12323399574E-017,-3.74939945665E-033,-1.)) ;
#272=DIRECTION('Axis2P3D XDirection',(6.12323399574E-017,1.,0.)) ;
#276=DIRECTION('Vector Direction',(0.,1.,0.)) ;
#285=DIRECTION('Vector Direction',(1.,-6.12323399574E-017,0.)) ;
#292=DIRECTION('Vector Direction',(4.53152254949E-017,1.,0.)) ;
#299=DIRECTION('Vector Direction',(1.,0.,0.)) ;
#310=DIRECTION('Vector Direction',(7.40148683083E-017,1.,0.)) ;
#317=DIRECTION('Vector Direction',(0.,1.,0.)) ;
#324=DIRECTION('Vector Direction',(1.,0.,0.)) ;
#336=DIRECTION('Axis2P3D Direction',(-6.12323399574E-017,3.74939945665E-033,1.)) ;
#337=DIRECTION('Axis2P3D XDirection',(-6.12323399574E-017,-1.,0.)) ;
#341=DIRECTION('Vector Direction',(0.,-1.,0.)) ;
#346=DIRECTION('Vector Direction',(0.,-1.,0.)) ;
#358=DIRECTION('Axis2P3D Direction',(1.,-6.12323399574E-017,6.12323399574E-017)) ;
#359=DIRECTION('Axis2P3D XDirection',(6.12323399574E-017,1.,0.)) ;
#363=DIRECTION('Vector Direction',(0.,-3.74939945665E-033,-1.)) ;
#370=DIRECTION('Vector Direction',(0.,0.,1.)) ;
#377=DIRECTION('Vector Direction',(0.,1.,0.)) ;
#389=DIRECTION('Axis2P3D Direction',(-6.12323399574E-017,-1.,0.)) ;
#390=DIRECTION('Axis2P3D XDirection',(6.12323399574E-017,-3.74939945665E-033,-1.)) ;
#394=DIRECTION('Vector Direction',(1.,-6.12323399574E-017,0.)) ;
#401=DIRECTION('Vector Direction',(0.,0.,-1.)) ;
#413=DIRECTION('Axis2P3D Direction',(1.,-6.12323399574E-017,6.12323399574E-017)) ;
#414=DIRECTION('Axis2P3D XDirection',(6.12323399574E-017,1.,0.)) ;
#418=DIRECTION('Vector Direction',(6.23084350555E-017,1.,0.)) ;
#425=DIRECTION('Vector Direction',(-6.93889390391E-017,0.,1.)) ;
#437=DIRECTION('Axis2P3D Direction',(6.12323399574E-017,1.,0.)) ;
#438=DIRECTION('Axis2P3D XDirection',(-6.12323399574E-017,3.74939945665E-033,1.)) ;
#442=DIRECTION('Vector Direction',(1.,0.,0.)) ;
#454=DIRECTION('Axis2P3D Direction',(6.12323399574E-017,1.,0.)) ;
#455=DIRECTION('Axis2P3D XDirection',(-6.12323399574E-017,3.74939945665E-033,1.)) ;
#459=DIRECTION('Vector Direction',(1.,0.,1.15347846714E-016)) ;
#468=DIRECTION('Vector Direction',(0.,0.,1.)) ;
#473=DIRECTION('Vector Direction',(0.,0.,1.)) ;
#485=DIRECTION('Vector Direction',(-1.91358582236E-016,-1.,0.)) ;
#490=DIRECTION('Vector Direction',(-3.82717164473E-016,-1.,0.)) ;
#502=DIRECTION('Vector Direction',(0.,-1.,0.)) ;
#507=DIRECTION('Vector Direction',(0.,-1.,0.)) ;
#519=DIRECTION('Axis2P3D Direction',(6.12323399574E-017,-3.74939945665E-033,-1.)) ;
#520=DIRECTION('Axis2P3D XDirection',(6.12323399574E-017,1.,0.)) ;
#531=DIRECTION('Axis2P3D Direction',(1.,-6.12323399574E-017,6.12323399574E-017)) ;
#532=DIRECTION('Axis2P3D XDirection',(6.12323399574E-017,1.,0.)) ;
#551=DIRECTION('Axis2P3D Direction',(1.,-6.12323399574E-017,6.12323399574E-017)) ;
#552=DIRECTION('Axis2P3D XDirection',(6.12323399574E-017,1.,0.)) ;
#8=PRODUCT_RELATED_PRODUCT_CATEGORY('part',$,(#5)) ;
#7=PRODUCT_CATEGORY('part','specification') ;
#29=STYLED_ITEM(' ',(#28),#21) ;
#28=PRESENTATION_STYLE_ASSIGNMENT((#27)) ;
#27=SURFACE_STYLE_USAGE(.BOTH.,#26) ;
#26=SURFACE_SIDE_STYLE(' ',(#25)) ;
#25=SURFACE_STYLE_FILL_AREA(#24) ;
#24=FILL_AREA_STYLE(' ',(#23)) ;
#23=FILL_AREA_STYLE_COLOUR(' ',#22) ;
#38=VECTOR('Line Direction',#37,1.) ;
#47=VECTOR('Line Direction',#46,1.) ;
#54=VECTOR('Line Direction',#53,1.) ;
#61=VECTOR('Line Direction',#60,1.) ;
#78=VECTOR('Line Direction',#77,1.) ;
#87=VECTOR('Line Direction',#86,1.) ;
#92=VECTOR('Line Direction',#91,1.) ;
#109=VECTOR('Line Direction',#108,1.) ;
#118=VECTOR('Line Direction',#117,1.) ;
#123=VECTOR('Line Direction',#122,1.) ;
#140=VECTOR('Line Direction',#139,1.) ;
#149=VECTOR('Line Direction',#148,1.) ;
#156=VECTOR('Line Direction',#155,1.) ;
#163=VECTOR('Line Direction',#162,1.) ;
#175=VECTOR('Line Direction',#174,1.) ;
#182=VECTOR('Line Direction',#181,1.) ;
#189=VECTOR('Line Direction',#188,1.) ;
#206=VECTOR('Line Direction',#205,1.) ;
#213=VECTOR('Line Direction',#212,1.) ;
#220=VECTOR('Line Direction',#219,1.) ;
#237=VECTOR('Line Direction',#236,1.) ;
#246=VECTOR('Line Direction',#245,1.) ;
#253=VECTOR('Line Direction',#252,1.) ;
#260=VECTOR('Line Direction',#259,1.) ;
#277=VECTOR('Line Direction',#276,1.) ;
#286=VECTOR('Line Direction',#285,1.) ;
#293=VECTOR('Line Direction',#292,1.) ;
#300=VECTOR('Line Direction',#299,1.) ;
#311=VECTOR('Line Direction',#310,1.) ;
#318=VECTOR('Line Direction',#317,1.) ;
#325=VECTOR('Line Direction',#324,1.) ;
#342=VECTOR('Line Direction',#341,1.) ;
#347=VECTOR('Line Direction',#346,1.) ;
#364=VECTOR('Line Direction',#363,1.) ;
#371=VECTOR('Line Direction',#370,1.) ;
#378=VECTOR('Line Direction',#377,1.) ;
#395=VECTOR('Line Direction',#394,1.) ;
#402=VECTOR('Line Direction',#401,1.) ;
#419=VECTOR('Line Direction',#418,1.) ;
#426=VECTOR('Line Direction',#425,1.) ;
#443=VECTOR('Line Direction',#442,1.) ;
#460=VECTOR('Line Direction',#459,1.) ;
#469=VECTOR('Line Direction',#468,1.) ;
#474=VECTOR('Line Direction',#473,1.) ;
#486=VECTOR('Line Direction',#485,1.) ;
#491=VECTOR('Line Direction',#490,1.) ;
#503=VECTOR('Line Direction',#502,1.) ;
#508=VECTOR('Line Direction',#507,1.) ;
#15=UNCERTAINTY_MEASURE_WITH_UNIT(LENGTH_MEASURE(0.005),#12,'distance_accuracy_value','CONFUSED CURVE UNCERTAINTY') ;
#571=SHAPE_REPRESENTATION_RELATIONSHIP(' ',' ',#19,#570) ;
#65=ORIENTED_EDGE('',*,*,#44,.F.) ;
#66=ORIENTED_EDGE('',*,*,#51,.T.) ;
#67=ORIENTED_EDGE('',*,*,#58,.T.) ;
#68=ORIENTED_EDGE('',*,*,#63,.F.) ;
#96=ORIENTED_EDGE('',*,*,#84,.F.) ;
#97=ORIENTED_EDGE('',*,*,#89,.T.) ;
#98=ORIENTED_EDGE('',*,*,#44,.T.) ;
#99=ORIENTED_EDGE('',*,*,#94,.F.) ;
#127=ORIENTED_EDGE('',*,*,#115,.F.) ;
#128=ORIENTED_EDGE('',*,*,#120,.T.) ;
#129=ORIENTED_EDGE('',*,*,#84,.T.) ;
#130=ORIENTED_EDGE('',*,*,#125,.F.) ;
#167=ORIENTED_EDGE('',*,*,#146,.T.) ;
#168=ORIENTED_EDGE('',*,*,#153,.F.) ;
#169=ORIENTED_EDGE('',*,*,#160,.F.) ;
#170=ORIENTED_EDGE('',*,*,#165,.T.) ;
#193=ORIENTED_EDGE('',*,*,#179,.T.) ;
#194=ORIENTED_EDGE('',*,*,#165,.F.) ;
#195=ORIENTED_EDGE('',*,*,#186,.F.) ;
#196=ORIENTED_EDGE('',*,*,#191,.T.) ;
#224=ORIENTED_EDGE('',*,*,#210,.T.) ;
#225=ORIENTED_EDGE('',*,*,#191,.F.) ;
#226=ORIENTED_EDGE('',*,*,#217,.F.) ;
#227=ORIENTED_EDGE('',*,*,#222,.T.) ;
#264=ORIENTED_EDGE('',*,*,#243,.F.) ;
#265=ORIENTED_EDGE('',*,*,#250,.T.) ;
#266=ORIENTED_EDGE('',*,*,#257,.T.) ;
#267=ORIENTED_EDGE('',*,*,#262,.F.) ;
#304=ORIENTED_EDGE('',*,*,#283,.T.) ;
#305=ORIENTED_EDGE('',*,*,#290,.F.) ;
#306=ORIENTED_EDGE('',*,*,#297,.F.) ;
#307=ORIENTED_EDGE('',*,*,#302,.T.) ;
#329=ORIENTED_EDGE('',*,*,#315,.T.) ;
#330=ORIENTED_EDGE('',*,*,#243,.T.) ;
#331=ORIENTED_EDGE('',*,*,#322,.F.) ;
#332=ORIENTED_EDGE('',*,*,#327,.F.) ;
#351=ORIENTED_EDGE('',*,*,#115,.T.) ;
#352=ORIENTED_EDGE('',*,*,#344,.F.) ;
#353=ORIENTED_EDGE('',*,*,#257,.F.) ;
#354=ORIENTED_EDGE('',*,*,#349,.T.) ;
#382=ORIENTED_EDGE('',*,*,#368,.F.) ;
#383=ORIENTED_EDGE('',*,*,#283,.F.) ;
#384=ORIENTED_EDGE('',*,*,#375,.F.) ;
#385=ORIENTED_EDGE('',*,*,#380,.F.) ;
#406=ORIENTED_EDGE('',*,*,#368,.T.) ;
#407=ORIENTED_EDGE('',*,*,#399,.F.) ;
#408=ORIENTED_EDGE('',*,*,#404,.F.) ;
#409=ORIENTED_EDGE('',*,*,#290,.T.) ;
#430=ORIENTED_EDGE('',*,*,#423,.T.) ;
#431=ORIENTED_EDGE('',*,*,#428,.T.) ;
#432=ORIENTED_EDGE('',*,*,#297,.T.) ;
#433=ORIENTED_EDGE('',*,*,#404,.T.) ;
#447=ORIENTED_EDGE('',*,*,#375,.T.) ;
#448=ORIENTED_EDGE('',*,*,#302,.F.) ;
#449=ORIENTED_EDGE('',*,*,#428,.F.) ;
#450=ORIENTED_EDGE('',*,*,#445,.T.) ;
#478=ORIENTED_EDGE('',*,*,#466,.F.) ;
#479=ORIENTED_EDGE('',*,*,#471,.T.) ;
#480=ORIENTED_EDGE('',*,*,#327,.T.) ;
#481=ORIENTED_EDGE('',*,*,#476,.F.) ;
#495=ORIENTED_EDGE('',*,*,#58,.F.) ;
#496=ORIENTED_EDGE('',*,*,#488,.T.) ;
#497=ORIENTED_EDGE('',*,*,#153,.T.) ;
#498=ORIENTED_EDGE('',*,*,#493,.F.) ;
#512=ORIENTED_EDGE('',*,*,#222,.F.) ;
#513=ORIENTED_EDGE('',*,*,#505,.T.) ;
#514=ORIENTED_EDGE('',*,*,#466,.T.) ;
#515=ORIENTED_EDGE('',*,*,#510,.F.) ;
#524=ORIENTED_EDGE('',*,*,#380,.T.) ;
#525=ORIENTED_EDGE('',*,*,#445,.F.) ;
#526=ORIENTED_EDGE('',*,*,#423,.F.) ;
#527=ORIENTED_EDGE('',*,*,#399,.T.) ;
#536=ORIENTED_EDGE('',*,*,#146,.F.) ;
#537=ORIENTED_EDGE('',*,*,#179,.F.) ;
#538=ORIENTED_EDGE('',*,*,#210,.F.) ;
#539=ORIENTED_EDGE('',*,*,#510,.T.) ;
#540=ORIENTED_EDGE('',*,*,#476,.T.) ;
#541=ORIENTED_EDGE('',*,*,#322,.T.) ;
#542=ORIENTED_EDGE('',*,*,#262,.T.) ;
#543=ORIENTED_EDGE('',*,*,#344,.T.) ;
#544=ORIENTED_EDGE('',*,*,#125,.T.) ;
#545=ORIENTED_EDGE('',*,*,#94,.T.) ;
#546=ORIENTED_EDGE('',*,*,#63,.T.) ;
#547=ORIENTED_EDGE('',*,*,#493,.T.) ;
#556=ORIENTED_EDGE('',*,*,#488,.F.) ;
#557=ORIENTED_EDGE('',*,*,#51,.F.) ;
#558=ORIENTED_EDGE('',*,*,#89,.F.) ;
#559=ORIENTED_EDGE('',*,*,#120,.F.) ;
#560=ORIENTED_EDGE('',*,*,#349,.F.) ;
#561=ORIENTED_EDGE('',*,*,#250,.F.) ;
#562=ORIENTED_EDGE('',*,*,#315,.F.) ;
#563=ORIENTED_EDGE('',*,*,#471,.F.) ;
#564=ORIENTED_EDGE('',*,*,#505,.F.) ;
#565=ORIENTED_EDGE('',*,*,#217,.T.) ;
#566=ORIENTED_EDGE('',*,*,#186,.T.) ;
#567=ORIENTED_EDGE('',*,*,#160,.T.) ;
#333=FACE_BOUND('',#328,.T.) ;
#30=CLOSED_SHELL('Closed Shell',(#70,#101,#132,#172,#198,#229,#269,#334,#356,#387,#411,#435,#452,#483,#500,#517,#529,#549,#569)) ;
#570=ADVANCED_BREP_SHAPE_REPRESENTATION('NONE',(#21),#16) ;
#70=ADVANCED_FACE('S3D gedreht',(#69),#35,.T.) ;
#101=ADVANCED_FACE('S3D gedreht',(#100),#75,.T.) ;
#132=ADVANCED_FACE('S3D gedreht',(#131),#106,.T.) ;
#172=ADVANCED_FACE('S3D gedreht',(#171),#137,.F.) ;
#198=ADVANCED_FACE('S3D gedreht',(#197),#75,.T.) ;
#229=ADVANCED_FACE('S3D gedreht',(#228),#203,.F.) ;
#269=ADVANCED_FACE('S3D gedreht',(#268),#234,.T.) ;
#334=ADVANCED_FACE('S3D gedreht',(#308,#333),#274,.T.) ;
#356=ADVANCED_FACE('S3D gedreht',(#355),#339,.F.) ;
#387=ADVANCED_FACE('S3D gedreht',(#386),#361,.T.) ;
#411=ADVANCED_FACE('S3D gedreht',(#410),#392,.T.) ;
#435=ADVANCED_FACE('S3D gedreht',(#434),#416,.F.) ;
#452=ADVANCED_FACE('S3D gedreht',(#451),#440,.T.) ;
#483=ADVANCED_FACE('S3D gedreht',(#482),#457,.T.) ;
#500=ADVANCED_FACE('S3D gedreht',(#499),#339,.F.) ;
#517=ADVANCED_FACE('S3D gedreht',(#516),#339,.F.) ;
#529=ADVANCED_FACE('S3D gedreht',(#528),#522,.F.) ;
#549=ADVANCED_FACE('S3D gedreht',(#548),#534,.T.) ;
#569=ADVANCED_FACE('S3D gedreht',(#568),#554,.F.) ;
#4=APPLICATION_PROTOCOL_DEFINITION('international standard','automotive_design',2001,#1) ;
#21=MANIFOLD_SOLID_BREP('S3D gedreht',#30) ;
#22=DRAUGHTING_PRE_DEFINED_COLOUR('white') ;
#44=EDGE_CURVE('',#41,#43,#39,.T.) ;
#51=EDGE_CURVE('',#41,#50,#48,.T.) ;
#58=EDGE_CURVE('',#50,#57,#55,.T.) ;
#63=EDGE_CURVE('',#43,#57,#62,.T.) ;
#84=EDGE_CURVE('',#81,#83,#79,.T.) ;
#89=EDGE_CURVE('',#81,#41,#88,.T.) ;
#94=EDGE_CURVE('',#83,#43,#93,.T.) ;
#115=EDGE_CURVE('',#112,#114,#110,.T.) ;
#120=EDGE_CURVE('',#112,#81,#119,.T.) ;
#125=EDGE_CURVE('',#114,#83,#124,.T.) ;
#146=EDGE_CURVE('',#143,#145,#141,.T.) ;
#153=EDGE_CURVE('',#152,#145,#150,.T.) ;
#160=EDGE_CURVE('',#159,#152,#157,.T.) ;
#165=EDGE_CURVE('',#159,#143,#164,.T.) ;
#179=EDGE_CURVE('',#178,#143,#176,.T.) ;
#186=EDGE_CURVE('',#185,#159,#183,.T.) ;
#191=EDGE_CURVE('',#185,#178,#190,.T.) ;
#210=EDGE_CURVE('',#209,#178,#207,.T.) ;
#217=EDGE_CURVE('',#216,#185,#214,.T.) ;
#222=EDGE_CURVE('',#216,#209,#221,.T.) ;
#243=EDGE_CURVE('',#240,#242,#238,.T.) ;
#250=EDGE_CURVE('',#240,#249,#247,.T.) ;
#257=EDGE_CURVE('',#249,#256,#254,.T.) ;
#262=EDGE_CURVE('',#242,#256,#261,.T.) ;
#283=EDGE_CURVE('',#280,#282,#278,.F.) ;
#290=EDGE_CURVE('',#289,#282,#287,.T.) ;
#297=EDGE_CURVE('',#296,#289,#294,.F.) ;
#302=EDGE_CURVE('',#296,#280,#301,.T.) ;
#315=EDGE_CURVE('',#314,#240,#312,.F.) ;
#322=EDGE_CURVE('',#321,#242,#319,.F.) ;
#327=EDGE_CURVE('',#314,#321,#326,.T.) ;
#344=EDGE_CURVE('',#256,#114,#343,.F.) ;
#349=EDGE_CURVE('',#249,#112,#348,.F.) ;
#368=EDGE_CURVE('',#282,#367,#365,.F.) ;
#375=EDGE_CURVE('',#374,#280,#372,.F.) ;
#380=EDGE_CURVE('',#367,#374,#379,.T.) ;
#399=EDGE_CURVE('',#398,#367,#396,.T.) ;
#404=EDGE_CURVE('',#289,#398,#403,.F.) ;
#423=EDGE_CURVE('',#398,#422,#420,.T.) ;
#428=EDGE_CURVE('',#422,#296,#427,.F.) ;
#445=EDGE_CURVE('',#422,#374,#444,.T.) ;
#466=EDGE_CURVE('',#463,#465,#461,.T.) ;
#471=EDGE_CURVE('',#463,#314,#470,.T.) ;
#476=EDGE_CURVE('',#465,#321,#475,.T.) ;
#488=EDGE_CURVE('',#50,#152,#487,.F.) ;
#493=EDGE_CURVE('',#57,#145,#492,.F.) ;
#505=EDGE_CURVE('',#216,#463,#504,.F.) ;
#510=EDGE_CURVE('',#209,#465,#509,.F.) ;
#64=EDGE_LOOP('',(#65,#66,#67,#68)) ;
#95=EDGE_LOOP('',(#96,#97,#98,#99)) ;
#126=EDGE_LOOP('',(#127,#128,#129,#130)) ;
#166=EDGE_LOOP('',(#167,#168,#169,#170)) ;
#192=EDGE_LOOP('',(#193,#194,#195,#196)) ;
#223=EDGE_LOOP('',(#224,#225,#226,#227)) ;
#263=EDGE_LOOP('',(#264,#265,#266,#267)) ;
#303=EDGE_LOOP('',(#304,#305,#306,#307)) ;
#328=EDGE_LOOP('',(#329,#330,#331,#332)) ;
#350=EDGE_LOOP('',(#351,#352,#353,#354)) ;
#381=EDGE_LOOP('',(#382,#383,#384,#385)) ;
#405=EDGE_LOOP('',(#406,#407,#408,#409)) ;
#429=EDGE_LOOP('',(#430,#431,#432,#433)) ;
#446=EDGE_LOOP('',(#447,#448,#449,#450)) ;
#477=EDGE_LOOP('',(#478,#479,#480,#481)) ;
#494=EDGE_LOOP('',(#495,#496,#497,#498)) ;
#511=EDGE_LOOP('',(#512,#513,#514,#515)) ;
#523=EDGE_LOOP('',(#524,#525,#526,#527)) ;
#535=EDGE_LOOP('',(#536,#537,#538,#539,#540,#541,#542,#543,#544,#545,#546,#547)) ;
#555=EDGE_LOOP('',(#556,#557,#558,#559,#560,#561,#562,#563,#564,#565,#566,#567)) ;
#69=FACE_OUTER_BOUND('',#64,.T.) ;
#100=FACE_OUTER_BOUND('',#95,.T.) ;
#131=FACE_OUTER_BOUND('',#126,.T.) ;
#171=FACE_OUTER_BOUND('',#166,.T.) ;
#197=FACE_OUTER_BOUND('',#192,.T.) ;
#228=FACE_OUTER_BOUND('',#223,.T.) ;
#268=FACE_OUTER_BOUND('',#263,.T.) ;
#308=FACE_OUTER_BOUND('',#303,.T.) ;
#355=FACE_OUTER_BOUND('',#350,.T.) ;
#386=FACE_OUTER_BOUND('',#381,.T.) ;
#410=FACE_OUTER_BOUND('',#405,.T.) ;
#434=FACE_OUTER_BOUND('',#429,.T.) ;
#451=FACE_OUTER_BOUND('',#446,.T.) ;
#482=FACE_OUTER_BOUND('',#477,.T.) ;
#499=FACE_OUTER_BOUND('',#494,.T.) ;
#516=FACE_OUTER_BOUND('',#511,.T.) ;
#528=FACE_OUTER_BOUND('',#523,.T.) ;
#548=FACE_OUTER_BOUND('',#535,.T.) ;
#568=FACE_OUTER_BOUND('',#555,.T.) ;
#39=LINE('Line',#36,#38) ;
#48=LINE('Line',#45,#47) ;
#55=LINE('Line',#52,#54) ;
#62=LINE('Line',#59,#61) ;
#79=LINE('Line',#76,#78) ;
#88=LINE('Line',#85,#87) ;
#93=LINE('Line',#90,#92) ;
#110=LINE('Line',#107,#109) ;
#119=LINE('Line',#116,#118) ;
#124=LINE('Line',#121,#123) ;
#141=LINE('Line',#138,#140) ;
#150=LINE('Line',#147,#149) ;
#157=LINE('Line',#154,#156) ;
#164=LINE('Line',#161,#163) ;
#176=LINE('Line',#173,#175) ;
#183=LINE('Line',#180,#182) ;
#190=LINE('Line',#187,#189) ;
#207=LINE('Line',#204,#206) ;
#214=LINE('Line',#211,#213) ;
#221=LINE('Line',#218,#220) ;
#238=LINE('Line',#235,#237) ;
#247=LINE('Line',#244,#246) ;
#254=LINE('Line',#251,#253) ;
#261=LINE('Line',#258,#260) ;
#278=LINE('Line',#275,#277) ;
#287=LINE('Line',#284,#286) ;
#294=LINE('Line',#291,#293) ;
#301=LINE('Line',#298,#300) ;
#312=LINE('Line',#309,#311) ;
#319=LINE('Line',#316,#318) ;
#326=LINE('Line',#323,#325) ;
#343=LINE('Line',#340,#342) ;
#348=LINE('Line',#345,#347) ;
#365=LINE('Line',#362,#364) ;
#372=LINE('Line',#369,#371) ;
#379=LINE('Line',#376,#378) ;
#396=LINE('Line',#393,#395) ;
#403=LINE('Line',#400,#402) ;
#420=LINE('Line',#417,#419) ;
#427=LINE('Line',#424,#426) ;
#444=LINE('Line',#441,#443) ;
#461=LINE('Line',#458,#460) ;
#470=LINE('Line',#467,#469) ;
#475=LINE('Line',#472,#474) ;
#487=LINE('Line',#484,#486) ;
#492=LINE('Line',#489,#491) ;
#504=LINE('Line',#501,#503) ;
#509=LINE('Line',#506,#508) ;
#35=PLANE('',#34) ;
#75=PLANE('',#74) ;
#106=PLANE('',#105) ;
#137=PLANE('',#136) ;
#203=PLANE('',#202) ;
#234=PLANE('',#233) ;
#274=PLANE('',#273) ;
#339=PLANE('',#338) ;
#361=PLANE('',#360) ;
#392=PLANE('',#391) ;
#416=PLANE('',#415) ;
#440=PLANE('',#439) ;
#457=PLANE('',#456) ;
#522=PLANE('',#521) ;
#534=PLANE('',#533) ;
#554=PLANE('',#553) ;
#9=PRODUCT_CATEGORY_RELATIONSHIP(' ',' ',#7,#8) ;
#6=PRODUCT_DEFINITION_FORMATION_WITH_SPECIFIED_SOURCE('',' ',#5,.NOT_KNOWN.) ;
#20=SHAPE_DEFINITION_REPRESENTATION(#11,#19) ;
#41=VERTEX_POINT('',#40) ;
#43=VERTEX_POINT('',#42) ;
#50=VERTEX_POINT('',#49) ;
#57=VERTEX_POINT('',#56) ;
#81=VERTEX_POINT('',#80) ;
#83=VERTEX_POINT('',#82) ;
#112=VERTEX_POINT('',#111) ;
#114=VERTEX_POINT('',#113) ;
#143=VERTEX_POINT('',#142) ;
#145=VERTEX_POINT('',#144) ;
#152=VERTEX_POINT('',#151) ;
#159=VERTEX_POINT('',#158) ;
#178=VERTEX_POINT('',#177) ;
#185=VERTEX_POINT('',#184) ;
#209=VERTEX_POINT('',#208) ;
#216=VERTEX_POINT('',#215) ;
#240=VERTEX_POINT('',#239) ;
#242=VERTEX_POINT('',#241) ;
#249=VERTEX_POINT('',#248) ;
#256=VERTEX_POINT('',#255) ;
#280=VERTEX_POINT('',#279) ;
#282=VERTEX_POINT('',#281) ;
#289=VERTEX_POINT('',#288) ;
#296=VERTEX_POINT('',#295) ;
#314=VERTEX_POINT('',#313) ;
#321=VERTEX_POINT('',#320) ;
#367=VERTEX_POINT('',#366) ;
#374=VERTEX_POINT('',#373) ;
#398=VERTEX_POINT('',#397) ;
#422=VERTEX_POINT('',#421) ;
#463=VERTEX_POINT('',#462) ;
#465=VERTEX_POINT('',#464) ;
#12=(LENGTH_UNIT()NAMED_UNIT(*)SI_UNIT(.MILLI.,.METRE.)) ;
#13=(NAMED_UNIT(*)PLANE_ANGLE_UNIT()SI_UNIT($,.RADIAN.)) ;
#14=(NAMED_UNIT(*)SI_UNIT($,.STERADIAN.)SOLID_ANGLE_UNIT()) ;
#16=(GEOMETRIC_REPRESENTATION_CONTEXT(3)GLOBAL_UNCERTAINTY_ASSIGNED_CONTEXT((#15))GLOBAL_UNIT_ASSIGNED_CONTEXT((#12,#13,#14))REPRESENTATION_CONTEXT(' ',' ')) ;
ENDSEC;
END-ISO-10303-21;
