ISO-10303-21;
HEADER;
FILE_DESCRIPTION(('CATIA V5 STEP Exchange','CAx-IF Rec.Pracs.--- Model Styling and Organization---1.4--- 2014-01-23'),'2;1');

FILE_NAME ('D1456586_0_1806620000_1806620000.stp','2020-01-27T11:48:10+00:00',('none'),('Weidmueller'),'CATIA Version 5-6 Release 2016 SP3 HF44','CATIA V5 STEP AP214','none');

FILE_SCHEMA(('AUTOMOTIVE_DESIGN { 1 0 10303 214 1 1 1 1 }'));

ENDSEC;
DATA;
#5=PRODUCT('1806620000_WQL_2_WF6-10','','',(#2)) ;
#2=PRODUCT_CONTEXT(' ',#1,'mechanical') ;
#1=APPLICATION_CONTEXT('automotive design') ;
#10=PRODUCT_DEFINITION('',' ',#6,#3) ;
#3=PRODUCT_DEFINITION_CONTEXT('part definition',#1,' ') ;
#11=PRODUCT_DEFINITION_SHAPE(' ',' ',#10) ;
#569=MECHANICAL_DESIGN_GEOMETRIC_PRESENTATION_REPRESENTATION(' ',(#29),#16) ;
#19=SHAPE_REPRESENTATION(' ',(#18),#16) ;
#18=AXIS2_PLACEMENT_3D(' ',#17,$,$) ;
#35=AXIS2_PLACEMENT_3D('Plane Axis2P3D',#32,#33,#34) ;
#101=AXIS2_PLACEMENT_3D('Plane Axis2P3D',#98,#99,#100) ;
#132=AXIS2_PLACEMENT_3D('Plane Axis2P3D',#129,#130,#131) ;
#163=AXIS2_PLACEMENT_3D('Plane Axis2P3D',#160,#161,#162) ;
#220=AXIS2_PLACEMENT_3D('Cylinder Axis2P3D',#217,#218,#219) ;
#224=AXIS2_PLACEMENT_3D('Circle Axis2P3D',#222,#223,$) ;
#238=AXIS2_PLACEMENT_3D('Circle Axis2P3D',#236,#237,$) ;
#251=AXIS2_PLACEMENT_3D('Plane Axis2P3D',#248,#249,#250) ;
#282=AXIS2_PLACEMENT_3D('Plane Axis2P3D',#279,#280,#281) ;
#313=AXIS2_PLACEMENT_3D('Plane Axis2P3D',#310,#311,#312) ;
#344=AXIS2_PLACEMENT_3D('Cylinder Axis2P3D',#341,#342,#343) ;
#348=AXIS2_PLACEMENT_3D('Circle Axis2P3D',#346,#347,$) ;
#353=AXIS2_PLACEMENT_3D('Circle Axis2P3D',#351,#352,$) ;
#366=AXIS2_PLACEMENT_3D('Plane Axis2P3D',#363,#364,#365) ;
#383=AXIS2_PLACEMENT_3D('Circle Axis2P3D',#381,#382,$) ;
#392=AXIS2_PLACEMENT_3D('Circle Axis2P3D',#390,#391,$) ;
#401=AXIS2_PLACEMENT_3D('Circle Axis2P3D',#399,#400,$) ;
#410=AXIS2_PLACEMENT_3D('Circle Axis2P3D',#408,#409,$) ;
#421=AXIS2_PLACEMENT_3D('Plane Axis2P3D',#418,#419,#420) ;
#438=AXIS2_PLACEMENT_3D('Circle Axis2P3D',#436,#437,$) ;
#447=AXIS2_PLACEMENT_3D('Circle Axis2P3D',#445,#446,$) ;
#454=AXIS2_PLACEMENT_3D('Circle Axis2P3D',#452,#453,$) ;
#461=AXIS2_PLACEMENT_3D('Circle Axis2P3D',#459,#460,$) ;
#472=AXIS2_PLACEMENT_3D('Circle Axis2P3D',#470,#471,$) ;
#481=AXIS2_PLACEMENT_3D('Circle Axis2P3D',#479,#480,$) ;
#488=AXIS2_PLACEMENT_3D('Circle Axis2P3D',#486,#487,$) ;
#495=AXIS2_PLACEMENT_3D('Circle Axis2P3D',#493,#494,$) ;
#508=AXIS2_PLACEMENT_3D('Cylinder Axis2P3D',#505,#506,#507) ;
#539=AXIS2_PLACEMENT_3D('Cylinder Axis2P3D',#536,#537,#538) ;
#17=CARTESIAN_POINT(' ',(0.,0.,0.)) ;
#32=CARTESIAN_POINT('Axis2P3D Location',(29.4,22.7511576855,3.10862446895E-015)) ;
#37=CARTESIAN_POINT('Line Origine',(29.4,22.4999999998,1.99999980927)) ;
#41=CARTESIAN_POINT('Vertex',(29.4,22.4999999998,3.0442522558E-015)) ;
#43=CARTESIAN_POINT('Vertex',(29.4,22.4999999998,3.99999961853)) ;
#46=CARTESIAN_POINT('Line Origine',(29.4,22.6255788427,3.08170641948E-015)) ;
#50=CARTESIAN_POINT('Vertex',(29.4,22.7511576855,3.09808835475E-015)) ;
#53=CARTESIAN_POINT('Line Origine',(29.4,22.7511576855,1.99999980927)) ;
#57=CARTESIAN_POINT('Vertex',(29.4,22.7511576855,3.99999961853)) ;
#60=CARTESIAN_POINT('Line Origine',(29.4,22.6255788427,3.99999961853)) ;
#72=CARTESIAN_POINT('Line Origine',(29.4,23.8755788427,3.00530466079E-015)) ;
#76=CARTESIAN_POINT('Vertex',(29.4,24.9999999998,3.58013172526E-015)) ;
#79=CARTESIAN_POINT('Line Origine',(29.4,24.9999999998,1.99999980927)) ;
#83=CARTESIAN_POINT('Vertex',(29.4,24.9999999998,3.99999961853)) ;
#86=CARTESIAN_POINT('Line Origine',(29.4,23.8755788427,3.99999961853)) ;
#98=CARTESIAN_POINT('Axis2P3D Location',(-3.4743938069E-015,24.9999999999,5.3290705182E-015)) ;
#103=CARTESIAN_POINT('Line Origine',(14.7,24.9999999999,4.42895512083E-015)) ;
#107=CARTESIAN_POINT('Vertex',(-2.09795793723E-015,24.9999999999,5.38036252002E-015)) ;
#110=CARTESIAN_POINT('Line Origine',(-3.35192913866E-015,24.9999999999,1.99999980927)) ;
#114=CARTESIAN_POINT('Vertex',(-2.09795793723E-015,24.9999999999,3.99999961853)) ;
#117=CARTESIAN_POINT('Line Origine',(14.7,24.9999999999,3.99999961853)) ;
#129=CARTESIAN_POINT('Axis2P3D Location',(-3.4743938069E-015,24.9999999999,5.3290705182E-015)) ;
#134=CARTESIAN_POINT('Line Origine',(-1.37643586967E-015,12.4999999999,2.64967317092E-015)) ;
#138=CARTESIAN_POINT('Vertex',(2.09795793723E-015,-8.62012683456E-011,2.15678254584E-017)) ;
#141=CARTESIAN_POINT('Line Origine',(8.43986735793E-016,-8.61999206923E-011,1.99999980927)) ;
#145=CARTESIAN_POINT('Vertex',(2.09795793723E-015,-8.62030447024E-011,3.99999961853)) ;
#148=CARTESIAN_POINT('Line Origine',(-1.1315065332E-015,12.4999999999,3.99999961853)) ;
#160=CARTESIAN_POINT('Axis2P3D Location',(3.6310335507E-015,1.5607150541E-016,0.)) ;
#165=CARTESIAN_POINT('Line Origine',(14.7,5.34274396455E-016,-9.00115397373E-016)) ;
#169=CARTESIAN_POINT('Vertex',(29.4,1.7763568394E-015,-1.77866296927E-015)) ;
#172=CARTESIAN_POINT('Line Origine',(29.4,4.83773752819E-016,1.99999980927)) ;
#176=CARTESIAN_POINT('Vertex',(29.4,0.,3.99999961853)) ;
#179=CARTESIAN_POINT('Line Origine',(14.7,-3.23132672908E-016,3.99999961853)) ;
#191=CARTESIAN_POINT('Line Origine',(29.4,1.24999999989,-1.50796550666E-015)) ;
#195=CARTESIAN_POINT('Vertex',(29.4,2.49999999987,-1.24278349984E-015)) ;
#198=CARTESIAN_POINT('Line Origine',(29.4,2.49999999987,1.99999980927)) ;
#202=CARTESIAN_POINT('Vertex',(29.4,2.49999999987,3.99999961853)) ;
#205=CARTESIAN_POINT('Line Origine',(29.4,1.24999999989,3.99999961853)) ;
#217=CARTESIAN_POINT('Axis2P3D Location',(31.9,2.49999999987,1.99999980927)) ;
#222=CARTESIAN_POINT('Axis2P3D Location',(31.9,2.49999999987,-1.11022302463E-015)) ;
#226=CARTESIAN_POINT('Vertex',(31.9,4.99999999987,-8.59984880276E-016)) ;
#229=CARTESIAN_POINT('Line Origine',(31.9,4.99999999987,1.99999980927)) ;
#233=CARTESIAN_POINT('Vertex',(31.9,4.99999999987,3.99999961853)) ;
#236=CARTESIAN_POINT('Axis2P3D Location',(31.9,2.49999999987,3.99999961853)) ;
#248=CARTESIAN_POINT('Axis2P3D Location',(48.,4.99999999987,-2.22044604925E-015)) ;
#253=CARTESIAN_POINT('Line Origine',(39.95,4.99999999987,-1.69765871675E-015)) ;
#257=CARTESIAN_POINT('Vertex',(48.,4.99999999987,-1.84582555359E-015)) ;
#260=CARTESIAN_POINT('Line Origine',(48.,4.99999999987,1.99999980927)) ;
#264=CARTESIAN_POINT('Vertex',(48.,4.99999999987,3.99999961853)) ;
#267=CARTESIAN_POINT('Line Origine',(39.95,4.99999999987,3.99999961853)) ;
#279=CARTESIAN_POINT('Axis2P3D Location',(48.,19.9999999998,1.33226762955E-015)) ;
#284=CARTESIAN_POINT('Line Origine',(48.,12.4999999998,-2.75370778821E-016)) ;
#288=CARTESIAN_POINT('Vertex',(48.,19.9999999998,1.36945126315E-015)) ;
#291=CARTESIAN_POINT('Line Origine',(48.,19.9999999998,1.99999980927)) ;
#295=CARTESIAN_POINT('Vertex',(48.,19.9999999998,3.99999961853)) ;
#298=CARTESIAN_POINT('Line Origine',(48.,12.4999999998,3.99999961853)) ;
#310=CARTESIAN_POINT('Axis2P3D Location',(48.,19.9999999999,1.33226762955E-015)) ;
#315=CARTESIAN_POINT('Line Origine',(39.95,19.9999999999,1.85505496206E-015)) ;
#319=CARTESIAN_POINT('Vertex',(31.9,19.9999999999,2.35529193646E-015)) ;
#322=CARTESIAN_POINT('Line Origine',(31.9,19.9999999999,1.99999980927)) ;
#326=CARTESIAN_POINT('Vertex',(31.9,19.9999999999,3.99999961853)) ;
#329=CARTESIAN_POINT('Line Origine',(39.95,19.9999999999,3.99999961853)) ;
#341=CARTESIAN_POINT('Axis2P3D Location',(31.9,22.4999999999,1.99999980927)) ;
#346=CARTESIAN_POINT('Axis2P3D Location',(31.9,22.4999999999,2.88657986403E-015)) ;
#351=CARTESIAN_POINT('Axis2P3D Location',(31.9,22.4999999999,3.99999961853)) ;
#363=CARTESIAN_POINT('Axis2P3D Location',(15.1,12.5,3.99999961853)) ;
#381=CARTESIAN_POINT('Axis2P3D Location',(40.9,12.5,3.99999961853)) ;
#385=CARTESIAN_POINT('Vertex',(40.9,9.19999999998,3.99999961853)) ;
#387=CARTESIAN_POINT('Vertex',(40.9,15.8,3.99999961853)) ;
#390=CARTESIAN_POINT('Axis2P3D Location',(40.9,12.5,3.99999961853)) ;
#399=CARTESIAN_POINT('Axis2P3D Location',(15.1,12.5,3.99999961853)) ;
#403=CARTESIAN_POINT('Vertex',(15.1,7.19999999998,3.99999961853)) ;
#405=CARTESIAN_POINT('Vertex',(15.1,17.8,3.99999961853)) ;
#408=CARTESIAN_POINT('Axis2P3D Location',(15.1,12.5,3.99999961853)) ;
#418=CARTESIAN_POINT('Axis2P3D Location',(15.1,12.5,1.7763568394E-015)) ;
#436=CARTESIAN_POINT('Axis2P3D Location',(40.9,12.5,1.965624685E-016)) ;
#440=CARTESIAN_POINT('Vertex',(40.9,9.19999999998,-3.81469732227E-007)) ;
#442=CARTESIAN_POINT('Vertex',(44.2,12.5,-5.50425335915E-018)) ;
#445=CARTESIAN_POINT('Axis2P3D Location',(40.9,12.5,1.965624685E-016)) ;
#449=CARTESIAN_POINT('Vertex',(40.9,15.8,-3.81469731823E-007)) ;
#452=CARTESIAN_POINT('Axis2P3D Location',(40.9,12.5,1.965624685E-016)) ;
#456=CARTESIAN_POINT('Vertex',(37.6,12.5,3.98629190359E-016)) ;
#459=CARTESIAN_POINT('Axis2P3D Location',(40.9,12.5,1.965624685E-016)) ;
#470=CARTESIAN_POINT('Axis2P3D Location',(15.1,12.5,1.7763568394E-015)) ;
#474=CARTESIAN_POINT('Vertex',(15.1,7.19999999998,-3.81469731461E-007)) ;
#476=CARTESIAN_POINT('Vertex',(20.4,12.5,1.45182543763E-015)) ;
#479=CARTESIAN_POINT('Axis2P3D Location',(15.1,12.5,1.7763568394E-015)) ;
#483=CARTESIAN_POINT('Vertex',(15.1,17.8,-3.81469730812E-007)) ;
#486=CARTESIAN_POINT('Axis2P3D Location',(15.1,12.5,1.7763568394E-015)) ;
#490=CARTESIAN_POINT('Vertex',(9.8,12.5,2.10088824117E-015)) ;
#493=CARTESIAN_POINT('Axis2P3D Location',(15.1,12.5,1.7763568394E-015)) ;
#505=CARTESIAN_POINT('Axis2P3D Location',(15.1,12.5,1.99999961853)) ;
#510=CARTESIAN_POINT('Line Origine',(15.1,7.19999999998,1.99999961853)) ;
#515=CARTESIAN_POINT('Line Origine',(15.1,17.8,1.99999961853)) ;
#536=CARTESIAN_POINT('Axis2P3D Location',(40.9,12.5,1.99999961853)) ;
#541=CARTESIAN_POINT('Line Origine',(40.9,9.19999999998,1.99999961853)) ;
#546=CARTESIAN_POINT('Line Origine',(40.9,15.8,1.99999961853)) ;
#33=DIRECTION('Axis2P3D Direction',(-1.,-2.57280878262E-017,6.12323399574E-017)) ;
#34=DIRECTION('Axis2P3D XDirection',(2.57280878262E-017,-1.,-2.14351787783E-016)) ;
#38=DIRECTION('Vector Direction',(0.,0.,1.)) ;
#47=DIRECTION('Vector Direction',(0.,-1.,-2.14351787783E-016)) ;
#54=DIRECTION('Vector Direction',(0.,0.,1.)) ;
#61=DIRECTION('Vector Direction',(0.,-1.,0.)) ;
#73=DIRECTION('Vector Direction',(0.,-1.,-2.14351787783E-016)) ;
#80=DIRECTION('Vector Direction',(0.,0.,1.)) ;
#87=DIRECTION('Vector Direction',(0.,-1.,-1.97474588157E-016)) ;
#99=DIRECTION('Axis2P3D Direction',(2.57280878262E-017,-1.,-2.14351787783E-016)) ;
#100=DIRECTION('Axis2P3D XDirection',(1.,2.57280878262E-017,-6.12323399574E-017)) ;
#104=DIRECTION('Vector Direction',(1.,0.,-6.12323399574E-017)) ;
#111=DIRECTION('Vector Direction',(6.12323399574E-017,0.,1.)) ;
#118=DIRECTION('Vector Direction',(1.,0.,-6.04203006599E-017)) ;
#130=DIRECTION('Axis2P3D Direction',(-1.,-1.67836634978E-016,6.12323399574E-017)) ;
#131=DIRECTION('Axis2P3D XDirection',(1.67836634978E-016,-1.,-2.14351787783E-016)) ;
#135=DIRECTION('Vector Direction',(1.67836634978E-016,-1.,-2.14351787783E-016)) ;
#142=DIRECTION('Vector Direction',(6.12323399574E-017,-2.14351787784E-016,1.)) ;
#149=DIRECTION('Vector Direction',(1.67836634978E-016,-1.,-2.13162820728E-016)) ;
#161=DIRECTION('Axis2P3D Direction',(2.57280878262E-017,-1.,-2.14351787783E-016)) ;
#162=DIRECTION('Axis2P3D XDirection',(1.,2.57280878262E-017,-6.12323399574E-017)) ;
#166=DIRECTION('Vector Direction',(1.,2.57280878262E-017,-6.12323399574E-017)) ;
#173=DIRECTION('Vector Direction',(0.,-2.14351787783E-016,1.)) ;
#180=DIRECTION('Vector Direction',(1.,2.57280878262E-017,-6.04203006599E-017)) ;
#192=DIRECTION('Vector Direction',(0.,1.,2.14351787783E-016)) ;
#199=DIRECTION('Vector Direction',(0.,-2.22044626101E-016,1.)) ;
#206=DIRECTION('Vector Direction',(0.,1.,1.77635683943E-016)) ;
#218=DIRECTION('Axis2P3D Direction',(6.12323399574E-017,-2.14351787783E-016,1.)) ;
#219=DIRECTION('Axis2P3D XDirection',(-3.14789085977E-012,1.,2.14351787783E-016)) ;
#223=DIRECTION('Axis2P3D Direction',(6.12323399574E-017,-2.14351787783E-016,1.)) ;
#230=DIRECTION('Vector Direction',(0.,-2.22044626101E-016,1.)) ;
#237=DIRECTION('Axis2P3D Direction',(6.12323399574E-017,-2.14351787783E-016,1.)) ;
#249=DIRECTION('Axis2P3D Direction',(-1.91227172242E-016,1.,2.14351787783E-016)) ;
#250=DIRECTION('Axis2P3D XDirection',(-1.,-1.91227172242E-016,6.12323399574E-017)) ;
#254=DIRECTION('Vector Direction',(-1.,-1.65499084416E-016,6.12323399574E-017)) ;
#261=DIRECTION('Vector Direction',(0.,-2.22044626101E-016,1.)) ;
#268=DIRECTION('Vector Direction',(-1.,-1.65499084416E-016,5.51663614721E-017)) ;
#280=DIRECTION('Axis2P3D Direction',(-1.,-2.57280878262E-017,6.12323399574E-017)) ;
#281=DIRECTION('Axis2P3D XDirection',(2.57280878262E-017,-1.,-2.14351787783E-016)) ;
#285=DIRECTION('Vector Direction',(0.,-1.,-2.14351787783E-016)) ;
#292=DIRECTION('Vector Direction',(0.,0.,1.)) ;
#299=DIRECTION('Vector Direction',(0.,-1.,-2.07241631263E-016)) ;
#311=DIRECTION('Axis2P3D Direction',(-3.01559895186E-016,1.,2.14351787783E-016)) ;
#312=DIRECTION('Axis2P3D XDirection',(-1.,-3.01559895186E-016,6.12323399574E-017)) ;
#316=DIRECTION('Vector Direction',(-1.,-2.20665445888E-016,6.12323399574E-017)) ;
#323=DIRECTION('Vector Direction',(0.,0.,1.)) ;
#330=DIRECTION('Vector Direction',(-1.,-2.20665445888E-016,5.51663614721E-017)) ;
#342=DIRECTION('Axis2P3D Direction',(6.12323399574E-017,-2.14351787783E-016,1.)) ;
#343=DIRECTION('Axis2P3D XDirection',(-1.,1.87309343149E-015,6.12323399574E-017)) ;
#347=DIRECTION('Axis2P3D Direction',(6.12323399574E-017,-2.14351787783E-016,1.)) ;
#352=DIRECTION('Axis2P3D Direction',(6.12323399574E-017,-2.14351787783E-016,1.)) ;
#364=DIRECTION('Axis2P3D Direction',(6.12323399574E-017,-2.14351787783E-016,1.)) ;
#365=DIRECTION('Axis2P3D XDirection',(1.,2.57280878262E-017,-6.12323399574E-017)) ;
#382=DIRECTION('Axis2P3D Direction',(6.12323399574E-017,-2.14351787783E-016,1.)) ;
#391=DIRECTION('Axis2P3D Direction',(6.12323399574E-017,-2.14351787783E-016,1.)) ;
#400=DIRECTION('Axis2P3D Direction',(6.12323399574E-017,-2.14351787783E-016,1.)) ;
#409=DIRECTION('Axis2P3D Direction',(6.12323399574E-017,-2.14351787783E-016,1.)) ;
#419=DIRECTION('Axis2P3D Direction',(6.12323399574E-017,-2.14351787783E-016,1.)) ;
#420=DIRECTION('Axis2P3D XDirection',(1.,2.57280878262E-017,-6.12323399574E-017)) ;
#437=DIRECTION('Axis2P3D Direction',(6.12323399574E-017,-2.14351787783E-016,1.)) ;
#446=DIRECTION('Axis2P3D Direction',(6.12323399574E-017,-2.14351787783E-016,1.)) ;
#453=DIRECTION('Axis2P3D Direction',(6.12323399574E-017,-2.14351787783E-016,1.)) ;
#460=DIRECTION('Axis2P3D Direction',(6.12323399574E-017,-2.14351787783E-016,1.)) ;
#471=DIRECTION('Axis2P3D Direction',(6.12323399574E-017,-2.14351787783E-016,1.)) ;
#480=DIRECTION('Axis2P3D Direction',(6.12323399574E-017,-2.14351787783E-016,1.)) ;
#487=DIRECTION('Axis2P3D Direction',(6.12323399574E-017,-2.14351787783E-016,1.)) ;
#494=DIRECTION('Axis2P3D Direction',(6.12323399574E-017,-2.14351787783E-016,1.)) ;
#506=DIRECTION('Axis2P3D Direction',(3.55042521312E-017,-6.12323399574E-017,1.)) ;
#507=DIRECTION('Axis2P3D XDirection',(8.69604277836E-017,-1.,-6.12323399574E-017)) ;
#511=DIRECTION('Vector Direction',(0.,0.,1.)) ;
#516=DIRECTION('Vector Direction',(0.,0.,1.)) ;
#537=DIRECTION('Axis2P3D Direction',(3.55042521312E-017,-6.12323399574E-017,1.)) ;
#538=DIRECTION('Axis2P3D XDirection',(8.69604277836E-017,-1.,-6.12323399574E-017)) ;
#542=DIRECTION('Vector Direction',(0.,0.,1.)) ;
#547=DIRECTION('Vector Direction',(0.,0.,1.)) ;
#30=PRESENTATION_LAYER_ASSIGNMENT('1',' ',(#21)) ;
#8=PRODUCT_RELATED_PRODUCT_CATEGORY('part',$,(#5)) ;
#7=PRODUCT_CATEGORY('part','specification') ;
#29=STYLED_ITEM(' ',(#28),#21) ;
#28=PRESENTATION_STYLE_ASSIGNMENT((#27)) ;
#27=SURFACE_STYLE_USAGE(.BOTH.,#26) ;
#26=SURFACE_SIDE_STYLE(' ',(#25)) ;
#25=SURFACE_STYLE_FILL_AREA(#24) ;
#24=FILL_AREA_STYLE(' ',(#23)) ;
#23=FILL_AREA_STYLE_COLOUR(' ',#22) ;
#39=VECTOR('Line Direction',#38,1.) ;
#48=VECTOR('Line Direction',#47,1.) ;
#55=VECTOR('Line Direction',#54,1.) ;
#62=VECTOR('Line Direction',#61,1.) ;
#74=VECTOR('Line Direction',#73,1.) ;
#81=VECTOR('Line Direction',#80,1.) ;
#88=VECTOR('Line Direction',#87,1.) ;
#105=VECTOR('Line Direction',#104,1.) ;
#112=VECTOR('Line Direction',#111,1.) ;
#119=VECTOR('Line Direction',#118,1.) ;
#136=VECTOR('Line Direction',#135,1.) ;
#143=VECTOR('Line Direction',#142,1.) ;
#150=VECTOR('Line Direction',#149,1.) ;
#167=VECTOR('Line Direction',#166,1.) ;
#174=VECTOR('Line Direction',#173,1.) ;
#181=VECTOR('Line Direction',#180,1.) ;
#193=VECTOR('Line Direction',#192,1.) ;
#200=VECTOR('Line Direction',#199,1.) ;
#207=VECTOR('Line Direction',#206,1.) ;
#231=VECTOR('Line Direction',#230,1.) ;
#255=VECTOR('Line Direction',#254,1.) ;
#262=VECTOR('Line Direction',#261,1.) ;
#269=VECTOR('Line Direction',#268,1.) ;
#286=VECTOR('Line Direction',#285,1.) ;
#293=VECTOR('Line Direction',#292,1.) ;
#300=VECTOR('Line Direction',#299,1.) ;
#317=VECTOR('Line Direction',#316,1.) ;
#324=VECTOR('Line Direction',#323,1.) ;
#331=VECTOR('Line Direction',#330,1.) ;
#512=VECTOR('Line Direction',#511,1.) ;
#517=VECTOR('Line Direction',#516,1.) ;
#543=VECTOR('Line Direction',#542,1.) ;
#548=VECTOR('Line Direction',#547,1.) ;
#15=UNCERTAINTY_MEASURE_WITH_UNIT(LENGTH_MEASURE(0.005),#12,'distance_accuracy_value','CONFUSED CURVE UNCERTAINTY') ;
#568=SHAPE_REPRESENTATION_RELATIONSHIP(' ',' ',#19,#567) ;
#66=ORIENTED_EDGE('',*,*,#45,.F.) ;
#67=ORIENTED_EDGE('',*,*,#52,.T.) ;
#68=ORIENTED_EDGE('',*,*,#59,.T.) ;
#69=ORIENTED_EDGE('',*,*,#64,.F.) ;
#92=ORIENTED_EDGE('',*,*,#59,.F.) ;
#93=ORIENTED_EDGE('',*,*,#78,.T.) ;
#94=ORIENTED_EDGE('',*,*,#85,.T.) ;
#95=ORIENTED_EDGE('',*,*,#90,.F.) ;
#123=ORIENTED_EDGE('',*,*,#85,.F.) ;
#124=ORIENTED_EDGE('',*,*,#109,.T.) ;
#125=ORIENTED_EDGE('',*,*,#116,.T.) ;
#126=ORIENTED_EDGE('',*,*,#121,.F.) ;
#154=ORIENTED_EDGE('',*,*,#116,.F.) ;
#155=ORIENTED_EDGE('',*,*,#140,.T.) ;
#156=ORIENTED_EDGE('',*,*,#147,.T.) ;
#157=ORIENTED_EDGE('',*,*,#152,.F.) ;
#185=ORIENTED_EDGE('',*,*,#147,.F.) ;
#186=ORIENTED_EDGE('',*,*,#171,.T.) ;
#187=ORIENTED_EDGE('',*,*,#178,.T.) ;
#188=ORIENTED_EDGE('',*,*,#183,.F.) ;
#211=ORIENTED_EDGE('',*,*,#178,.F.) ;
#212=ORIENTED_EDGE('',*,*,#197,.T.) ;
#213=ORIENTED_EDGE('',*,*,#204,.T.) ;
#214=ORIENTED_EDGE('',*,*,#209,.F.) ;
#242=ORIENTED_EDGE('',*,*,#204,.F.) ;
#243=ORIENTED_EDGE('',*,*,#228,.T.) ;
#244=ORIENTED_EDGE('',*,*,#235,.T.) ;
#245=ORIENTED_EDGE('',*,*,#240,.F.) ;
#273=ORIENTED_EDGE('',*,*,#235,.F.) ;
#274=ORIENTED_EDGE('',*,*,#259,.T.) ;
#275=ORIENTED_EDGE('',*,*,#266,.T.) ;
#276=ORIENTED_EDGE('',*,*,#271,.F.) ;
#304=ORIENTED_EDGE('',*,*,#266,.F.) ;
#305=ORIENTED_EDGE('',*,*,#290,.T.) ;
#306=ORIENTED_EDGE('',*,*,#297,.T.) ;
#307=ORIENTED_EDGE('',*,*,#302,.F.) ;
#335=ORIENTED_EDGE('',*,*,#297,.F.) ;
#336=ORIENTED_EDGE('',*,*,#321,.T.) ;
#337=ORIENTED_EDGE('',*,*,#328,.T.) ;
#338=ORIENTED_EDGE('',*,*,#333,.F.) ;
#357=ORIENTED_EDGE('',*,*,#328,.F.) ;
#358=ORIENTED_EDGE('',*,*,#350,.T.) ;
#359=ORIENTED_EDGE('',*,*,#45,.T.) ;
#360=ORIENTED_EDGE('',*,*,#355,.F.) ;
#369=ORIENTED_EDGE('',*,*,#64,.T.) ;
#370=ORIENTED_EDGE('',*,*,#90,.T.) ;
#371=ORIENTED_EDGE('',*,*,#121,.T.) ;
#372=ORIENTED_EDGE('',*,*,#152,.T.) ;
#373=ORIENTED_EDGE('',*,*,#183,.T.) ;
#374=ORIENTED_EDGE('',*,*,#209,.T.) ;
#375=ORIENTED_EDGE('',*,*,#240,.T.) ;
#376=ORIENTED_EDGE('',*,*,#271,.T.) ;
#377=ORIENTED_EDGE('',*,*,#302,.T.) ;
#378=ORIENTED_EDGE('',*,*,#333,.T.) ;
#379=ORIENTED_EDGE('',*,*,#355,.T.) ;
#396=ORIENTED_EDGE('',*,*,#389,.F.) ;
#397=ORIENTED_EDGE('',*,*,#394,.F.) ;
#414=ORIENTED_EDGE('',*,*,#407,.F.) ;
#415=ORIENTED_EDGE('',*,*,#412,.F.) ;
#424=ORIENTED_EDGE('',*,*,#350,.F.) ;
#425=ORIENTED_EDGE('',*,*,#321,.F.) ;
#426=ORIENTED_EDGE('',*,*,#290,.F.) ;
#427=ORIENTED_EDGE('',*,*,#259,.F.) ;
#428=ORIENTED_EDGE('',*,*,#228,.F.) ;
#429=ORIENTED_EDGE('',*,*,#197,.F.) ;
#430=ORIENTED_EDGE('',*,*,#171,.F.) ;
#431=ORIENTED_EDGE('',*,*,#140,.F.) ;
#432=ORIENTED_EDGE('',*,*,#109,.F.) ;
#433=ORIENTED_EDGE('',*,*,#78,.F.) ;
#434=ORIENTED_EDGE('',*,*,#52,.F.) ;
#465=ORIENTED_EDGE('',*,*,#444,.T.) ;
#466=ORIENTED_EDGE('',*,*,#451,.T.) ;
#467=ORIENTED_EDGE('',*,*,#458,.T.) ;
#468=ORIENTED_EDGE('',*,*,#463,.T.) ;
#499=ORIENTED_EDGE('',*,*,#478,.T.) ;
#500=ORIENTED_EDGE('',*,*,#485,.T.) ;
#501=ORIENTED_EDGE('',*,*,#492,.T.) ;
#502=ORIENTED_EDGE('',*,*,#497,.T.) ;
#521=ORIENTED_EDGE('',*,*,#514,.F.) ;
#522=ORIENTED_EDGE('',*,*,#407,.T.) ;
#523=ORIENTED_EDGE('',*,*,#519,.T.) ;
#524=ORIENTED_EDGE('',*,*,#485,.F.) ;
#525=ORIENTED_EDGE('',*,*,#478,.F.) ;
#529=ORIENTED_EDGE('',*,*,#519,.F.) ;
#530=ORIENTED_EDGE('',*,*,#412,.T.) ;
#531=ORIENTED_EDGE('',*,*,#514,.T.) ;
#532=ORIENTED_EDGE('',*,*,#497,.F.) ;
#533=ORIENTED_EDGE('',*,*,#492,.F.) ;
#552=ORIENTED_EDGE('',*,*,#545,.F.) ;
#553=ORIENTED_EDGE('',*,*,#389,.T.) ;
#554=ORIENTED_EDGE('',*,*,#550,.T.) ;
#555=ORIENTED_EDGE('',*,*,#451,.F.) ;
#556=ORIENTED_EDGE('',*,*,#444,.F.) ;
#560=ORIENTED_EDGE('',*,*,#550,.F.) ;
#561=ORIENTED_EDGE('',*,*,#394,.T.) ;
#562=ORIENTED_EDGE('',*,*,#545,.T.) ;
#563=ORIENTED_EDGE('',*,*,#463,.F.) ;
#564=ORIENTED_EDGE('',*,*,#458,.F.) ;
#398=FACE_BOUND('',#395,.T.) ;
#416=FACE_BOUND('',#413,.T.) ;
#469=FACE_BOUND('',#464,.T.) ;
#503=FACE_BOUND('',#498,.T.) ;
#31=CLOSED_SHELL('Closed Shell',(#71,#97,#128,#159,#190,#216,#247,#278,#309,#340,#362,#417,#504,#527,#535,#558,#566)) ;
#567=ADVANCED_BREP_SHAPE_REPRESENTATION('NONE',(#21),#16) ;
#71=ADVANCED_FACE('Hauptk\X2\00F6\X0\rper',(#70),#36,.F.) ;
#97=ADVANCED_FACE('Hauptk\X2\00F6\X0\rper',(#96),#36,.F.) ;
#128=ADVANCED_FACE('Hauptk\X2\00F6\X0\rper',(#127),#102,.F.) ;
#159=ADVANCED_FACE('Hauptk\X2\00F6\X0\rper',(#158),#133,.T.) ;
#190=ADVANCED_FACE('Hauptk\X2\00F6\X0\rper',(#189),#164,.T.) ;
#216=ADVANCED_FACE('Hauptk\X2\00F6\X0\rper',(#215),#36,.F.) ;
#247=ADVANCED_FACE('Hauptk\X2\00F6\X0\rper',(#246),#221,.F.) ;
#278=ADVANCED_FACE('Hauptk\X2\00F6\X0\rper',(#277),#252,.F.) ;
#309=ADVANCED_FACE('Hauptk\X2\00F6\X0\rper',(#308),#283,.F.) ;
#340=ADVANCED_FACE('Hauptk\X2\00F6\X0\rper',(#339),#314,.T.) ;
#362=ADVANCED_FACE('Hauptk\X2\00F6\X0\rper',(#361),#345,.F.) ;
#417=ADVANCED_FACE('Hauptk\X2\00F6\X0\rper',(#380,#398,#416),#367,.T.) ;
#504=ADVANCED_FACE('Hauptk\X2\00F6\X0\rper',(#435,#469,#503),#422,.F.) ;
#527=ADVANCED_FACE('Hauptk\X2\00F6\X0\rper',(#526),#509,.F.) ;
#535=ADVANCED_FACE('Hauptk\X2\00F6\X0\rper',(#534),#509,.F.) ;
#558=ADVANCED_FACE('Hauptk\X2\00F6\X0\rper',(#557),#540,.F.) ;
#566=ADVANCED_FACE('Hauptk\X2\00F6\X0\rper',(#565),#540,.F.) ;
#4=APPLICATION_PROTOCOL_DEFINITION('international standard','automotive_design',2001,#1) ;
#21=MANIFOLD_SOLID_BREP('Hauptk\X2\00F6\X0\rper',#31) ;
#225=CIRCLE('generated circle',#224,2.5) ;
#239=CIRCLE('generated circle',#238,2.5) ;
#349=CIRCLE('generated circle',#348,2.5) ;
#354=CIRCLE('generated circle',#353,2.5) ;
#384=CIRCLE('generated circle',#383,3.3) ;
#393=CIRCLE('generated circle',#392,3.3) ;
#402=CIRCLE('generated circle',#401,5.3) ;
#411=CIRCLE('generated circle',#410,5.3) ;
#439=CIRCLE('generated circle',#438,3.3) ;
#448=CIRCLE('generated circle',#447,3.3) ;
#455=CIRCLE('generated circle',#454,3.3) ;
#462=CIRCLE('generated circle',#461,3.3) ;
#473=CIRCLE('generated circle',#472,5.3) ;
#482=CIRCLE('generated circle',#481,5.3) ;
#489=CIRCLE('generated circle',#488,5.3) ;
#496=CIRCLE('generated circle',#495,5.3) ;
#22=COLOUR_RGB('Colour',0.690196078431,0.690196078431,0.690196078431) ;
#221=CYLINDRICAL_SURFACE('generated cylinder',#220,2.5) ;
#345=CYLINDRICAL_SURFACE('generated cylinder',#344,2.5) ;
#509=CYLINDRICAL_SURFACE('generated cylinder',#508,5.3) ;
#540=CYLINDRICAL_SURFACE('generated cylinder',#539,3.3) ;
#45=EDGE_CURVE('',#42,#44,#40,.T.) ;
#52=EDGE_CURVE('',#42,#51,#49,.F.) ;
#59=EDGE_CURVE('',#51,#58,#56,.T.) ;
#64=EDGE_CURVE('',#44,#58,#63,.F.) ;
#78=EDGE_CURVE('',#51,#77,#75,.F.) ;
#85=EDGE_CURVE('',#77,#84,#82,.T.) ;
#90=EDGE_CURVE('',#58,#84,#89,.F.) ;
#109=EDGE_CURVE('',#77,#108,#106,.F.) ;
#116=EDGE_CURVE('',#108,#115,#113,.T.) ;
#121=EDGE_CURVE('',#84,#115,#120,.F.) ;
#140=EDGE_CURVE('',#108,#139,#137,.T.) ;
#147=EDGE_CURVE('',#139,#146,#144,.T.) ;
#152=EDGE_CURVE('',#115,#146,#151,.T.) ;
#171=EDGE_CURVE('',#139,#170,#168,.T.) ;
#178=EDGE_CURVE('',#170,#177,#175,.T.) ;
#183=EDGE_CURVE('',#146,#177,#182,.T.) ;
#197=EDGE_CURVE('',#170,#196,#194,.T.) ;
#204=EDGE_CURVE('',#196,#203,#201,.T.) ;
#209=EDGE_CURVE('',#177,#203,#208,.T.) ;
#228=EDGE_CURVE('',#196,#227,#225,.F.) ;
#235=EDGE_CURVE('',#227,#234,#232,.T.) ;
#240=EDGE_CURVE('',#203,#234,#239,.F.) ;
#259=EDGE_CURVE('',#227,#258,#256,.F.) ;
#266=EDGE_CURVE('',#258,#265,#263,.T.) ;
#271=EDGE_CURVE('',#234,#265,#270,.F.) ;
#290=EDGE_CURVE('',#258,#289,#287,.F.) ;
#297=EDGE_CURVE('',#289,#296,#294,.T.) ;
#302=EDGE_CURVE('',#265,#296,#301,.F.) ;
#321=EDGE_CURVE('',#289,#320,#318,.T.) ;
#328=EDGE_CURVE('',#320,#327,#325,.T.) ;
#333=EDGE_CURVE('',#296,#327,#332,.T.) ;
#350=EDGE_CURVE('',#320,#42,#349,.F.) ;
#355=EDGE_CURVE('',#327,#44,#354,.F.) ;
#389=EDGE_CURVE('',#386,#388,#384,.T.) ;
#394=EDGE_CURVE('',#388,#386,#393,.T.) ;
#407=EDGE_CURVE('',#404,#406,#402,.T.) ;
#412=EDGE_CURVE('',#406,#404,#411,.T.) ;
#444=EDGE_CURVE('',#441,#443,#439,.T.) ;
#451=EDGE_CURVE('',#443,#450,#448,.T.) ;
#458=EDGE_CURVE('',#450,#457,#455,.T.) ;
#463=EDGE_CURVE('',#457,#441,#462,.T.) ;
#478=EDGE_CURVE('',#475,#477,#473,.T.) ;
#485=EDGE_CURVE('',#477,#484,#482,.T.) ;
#492=EDGE_CURVE('',#484,#491,#489,.T.) ;
#497=EDGE_CURVE('',#491,#475,#496,.T.) ;
#514=EDGE_CURVE('',#404,#475,#513,.F.) ;
#519=EDGE_CURVE('',#406,#484,#518,.F.) ;
#545=EDGE_CURVE('',#386,#441,#544,.F.) ;
#550=EDGE_CURVE('',#388,#450,#549,.F.) ;
#65=EDGE_LOOP('',(#66,#67,#68,#69)) ;
#91=EDGE_LOOP('',(#92,#93,#94,#95)) ;
#122=EDGE_LOOP('',(#123,#124,#125,#126)) ;
#153=EDGE_LOOP('',(#154,#155,#156,#157)) ;
#184=EDGE_LOOP('',(#185,#186,#187,#188)) ;
#210=EDGE_LOOP('',(#211,#212,#213,#214)) ;
#241=EDGE_LOOP('',(#242,#243,#244,#245)) ;
#272=EDGE_LOOP('',(#273,#274,#275,#276)) ;
#303=EDGE_LOOP('',(#304,#305,#306,#307)) ;
#334=EDGE_LOOP('',(#335,#336,#337,#338)) ;
#356=EDGE_LOOP('',(#357,#358,#359,#360)) ;
#368=EDGE_LOOP('',(#369,#370,#371,#372,#373,#374,#375,#376,#377,#378,#379)) ;
#395=EDGE_LOOP('',(#396,#397)) ;
#413=EDGE_LOOP('',(#414,#415)) ;
#423=EDGE_LOOP('',(#424,#425,#426,#427,#428,#429,#430,#431,#432,#433,#434)) ;
#464=EDGE_LOOP('',(#465,#466,#467,#468)) ;
#498=EDGE_LOOP('',(#499,#500,#501,#502)) ;
#520=EDGE_LOOP('',(#521,#522,#523,#524,#525)) ;
#528=EDGE_LOOP('',(#529,#530,#531,#532,#533)) ;
#551=EDGE_LOOP('',(#552,#553,#554,#555,#556)) ;
#559=EDGE_LOOP('',(#560,#561,#562,#563,#564)) ;
#70=FACE_OUTER_BOUND('',#65,.T.) ;
#96=FACE_OUTER_BOUND('',#91,.T.) ;
#127=FACE_OUTER_BOUND('',#122,.T.) ;
#158=FACE_OUTER_BOUND('',#153,.T.) ;
#189=FACE_OUTER_BOUND('',#184,.T.) ;
#215=FACE_OUTER_BOUND('',#210,.T.) ;
#246=FACE_OUTER_BOUND('',#241,.T.) ;
#277=FACE_OUTER_BOUND('',#272,.T.) ;
#308=FACE_OUTER_BOUND('',#303,.T.) ;
#339=FACE_OUTER_BOUND('',#334,.T.) ;
#361=FACE_OUTER_BOUND('',#356,.T.) ;
#380=FACE_OUTER_BOUND('',#368,.T.) ;
#435=FACE_OUTER_BOUND('',#423,.T.) ;
#526=FACE_OUTER_BOUND('',#520,.T.) ;
#534=FACE_OUTER_BOUND('',#528,.T.) ;
#557=FACE_OUTER_BOUND('',#551,.T.) ;
#565=FACE_OUTER_BOUND('',#559,.T.) ;
#40=LINE('Line',#37,#39) ;
#49=LINE('Line',#46,#48) ;
#56=LINE('Line',#53,#55) ;
#63=LINE('Line',#60,#62) ;
#75=LINE('Line',#72,#74) ;
#82=LINE('Line',#79,#81) ;
#89=LINE('Line',#86,#88) ;
#106=LINE('Line',#103,#105) ;
#113=LINE('Line',#110,#112) ;
#120=LINE('Line',#117,#119) ;
#137=LINE('Line',#134,#136) ;
#144=LINE('Line',#141,#143) ;
#151=LINE('Line',#148,#150) ;
#168=LINE('Line',#165,#167) ;
#175=LINE('Line',#172,#174) ;
#182=LINE('Line',#179,#181) ;
#194=LINE('Line',#191,#193) ;
#201=LINE('Line',#198,#200) ;
#208=LINE('Line',#205,#207) ;
#232=LINE('Line',#229,#231) ;
#256=LINE('Line',#253,#255) ;
#263=LINE('Line',#260,#262) ;
#270=LINE('Line',#267,#269) ;
#287=LINE('Line',#284,#286) ;
#294=LINE('Line',#291,#293) ;
#301=LINE('Line',#298,#300) ;
#318=LINE('Line',#315,#317) ;
#325=LINE('Line',#322,#324) ;
#332=LINE('Line',#329,#331) ;
#513=LINE('Line',#510,#512) ;
#518=LINE('Line',#515,#517) ;
#544=LINE('Line',#541,#543) ;
#549=LINE('Line',#546,#548) ;
#36=PLANE('',#35) ;
#102=PLANE('',#101) ;
#133=PLANE('',#132) ;
#164=PLANE('',#163) ;
#252=PLANE('',#251) ;
#283=PLANE('',#282) ;
#314=PLANE('',#313) ;
#367=PLANE('',#366) ;
#422=PLANE('',#421) ;
#9=PRODUCT_CATEGORY_RELATIONSHIP(' ',' ',#7,#8) ;
#6=PRODUCT_DEFINITION_FORMATION_WITH_SPECIFIED_SOURCE('',' ',#5,.NOT_KNOWN.) ;
#20=SHAPE_DEFINITION_REPRESENTATION(#11,#19) ;
#42=VERTEX_POINT('',#41) ;
#44=VERTEX_POINT('',#43) ;
#51=VERTEX_POINT('',#50) ;
#58=VERTEX_POINT('',#57) ;
#77=VERTEX_POINT('',#76) ;
#84=VERTEX_POINT('',#83) ;
#108=VERTEX_POINT('',#107) ;
#115=VERTEX_POINT('',#114) ;
#139=VERTEX_POINT('',#138) ;
#146=VERTEX_POINT('',#145) ;
#170=VERTEX_POINT('',#169) ;
#177=VERTEX_POINT('',#176) ;
#196=VERTEX_POINT('',#195) ;
#203=VERTEX_POINT('',#202) ;
#227=VERTEX_POINT('',#226) ;
#234=VERTEX_POINT('',#233) ;
#258=VERTEX_POINT('',#257) ;
#265=VERTEX_POINT('',#264) ;
#289=VERTEX_POINT('',#288) ;
#296=VERTEX_POINT('',#295) ;
#320=VERTEX_POINT('',#319) ;
#327=VERTEX_POINT('',#326) ;
#386=VERTEX_POINT('',#385) ;
#388=VERTEX_POINT('',#387) ;
#404=VERTEX_POINT('',#403) ;
#406=VERTEX_POINT('',#405) ;
#441=VERTEX_POINT('',#440) ;
#443=VERTEX_POINT('',#442) ;
#450=VERTEX_POINT('',#449) ;
#457=VERTEX_POINT('',#456) ;
#475=VERTEX_POINT('',#474) ;
#477=VERTEX_POINT('',#476) ;
#484=VERTEX_POINT('',#483) ;
#491=VERTEX_POINT('',#490) ;
#12=(LENGTH_UNIT()NAMED_UNIT(*)SI_UNIT(.MILLI.,.METRE.)) ;
#13=(NAMED_UNIT(*)PLANE_ANGLE_UNIT()SI_UNIT($,.RADIAN.)) ;
#14=(NAMED_UNIT(*)SI_UNIT($,.STERADIAN.)SOLID_ANGLE_UNIT()) ;
#16=(GEOMETRIC_REPRESENTATION_CONTEXT(3)GLOBAL_UNCERTAINTY_ASSIGNED_CONTEXT((#15))GLOBAL_UNIT_ASSIGNED_CONTEXT((#12,#13,#14))REPRESENTATION_CONTEXT(' ',' ')) ;
ENDSEC;
END-ISO-10303-21;
