ISO-10303-21;
HEADER;
FILE_DESCRIPTION(('CATIA V5R19 STEP'),'2;1');

FILE_NAME ('D1446187_0_1000380000_1000380000.stp','2015-02-16T15:35:16+00:00',('none'),('Weidmueller'),'CATIA Version 5 Release 20 SP 5 (IN-10)','CATIA V5 STEP AP214','none');

FILE_SCHEMA(('AUTOMOTIVE_DESIGN { 1 0 10303 214 1 1 1 1 }'));

ENDSEC;
/* file written by CATIA V5R20 */
DATA;
#5=PRODUCT('SFX 10x23','','LEITERMARKIERER\X2\000A\X0\<Q-CHECKER_SEAL> Q-Checker Version 2.14.8  \X2\000A\X0\CATIA-Version         : Catia V5 R20 SP5 Build Date 01-06-2014.17.15\X2\000A\X0\Model size (in KByte) : 0\X2\000A\X0\Checking date         : 2014-12-03 10:12:40\X2\000A\X0\Checking profile      : ADMIN / Release_2D-3D [CATPart]\X2\000A\X0\Model assessment      : In Ordnung (IO)\X2\000A\X0\Total weight sum      : 0\X2\000A\X0\<CROSS_CHECK_SUM>\X2\000A\X0\  <CHKSUM_DATE> 1843266455 </CHKSUM_DATE>\X2\000A\X0\  <CHKSUM_ENTITIES> 36200488 </CHKSUM_ENTITIES>\X2\000A\X0\  <CHKSUM_PROFILE> 1594213346 </CHKSUM_PROFILE>\X2\000A\X0\  <CHKSUM_DIMENSION> -186917087 </CHKSUM_DIMENSION>\X2\000A\X0\  <CHKSUM_PROJINTERSEC> -896974048 </CHKSUM_PROJINTERSEC>\X2\000A\X0\  <CHKSUM_IDENTCRV> -896974048 </CHKSUM_IDENTCRV>\X2\000A\X0\  <CHKSUM_INFINITY> 138018827 </CHKSUM_INFINITY>\X2\000A\X0\</CROSS_CHECK_SUM>\X2\000A\X0\</Q-CHECKER_SEAL> \X2\000A\X0\ \X2\000A\X0\ \X2\000A\X0\ \X2\000A\X0\ \X2\000A\X0\ \X2\000A\X0\ \X2\000A\X0\ \X2\000A\X0\',(#2)) ;
#2=PRODUCT_CONTEXT(' ',#1,'mechanical') ;
#1=APPLICATION_CONTEXT('automotive design') ;
#10=PRODUCT_DEFINITION('43336',' ',#6,#3) ;
#3=PRODUCT_DEFINITION_CONTEXT('part definition',#1,' ') ;
#11=PRODUCT_DEFINITION_SHAPE(' ',' ',#10) ;
#586=MECHANICAL_DESIGN_GEOMETRIC_PRESENTATION_REPRESENTATION(' ',(#30),#17) ;
#20=SHAPE_REPRESENTATION(' ',(#19),#17) ;
#19=AXIS2_PLACEMENT_3D(' ',#18,$,$) ;
#35=AXIS2_PLACEMENT_3D('Plane Axis2P3D',#32,#33,#34) ;
#75=AXIS2_PLACEMENT_3D('Plane Axis2P3D',#72,#73,#74) ;
#106=AXIS2_PLACEMENT_3D('Plane Axis2P3D',#103,#104,#105) ;
#137=AXIS2_PLACEMENT_3D('Plane Axis2P3D',#134,#135,#136) ;
#168=AXIS2_PLACEMENT_3D('Plane Axis2P3D',#165,#166,#167) ;
#199=AXIS2_PLACEMENT_3D('Plane Axis2P3D',#196,#197,#198) ;
#230=AXIS2_PLACEMENT_3D('Plane Axis2P3D',#227,#228,#229) ;
#261=AXIS2_PLACEMENT_3D('Plane Axis2P3D',#258,#259,#260) ;
#283=AXIS2_PLACEMENT_3D('Plane Axis2P3D',#280,#281,#282) ;
#323=AXIS2_PLACEMENT_3D('Plane Axis2P3D',#320,#321,#322) ;
#354=AXIS2_PLACEMENT_3D('Plane Axis2P3D',#351,#352,#353) ;
#385=AXIS2_PLACEMENT_3D('Plane Axis2P3D',#382,#383,#384) ;
#407=AXIS2_PLACEMENT_3D('Plane Axis2P3D',#404,#405,#406) ;
#447=AXIS2_PLACEMENT_3D('Plane Axis2P3D',#444,#445,#446) ;
#478=AXIS2_PLACEMENT_3D('Plane Axis2P3D',#475,#476,#477) ;
#509=AXIS2_PLACEMENT_3D('Plane Axis2P3D',#506,#507,#508) ;
#531=AXIS2_PLACEMENT_3D('Plane Axis2P3D',#528,#529,#530) ;
#559=AXIS2_PLACEMENT_3D('Plane Axis2P3D',#556,#557,#558) ;
#18=CARTESIAN_POINT(' ',(0.,0.,0.)) ;
#32=CARTESIAN_POINT('Axis2P3D Location',(3.29964378533,23.,1.)) ;
#37=CARTESIAN_POINT('Line Origine',(8.881784197E-016,13.9286723736,0.5)) ;
#41=CARTESIAN_POINT('Vertex',(1.7763568394E-015,13.9286723736,1.)) ;
#43=CARTESIAN_POINT('Vertex',(1.7763568394E-015,13.9286723736,-2.55865560581E-015)) ;
#46=CARTESIAN_POINT('Line Origine',(1.64982189267,18.4643361868,1.)) ;
#50=CARTESIAN_POINT('Vertex',(3.29964378533,23.,1.)) ;
#53=CARTESIAN_POINT('Line Origine',(3.29964378533,23.,0.5)) ;
#57=CARTESIAN_POINT('Vertex',(3.29964378533,23.,-4.22503145706E-015)) ;
#60=CARTESIAN_POINT('Line Origine',(1.64982189267,18.4643361868,-3.38618022511E-015)) ;
#72=CARTESIAN_POINT('Axis2P3D Location',(7.70035621467,23.,1.)) ;
#77=CARTESIAN_POINT('Line Origine',(5.5,23.,1.)) ;
#81=CARTESIAN_POINT('Vertex',(7.70035621467,23.,1.)) ;
#84=CARTESIAN_POINT('Line Origine',(7.70035621467,23.,0.5)) ;
#88=CARTESIAN_POINT('Vertex',(7.70035621467,23.,-4.22503145706E-015)) ;
#91=CARTESIAN_POINT('Line Origine',(5.5,23.,-4.21884749358E-015)) ;
#103=CARTESIAN_POINT('Axis2P3D Location',(7.70035621467,23.,1.)) ;
#108=CARTESIAN_POINT('Line Origine',(9.35017810733,18.4643361868,1.)) ;
#112=CARTESIAN_POINT('Vertex',(11.,13.9286723736,1.)) ;
#115=CARTESIAN_POINT('Line Origine',(11.,13.9286723736,0.5)) ;
#119=CARTESIAN_POINT('Vertex',(11.,13.9286723736,-2.55865560581E-015)) ;
#122=CARTESIAN_POINT('Line Origine',(9.35017810733,18.4643361868,-3.38618022511E-015)) ;
#134=CARTESIAN_POINT('Axis2P3D Location',(11.,13.9286723736,1.)) ;
#139=CARTESIAN_POINT('Line Origine',(11.,11.5,1.)) ;
#143=CARTESIAN_POINT('Vertex',(11.,9.07132762638,1.)) ;
#146=CARTESIAN_POINT('Line Origine',(11.,9.07132762638,0.5)) ;
#150=CARTESIAN_POINT('Vertex',(11.,9.07132762638,-1.66637585125E-015)) ;
#153=CARTESIAN_POINT('Line Origine',(11.,11.5,-2.10942374679E-015)) ;
#165=CARTESIAN_POINT('Axis2P3D Location',(11.,9.07132762638,1.)) ;
#170=CARTESIAN_POINT('Line Origine',(9.35017810733,4.53566381319,1.)) ;
#174=CARTESIAN_POINT('Vertex',(7.70035621467,0.,1.)) ;
#177=CARTESIAN_POINT('Line Origine',(7.70035621467,-1.86820534934E-015,0.5)) ;
#181=CARTESIAN_POINT('Vertex',(7.70035621467,-1.83697019872E-016,0.)) ;
#184=CARTESIAN_POINT('Line Origine',(9.35017810733,4.53566381319,-8.32667268469E-016)) ;
#196=CARTESIAN_POINT('Axis2P3D Location',(3.29964378533,-3.33066907388E-016,1.)) ;
#201=CARTESIAN_POINT('Line Origine',(5.5,-3.33066907388E-016,1.)) ;
#205=CARTESIAN_POINT('Vertex',(3.29964378533,-3.33066907388E-016,1.)) ;
#208=CARTESIAN_POINT('Line Origine',(3.29964378533,-4.24915417324E-016,0.5)) ;
#212=CARTESIAN_POINT('Vertex',(3.29964378533,-5.1676392726E-016,6.11833983051E-032)) ;
#215=CARTESIAN_POINT('Line Origine',(5.5,-5.1676392726E-016,0.)) ;
#227=CARTESIAN_POINT('Axis2P3D Location',(1.7763568394E-015,9.07132762638,1.)) ;
#232=CARTESIAN_POINT('Line Origine',(1.64982189267,4.53566381319,1.)) ;
#236=CARTESIAN_POINT('Vertex',(1.7763568394E-015,9.07132762638,1.)) ;
#239=CARTESIAN_POINT('Line Origine',(1.7763568394E-015,9.07132762638,0.5)) ;
#243=CARTESIAN_POINT('Vertex',(1.7763568394E-015,9.07132762638,-1.66637585125E-015)) ;
#246=CARTESIAN_POINT('Line Origine',(1.64982189267,4.53566381319,-8.32667268469E-016)) ;
#258=CARTESIAN_POINT('Axis2P3D Location',(2.6645352591E-015,9.07132762638,1.)) ;
#263=CARTESIAN_POINT('Line Origine',(2.6645352591E-015,11.5,1.)) ;
#268=CARTESIAN_POINT('Line Origine',(2.6645352591E-015,11.5,-2.10942374679E-015)) ;
#280=CARTESIAN_POINT('Axis2P3D Location',(3.,14.7742918852,1.)) ;
#285=CARTESIAN_POINT('Line Origine',(2.05,14.345446467,-2.60902410787E-015)) ;
#289=CARTESIAN_POINT('Vertex',(1.1,13.9166010489,-2.55643813942E-015)) ;
#291=CARTESIAN_POINT('Vertex',(3.,14.7742918852,-2.71399339003E-015)) ;
#294=CARTESIAN_POINT('Line Origine',(3.,14.7742918852,0.5)) ;
#298=CARTESIAN_POINT('Vertex',(3.,14.7742918852,1.)) ;
#301=CARTESIAN_POINT('Line Origine',(2.05,14.345446467,1.)) ;
#305=CARTESIAN_POINT('Vertex',(1.1,13.9166010489,1.)) ;
#308=CARTESIAN_POINT('Line Origine',(1.1,13.9166010489,0.5)) ;
#320=CARTESIAN_POINT('Axis2P3D Location',(1.1,9.08339895115,1.)) ;
#325=CARTESIAN_POINT('Line Origine',(1.1,11.5,-2.10942374679E-015)) ;
#329=CARTESIAN_POINT('Vertex',(1.1,9.08339895115,-1.66859331764E-015)) ;
#332=CARTESIAN_POINT('Line Origine',(1.1,11.5,1.)) ;
#336=CARTESIAN_POINT('Vertex',(1.1,9.08339895115,1.)) ;
#339=CARTESIAN_POINT('Line Origine',(1.1,9.08339895115,0.5)) ;
#351=CARTESIAN_POINT('Axis2P3D Location',(1.1,9.08339895115,1.)) ;
#356=CARTESIAN_POINT('Line Origine',(2.05,8.65455353299,-1.60982338571E-015)) ;
#360=CARTESIAN_POINT('Vertex',(3.,8.22570811482,-1.51103806703E-015)) ;
#363=CARTESIAN_POINT('Line Origine',(2.05,8.65455353299,1.)) ;
#367=CARTESIAN_POINT('Vertex',(3.,8.22570811482,1.)) ;
#370=CARTESIAN_POINT('Line Origine',(3.,8.22570811482,0.5)) ;
#382=CARTESIAN_POINT('Axis2P3D Location',(3.,14.7742918852,1.)) ;
#387=CARTESIAN_POINT('Line Origine',(3.,11.5,-2.05391259556E-015)) ;
#392=CARTESIAN_POINT('Line Origine',(3.,11.5,1.)) ;
#404=CARTESIAN_POINT('Axis2P3D Location',(8.,14.7742918852,1.)) ;
#409=CARTESIAN_POINT('Line Origine',(8.,11.5,-2.05391259556E-015)) ;
#413=CARTESIAN_POINT('Vertex',(8.,8.22570811482,-1.51103806703E-015)) ;
#415=CARTESIAN_POINT('Vertex',(8.,14.7742918852,-2.71399339003E-015)) ;
#418=CARTESIAN_POINT('Line Origine',(8.,14.7742918852,0.5)) ;
#422=CARTESIAN_POINT('Vertex',(8.,14.7742918852,1.)) ;
#425=CARTESIAN_POINT('Line Origine',(8.,11.5,1.)) ;
#429=CARTESIAN_POINT('Vertex',(8.,8.22570811482,1.)) ;
#432=CARTESIAN_POINT('Line Origine',(8.,8.22570811482,0.5)) ;
#444=CARTESIAN_POINT('Axis2P3D Location',(9.9,9.08339895115,1.)) ;
#449=CARTESIAN_POINT('Line Origine',(8.95,8.65455353299,-1.60982338571E-015)) ;
#453=CARTESIAN_POINT('Vertex',(9.9,9.08339895115,-1.66859331764E-015)) ;
#456=CARTESIAN_POINT('Line Origine',(8.95,8.65455353299,1.)) ;
#460=CARTESIAN_POINT('Vertex',(9.9,9.08339895115,1.)) ;
#463=CARTESIAN_POINT('Line Origine',(9.9,9.08339895115,0.5)) ;
#475=CARTESIAN_POINT('Axis2P3D Location',(9.9,9.08339895115,1.)) ;
#480=CARTESIAN_POINT('Line Origine',(9.9,11.5,-2.10942374679E-015)) ;
#484=CARTESIAN_POINT('Vertex',(9.9,13.9166010489,-2.55643813942E-015)) ;
#487=CARTESIAN_POINT('Line Origine',(9.9,11.5,1.)) ;
#491=CARTESIAN_POINT('Vertex',(9.9,13.9166010489,1.)) ;
#494=CARTESIAN_POINT('Line Origine',(9.9,13.9166010489,0.5)) ;
#506=CARTESIAN_POINT('Axis2P3D Location',(8.,14.7742918852,1.)) ;
#511=CARTESIAN_POINT('Line Origine',(8.95,14.345446467,-2.60902410787E-015)) ;
#516=CARTESIAN_POINT('Line Origine',(8.95,14.345446467,1.)) ;
#528=CARTESIAN_POINT('Axis2P3D Location',(5.5,0.,1.)) ;
#556=CARTESIAN_POINT('Axis2P3D Location',(5.5,-1.83697019872E-016,0.)) ;
#33=DIRECTION('Axis2P3D Direction',(0.939760839501,-0.341832655756,6.27936401573E-017)) ;
#34=DIRECTION('Axis2P3D XDirection',(-0.341832655756,-0.939760839501,1.72631265609E-016)) ;
#38=DIRECTION('Vector Direction',(0.,0.,-1.)) ;
#47=DIRECTION('Vector Direction',(-0.341832655756,-0.939760839501,1.72523388741E-016)) ;
#54=DIRECTION('Vector Direction',(0.,0.,-1.)) ;
#61=DIRECTION('Vector Direction',(-0.341832655756,-0.939760839501,1.72523388741E-016)) ;
#73=DIRECTION('Axis2P3D Direction',(-0.,-1.,1.83697019872E-016)) ;
#74=DIRECTION('Axis2P3D XDirection',(-1.,0.,-0.)) ;
#78=DIRECTION('Vector Direction',(-1.,0.,0.)) ;
#85=DIRECTION('Vector Direction',(0.,0.,-1.)) ;
#92=DIRECTION('Vector Direction',(-1.,0.,0.)) ;
#104=DIRECTION('Axis2P3D Direction',(0.939760839501,0.341832655756,-6.27936401573E-017)) ;
#105=DIRECTION('Axis2P3D XDirection',(0.341832655756,-0.939760839501,1.72631265609E-016)) ;
#109=DIRECTION('Vector Direction',(0.341832655756,-0.939760839501,1.72523388741E-016)) ;
#116=DIRECTION('Vector Direction',(0.,0.,-1.)) ;
#123=DIRECTION('Vector Direction',(0.341832655756,-0.939760839501,1.72523388741E-016)) ;
#135=DIRECTION('Axis2P3D Direction',(1.,0.,0.)) ;
#136=DIRECTION('Axis2P3D XDirection',(0.,-1.,1.83697019872E-016)) ;
#140=DIRECTION('Vector Direction',(0.,-1.,1.82852662498E-016)) ;
#147=DIRECTION('Vector Direction',(0.,0.,-1.)) ;
#154=DIRECTION('Vector Direction',(0.,-1.,1.82852662498E-016)) ;
#166=DIRECTION('Axis2P3D Direction',(0.939760839501,-0.341832655756,6.27936401573E-017)) ;
#167=DIRECTION('Axis2P3D XDirection',(-0.341832655756,-0.939760839501,1.72631265609E-016)) ;
#171=DIRECTION('Vector Direction',(-0.341832655756,-0.939760839501,1.72523388741E-016)) ;
#178=DIRECTION('Vector Direction',(0.,-1.83697019872E-016,-1.)) ;
#185=DIRECTION('Vector Direction',(-0.341832655756,-0.939760839501,1.72523388741E-016)) ;
#197=DIRECTION('Axis2P3D Direction',(0.,1.,-1.83697019872E-016)) ;
#198=DIRECTION('Axis2P3D XDirection',(1.,0.,0.)) ;
#202=DIRECTION('Vector Direction',(1.,0.,0.)) ;
#209=DIRECTION('Vector Direction',(0.,-1.83697019872E-016,-1.)) ;
#216=DIRECTION('Vector Direction',(1.,0.,0.)) ;
#228=DIRECTION('Axis2P3D Direction',(0.939760839501,0.341832655756,-6.27936401573E-017)) ;
#229=DIRECTION('Axis2P3D XDirection',(0.341832655756,-0.939760839501,1.72631265609E-016)) ;
#233=DIRECTION('Vector Direction',(0.341832655756,-0.939760839501,1.72523388741E-016)) ;
#240=DIRECTION('Vector Direction',(0.,0.,-1.)) ;
#247=DIRECTION('Vector Direction',(0.341832655756,-0.939760839501,1.72523388741E-016)) ;
#259=DIRECTION('Axis2P3D Direction',(-1.,0.,-0.)) ;
#260=DIRECTION('Axis2P3D XDirection',(0.,1.,-1.83697019872E-016)) ;
#264=DIRECTION('Vector Direction',(0.,1.,-1.82852662498E-016)) ;
#269=DIRECTION('Vector Direction',(0.,1.,-1.82852662498E-016)) ;
#281=DIRECTION('Axis2P3D Direction',(0.411437827766,-0.911437827766,1.67428412759E-016)) ;
#282=DIRECTION('Axis2P3D XDirection',(-0.911437827766,-0.411437827766,7.55799028233E-017)) ;
#286=DIRECTION('Vector Direction',(-0.911437827766,-0.411437827766,5.32578558895E-017)) ;
#295=DIRECTION('Vector Direction',(0.,0.,-1.)) ;
#302=DIRECTION('Vector Direction',(-0.911437827766,-0.411437827766,5.32578558895E-017)) ;
#309=DIRECTION('Vector Direction',(0.,0.,-1.)) ;
#321=DIRECTION('Axis2P3D Direction',(-1.,0.,-0.)) ;
#322=DIRECTION('Axis2P3D XDirection',(0.,1.,-1.83697019872E-016)) ;
#326=DIRECTION('Vector Direction',(0.,1.,-1.83766042004E-016)) ;
#333=DIRECTION('Vector Direction',(0.,1.,-1.83766042004E-016)) ;
#340=DIRECTION('Vector Direction',(0.,0.,-1.)) ;
#352=DIRECTION('Axis2P3D Direction',(0.411437827766,0.911437827766,-1.67428412759E-016)) ;
#353=DIRECTION('Axis2P3D XDirection',(0.911437827766,-0.411437827766,7.55799028233E-017)) ;
#357=DIRECTION('Vector Direction',(0.911437827766,-0.411437827766,5.32578558895E-017)) ;
#364=DIRECTION('Vector Direction',(0.911437827766,-0.411437827766,5.32578558895E-017)) ;
#371=DIRECTION('Vector Direction',(0.,0.,-1.)) ;
#383=DIRECTION('Axis2P3D Direction',(1.,0.,0.)) ;
#384=DIRECTION('Axis2P3D XDirection',(0.,-1.,1.83697019872E-016)) ;
#388=DIRECTION('Vector Direction',(0.,-1.,1.864899908E-016)) ;
#393=DIRECTION('Vector Direction',(0.,-1.,1.864899908E-016)) ;
#405=DIRECTION('Axis2P3D Direction',(1.,0.,0.)) ;
#406=DIRECTION('Axis2P3D XDirection',(0.,-1.,1.83697019872E-016)) ;
#410=DIRECTION('Vector Direction',(0.,-1.,1.864899908E-016)) ;
#419=DIRECTION('Vector Direction',(0.,0.,-1.)) ;
#426=DIRECTION('Vector Direction',(0.,-1.,1.864899908E-016)) ;
#433=DIRECTION('Vector Direction',(0.,0.,-1.)) ;
#445=DIRECTION('Axis2P3D Direction',(0.411437827766,-0.911437827766,1.67428412759E-016)) ;
#446=DIRECTION('Axis2P3D XDirection',(-0.911437827766,-0.411437827766,7.55799028233E-017)) ;
#450=DIRECTION('Vector Direction',(-0.911437827766,-0.411437827766,5.32578558895E-017)) ;
#457=DIRECTION('Vector Direction',(-0.911437827766,-0.411437827766,5.32578558895E-017)) ;
#464=DIRECTION('Vector Direction',(0.,0.,-1.)) ;
#476=DIRECTION('Axis2P3D Direction',(-1.,0.,-0.)) ;
#477=DIRECTION('Axis2P3D XDirection',(0.,1.,-1.83697019872E-016)) ;
#481=DIRECTION('Vector Direction',(0.,1.,-1.83766042004E-016)) ;
#488=DIRECTION('Vector Direction',(0.,1.,-1.83766042004E-016)) ;
#495=DIRECTION('Vector Direction',(0.,0.,-1.)) ;
#507=DIRECTION('Axis2P3D Direction',(0.411437827766,0.911437827766,-1.67428412759E-016)) ;
#508=DIRECTION('Axis2P3D XDirection',(0.911437827766,-0.411437827766,7.55799028233E-017)) ;
#512=DIRECTION('Vector Direction',(0.911437827766,-0.411437827766,5.32578558895E-017)) ;
#517=DIRECTION('Vector Direction',(0.911437827766,-0.411437827766,5.32578558895E-017)) ;
#529=DIRECTION('Axis2P3D Direction',(0.,-1.83697019872E-016,-1.)) ;
#530=DIRECTION('Axis2P3D XDirection',(-1.,0.,-0.)) ;
#557=DIRECTION('Axis2P3D Direction',(0.,-1.83697019872E-016,-1.)) ;
#558=DIRECTION('Axis2P3D XDirection',(-1.,0.,-0.)) ;
#8=PRODUCT_RELATED_PRODUCT_CATEGORY('part',$,(#5)) ;
#7=PRODUCT_CATEGORY('part','specification') ;
#30=STYLED_ITEM(' ',(#29),#22) ;
#29=PRESENTATION_STYLE_ASSIGNMENT((#28)) ;
#28=SURFACE_STYLE_USAGE(.BOTH.,#27) ;
#27=SURFACE_SIDE_STYLE(' ',(#26)) ;
#26=SURFACE_STYLE_FILL_AREA(#25) ;
#25=FILL_AREA_STYLE(' ',(#24)) ;
#24=FILL_AREA_STYLE_COLOUR(' ',#23) ;
#39=VECTOR('Line Direction',#38,1.) ;
#48=VECTOR('Line Direction',#47,1.) ;
#55=VECTOR('Line Direction',#54,1.) ;
#62=VECTOR('Line Direction',#61,1.) ;
#79=VECTOR('Line Direction',#78,1.) ;
#86=VECTOR('Line Direction',#85,1.) ;
#93=VECTOR('Line Direction',#92,1.) ;
#110=VECTOR('Line Direction',#109,1.) ;
#117=VECTOR('Line Direction',#116,1.) ;
#124=VECTOR('Line Direction',#123,1.) ;
#141=VECTOR('Line Direction',#140,1.) ;
#148=VECTOR('Line Direction',#147,1.) ;
#155=VECTOR('Line Direction',#154,1.) ;
#172=VECTOR('Line Direction',#171,1.) ;
#179=VECTOR('Line Direction',#178,1.) ;
#186=VECTOR('Line Direction',#185,1.) ;
#203=VECTOR('Line Direction',#202,1.) ;
#210=VECTOR('Line Direction',#209,1.) ;
#217=VECTOR('Line Direction',#216,1.) ;
#234=VECTOR('Line Direction',#233,1.) ;
#241=VECTOR('Line Direction',#240,1.) ;
#248=VECTOR('Line Direction',#247,1.) ;
#265=VECTOR('Line Direction',#264,1.) ;
#270=VECTOR('Line Direction',#269,1.) ;
#287=VECTOR('Line Direction',#286,1.) ;
#296=VECTOR('Line Direction',#295,1.) ;
#303=VECTOR('Line Direction',#302,1.) ;
#310=VECTOR('Line Direction',#309,1.) ;
#327=VECTOR('Line Direction',#326,1.) ;
#334=VECTOR('Line Direction',#333,1.) ;
#341=VECTOR('Line Direction',#340,1.) ;
#358=VECTOR('Line Direction',#357,1.) ;
#365=VECTOR('Line Direction',#364,1.) ;
#372=VECTOR('Line Direction',#371,1.) ;
#389=VECTOR('Line Direction',#388,1.) ;
#394=VECTOR('Line Direction',#393,1.) ;
#411=VECTOR('Line Direction',#410,1.) ;
#420=VECTOR('Line Direction',#419,1.) ;
#427=VECTOR('Line Direction',#426,1.) ;
#434=VECTOR('Line Direction',#433,1.) ;
#451=VECTOR('Line Direction',#450,1.) ;
#458=VECTOR('Line Direction',#457,1.) ;
#465=VECTOR('Line Direction',#464,1.) ;
#482=VECTOR('Line Direction',#481,1.) ;
#489=VECTOR('Line Direction',#488,1.) ;
#496=VECTOR('Line Direction',#495,1.) ;
#513=VECTOR('Line Direction',#512,1.) ;
#518=VECTOR('Line Direction',#517,1.) ;
#16=UNCERTAINTY_MEASURE_WITH_UNIT(LENGTH_MEASURE(0.005),#12,'distance_accuracy_value','CONFUSED CURVE UNCERTAINTY') ;
#585=SHAPE_REPRESENTATION_RELATIONSHIP(' ',' ',#20,#584) ;
#66=ORIENTED_EDGE('',*,*,#45,.F.) ;
#67=ORIENTED_EDGE('',*,*,#52,.T.) ;
#68=ORIENTED_EDGE('',*,*,#59,.T.) ;
#69=ORIENTED_EDGE('',*,*,#64,.F.) ;
#97=ORIENTED_EDGE('',*,*,#59,.F.) ;
#98=ORIENTED_EDGE('',*,*,#83,.T.) ;
#99=ORIENTED_EDGE('',*,*,#90,.T.) ;
#100=ORIENTED_EDGE('',*,*,#95,.F.) ;
#128=ORIENTED_EDGE('',*,*,#90,.F.) ;
#129=ORIENTED_EDGE('',*,*,#114,.T.) ;
#130=ORIENTED_EDGE('',*,*,#121,.T.) ;
#131=ORIENTED_EDGE('',*,*,#126,.F.) ;
#159=ORIENTED_EDGE('',*,*,#121,.F.) ;
#160=ORIENTED_EDGE('',*,*,#145,.T.) ;
#161=ORIENTED_EDGE('',*,*,#152,.T.) ;
#162=ORIENTED_EDGE('',*,*,#157,.F.) ;
#190=ORIENTED_EDGE('',*,*,#152,.F.) ;
#191=ORIENTED_EDGE('',*,*,#176,.T.) ;
#192=ORIENTED_EDGE('',*,*,#183,.T.) ;
#193=ORIENTED_EDGE('',*,*,#188,.F.) ;
#221=ORIENTED_EDGE('',*,*,#183,.F.) ;
#222=ORIENTED_EDGE('',*,*,#207,.T.) ;
#223=ORIENTED_EDGE('',*,*,#214,.T.) ;
#224=ORIENTED_EDGE('',*,*,#219,.F.) ;
#252=ORIENTED_EDGE('',*,*,#214,.F.) ;
#253=ORIENTED_EDGE('',*,*,#238,.T.) ;
#254=ORIENTED_EDGE('',*,*,#245,.T.) ;
#255=ORIENTED_EDGE('',*,*,#250,.F.) ;
#274=ORIENTED_EDGE('',*,*,#245,.F.) ;
#275=ORIENTED_EDGE('',*,*,#267,.T.) ;
#276=ORIENTED_EDGE('',*,*,#45,.T.) ;
#277=ORIENTED_EDGE('',*,*,#272,.F.) ;
#314=ORIENTED_EDGE('',*,*,#293,.T.) ;
#315=ORIENTED_EDGE('',*,*,#300,.F.) ;
#316=ORIENTED_EDGE('',*,*,#307,.F.) ;
#317=ORIENTED_EDGE('',*,*,#312,.T.) ;
#345=ORIENTED_EDGE('',*,*,#331,.T.) ;
#346=ORIENTED_EDGE('',*,*,#312,.F.) ;
#347=ORIENTED_EDGE('',*,*,#338,.F.) ;
#348=ORIENTED_EDGE('',*,*,#343,.T.) ;
#376=ORIENTED_EDGE('',*,*,#362,.T.) ;
#377=ORIENTED_EDGE('',*,*,#343,.F.) ;
#378=ORIENTED_EDGE('',*,*,#369,.F.) ;
#379=ORIENTED_EDGE('',*,*,#374,.T.) ;
#398=ORIENTED_EDGE('',*,*,#391,.T.) ;
#399=ORIENTED_EDGE('',*,*,#374,.F.) ;
#400=ORIENTED_EDGE('',*,*,#396,.F.) ;
#401=ORIENTED_EDGE('',*,*,#300,.T.) ;
#438=ORIENTED_EDGE('',*,*,#417,.T.) ;
#439=ORIENTED_EDGE('',*,*,#424,.F.) ;
#440=ORIENTED_EDGE('',*,*,#431,.F.) ;
#441=ORIENTED_EDGE('',*,*,#436,.T.) ;
#469=ORIENTED_EDGE('',*,*,#455,.T.) ;
#470=ORIENTED_EDGE('',*,*,#436,.F.) ;
#471=ORIENTED_EDGE('',*,*,#462,.F.) ;
#472=ORIENTED_EDGE('',*,*,#467,.T.) ;
#500=ORIENTED_EDGE('',*,*,#486,.T.) ;
#501=ORIENTED_EDGE('',*,*,#467,.F.) ;
#502=ORIENTED_EDGE('',*,*,#493,.F.) ;
#503=ORIENTED_EDGE('',*,*,#498,.T.) ;
#522=ORIENTED_EDGE('',*,*,#515,.T.) ;
#523=ORIENTED_EDGE('',*,*,#498,.F.) ;
#524=ORIENTED_EDGE('',*,*,#520,.F.) ;
#525=ORIENTED_EDGE('',*,*,#424,.T.) ;
#534=ORIENTED_EDGE('',*,*,#267,.F.) ;
#535=ORIENTED_EDGE('',*,*,#238,.F.) ;
#536=ORIENTED_EDGE('',*,*,#207,.F.) ;
#537=ORIENTED_EDGE('',*,*,#176,.F.) ;
#538=ORIENTED_EDGE('',*,*,#145,.F.) ;
#539=ORIENTED_EDGE('',*,*,#114,.F.) ;
#540=ORIENTED_EDGE('',*,*,#83,.F.) ;
#541=ORIENTED_EDGE('',*,*,#52,.F.) ;
#544=ORIENTED_EDGE('',*,*,#396,.T.) ;
#545=ORIENTED_EDGE('',*,*,#369,.T.) ;
#546=ORIENTED_EDGE('',*,*,#338,.T.) ;
#547=ORIENTED_EDGE('',*,*,#307,.T.) ;
#550=ORIENTED_EDGE('',*,*,#520,.T.) ;
#551=ORIENTED_EDGE('',*,*,#493,.T.) ;
#552=ORIENTED_EDGE('',*,*,#462,.T.) ;
#553=ORIENTED_EDGE('',*,*,#431,.T.) ;
#562=ORIENTED_EDGE('',*,*,#64,.T.) ;
#563=ORIENTED_EDGE('',*,*,#95,.T.) ;
#564=ORIENTED_EDGE('',*,*,#126,.T.) ;
#565=ORIENTED_EDGE('',*,*,#157,.T.) ;
#566=ORIENTED_EDGE('',*,*,#188,.T.) ;
#567=ORIENTED_EDGE('',*,*,#219,.T.) ;
#568=ORIENTED_EDGE('',*,*,#250,.T.) ;
#569=ORIENTED_EDGE('',*,*,#272,.T.) ;
#572=ORIENTED_EDGE('',*,*,#293,.F.) ;
#573=ORIENTED_EDGE('',*,*,#331,.F.) ;
#574=ORIENTED_EDGE('',*,*,#362,.F.) ;
#575=ORIENTED_EDGE('',*,*,#391,.F.) ;
#578=ORIENTED_EDGE('',*,*,#417,.F.) ;
#579=ORIENTED_EDGE('',*,*,#455,.F.) ;
#580=ORIENTED_EDGE('',*,*,#486,.F.) ;
#581=ORIENTED_EDGE('',*,*,#515,.F.) ;
#548=FACE_BOUND('',#543,.T.) ;
#554=FACE_BOUND('',#549,.T.) ;
#576=FACE_BOUND('',#571,.T.) ;
#582=FACE_BOUND('',#577,.T.) ;
#31=CLOSED_SHELL('Closed Shell',(#71,#102,#133,#164,#195,#226,#257,#279,#319,#350,#381,#403,#443,#474,#505,#527,#555,#583)) ;
#584=ADVANCED_BREP_SHAPE_REPRESENTATION('NONE',(#22),#17) ;
#71=ADVANCED_FACE('S3D gedreht',(#70),#36,.F.) ;
#102=ADVANCED_FACE('S3D gedreht',(#101),#76,.F.) ;
#133=ADVANCED_FACE('S3D gedreht',(#132),#107,.T.) ;
#164=ADVANCED_FACE('S3D gedreht',(#163),#138,.T.) ;
#195=ADVANCED_FACE('S3D gedreht',(#194),#169,.T.) ;
#226=ADVANCED_FACE('S3D gedreht',(#225),#200,.F.) ;
#257=ADVANCED_FACE('S3D gedreht',(#256),#231,.F.) ;
#279=ADVANCED_FACE('S3D gedreht',(#278),#262,.T.) ;
#319=ADVANCED_FACE('S3D gedreht',(#318),#284,.T.) ;
#350=ADVANCED_FACE('S3D gedreht',(#349),#324,.F.) ;
#381=ADVANCED_FACE('S3D gedreht',(#380),#355,.T.) ;
#403=ADVANCED_FACE('S3D gedreht',(#402),#386,.F.) ;
#443=ADVANCED_FACE('S3D gedreht',(#442),#408,.T.) ;
#474=ADVANCED_FACE('S3D gedreht',(#473),#448,.F.) ;
#505=ADVANCED_FACE('S3D gedreht',(#504),#479,.T.) ;
#527=ADVANCED_FACE('S3D gedreht',(#526),#510,.F.) ;
#555=ADVANCED_FACE('S3D gedreht',(#542,#548,#554),#532,.F.) ;
#583=ADVANCED_FACE('S3D gedreht',(#570,#576,#582),#560,.T.) ;
#4=APPLICATION_PROTOCOL_DEFINITION('international standard','automotive_design',2001,#1) ;
#22=MANIFOLD_SOLID_BREP('S3D gedreht',#31) ;
#23=COLOUR_RGB('Colour',0.647058823529,0.647058823529,0.647058823529) ;
#45=EDGE_CURVE('',#42,#44,#40,.T.) ;
#52=EDGE_CURVE('',#42,#51,#49,.F.) ;
#59=EDGE_CURVE('',#51,#58,#56,.T.) ;
#64=EDGE_CURVE('',#44,#58,#63,.F.) ;
#83=EDGE_CURVE('',#51,#82,#80,.F.) ;
#90=EDGE_CURVE('',#82,#89,#87,.T.) ;
#95=EDGE_CURVE('',#58,#89,#94,.F.) ;
#114=EDGE_CURVE('',#82,#113,#111,.T.) ;
#121=EDGE_CURVE('',#113,#120,#118,.T.) ;
#126=EDGE_CURVE('',#89,#120,#125,.T.) ;
#145=EDGE_CURVE('',#113,#144,#142,.T.) ;
#152=EDGE_CURVE('',#144,#151,#149,.T.) ;
#157=EDGE_CURVE('',#120,#151,#156,.T.) ;
#176=EDGE_CURVE('',#144,#175,#173,.T.) ;
#183=EDGE_CURVE('',#175,#182,#180,.T.) ;
#188=EDGE_CURVE('',#151,#182,#187,.T.) ;
#207=EDGE_CURVE('',#175,#206,#204,.F.) ;
#214=EDGE_CURVE('',#206,#213,#211,.T.) ;
#219=EDGE_CURVE('',#182,#213,#218,.F.) ;
#238=EDGE_CURVE('',#206,#237,#235,.F.) ;
#245=EDGE_CURVE('',#237,#244,#242,.T.) ;
#250=EDGE_CURVE('',#213,#244,#249,.F.) ;
#267=EDGE_CURVE('',#237,#42,#266,.T.) ;
#272=EDGE_CURVE('',#244,#44,#271,.T.) ;
#293=EDGE_CURVE('',#290,#292,#288,.F.) ;
#300=EDGE_CURVE('',#299,#292,#297,.T.) ;
#307=EDGE_CURVE('',#306,#299,#304,.F.) ;
#312=EDGE_CURVE('',#306,#290,#311,.T.) ;
#331=EDGE_CURVE('',#330,#290,#328,.T.) ;
#338=EDGE_CURVE('',#337,#306,#335,.T.) ;
#343=EDGE_CURVE('',#337,#330,#342,.T.) ;
#362=EDGE_CURVE('',#361,#330,#359,.F.) ;
#369=EDGE_CURVE('',#368,#337,#366,.F.) ;
#374=EDGE_CURVE('',#368,#361,#373,.T.) ;
#391=EDGE_CURVE('',#292,#361,#390,.T.) ;
#396=EDGE_CURVE('',#299,#368,#395,.T.) ;
#417=EDGE_CURVE('',#414,#416,#412,.F.) ;
#424=EDGE_CURVE('',#423,#416,#421,.T.) ;
#431=EDGE_CURVE('',#430,#423,#428,.F.) ;
#436=EDGE_CURVE('',#430,#414,#435,.T.) ;
#455=EDGE_CURVE('',#454,#414,#452,.T.) ;
#462=EDGE_CURVE('',#461,#430,#459,.T.) ;
#467=EDGE_CURVE('',#461,#454,#466,.T.) ;
#486=EDGE_CURVE('',#485,#454,#483,.F.) ;
#493=EDGE_CURVE('',#492,#461,#490,.F.) ;
#498=EDGE_CURVE('',#492,#485,#497,.T.) ;
#515=EDGE_CURVE('',#416,#485,#514,.T.) ;
#520=EDGE_CURVE('',#423,#492,#519,.T.) ;
#65=EDGE_LOOP('',(#66,#67,#68,#69)) ;
#96=EDGE_LOOP('',(#97,#98,#99,#100)) ;
#127=EDGE_LOOP('',(#128,#129,#130,#131)) ;
#158=EDGE_LOOP('',(#159,#160,#161,#162)) ;
#189=EDGE_LOOP('',(#190,#191,#192,#193)) ;
#220=EDGE_LOOP('',(#221,#222,#223,#224)) ;
#251=EDGE_LOOP('',(#252,#253,#254,#255)) ;
#273=EDGE_LOOP('',(#274,#275,#276,#277)) ;
#313=EDGE_LOOP('',(#314,#315,#316,#317)) ;
#344=EDGE_LOOP('',(#345,#346,#347,#348)) ;
#375=EDGE_LOOP('',(#376,#377,#378,#379)) ;
#397=EDGE_LOOP('',(#398,#399,#400,#401)) ;
#437=EDGE_LOOP('',(#438,#439,#440,#441)) ;
#468=EDGE_LOOP('',(#469,#470,#471,#472)) ;
#499=EDGE_LOOP('',(#500,#501,#502,#503)) ;
#521=EDGE_LOOP('',(#522,#523,#524,#525)) ;
#533=EDGE_LOOP('',(#534,#535,#536,#537,#538,#539,#540,#541)) ;
#543=EDGE_LOOP('',(#544,#545,#546,#547)) ;
#549=EDGE_LOOP('',(#550,#551,#552,#553)) ;
#561=EDGE_LOOP('',(#562,#563,#564,#565,#566,#567,#568,#569)) ;
#571=EDGE_LOOP('',(#572,#573,#574,#575)) ;
#577=EDGE_LOOP('',(#578,#579,#580,#581)) ;
#70=FACE_OUTER_BOUND('',#65,.T.) ;
#101=FACE_OUTER_BOUND('',#96,.T.) ;
#132=FACE_OUTER_BOUND('',#127,.T.) ;
#163=FACE_OUTER_BOUND('',#158,.T.) ;
#194=FACE_OUTER_BOUND('',#189,.T.) ;
#225=FACE_OUTER_BOUND('',#220,.T.) ;
#256=FACE_OUTER_BOUND('',#251,.T.) ;
#278=FACE_OUTER_BOUND('',#273,.T.) ;
#318=FACE_OUTER_BOUND('',#313,.T.) ;
#349=FACE_OUTER_BOUND('',#344,.T.) ;
#380=FACE_OUTER_BOUND('',#375,.T.) ;
#402=FACE_OUTER_BOUND('',#397,.T.) ;
#442=FACE_OUTER_BOUND('',#437,.T.) ;
#473=FACE_OUTER_BOUND('',#468,.T.) ;
#504=FACE_OUTER_BOUND('',#499,.T.) ;
#526=FACE_OUTER_BOUND('',#521,.T.) ;
#542=FACE_OUTER_BOUND('',#533,.T.) ;
#570=FACE_OUTER_BOUND('',#561,.T.) ;
#40=LINE('Line',#37,#39) ;
#49=LINE('Line',#46,#48) ;
#56=LINE('Line',#53,#55) ;
#63=LINE('Line',#60,#62) ;
#80=LINE('Line',#77,#79) ;
#87=LINE('Line',#84,#86) ;
#94=LINE('Line',#91,#93) ;
#111=LINE('Line',#108,#110) ;
#118=LINE('Line',#115,#117) ;
#125=LINE('Line',#122,#124) ;
#142=LINE('Line',#139,#141) ;
#149=LINE('Line',#146,#148) ;
#156=LINE('Line',#153,#155) ;
#173=LINE('Line',#170,#172) ;
#180=LINE('Line',#177,#179) ;
#187=LINE('Line',#184,#186) ;
#204=LINE('Line',#201,#203) ;
#211=LINE('Line',#208,#210) ;
#218=LINE('Line',#215,#217) ;
#235=LINE('Line',#232,#234) ;
#242=LINE('Line',#239,#241) ;
#249=LINE('Line',#246,#248) ;
#266=LINE('Line',#263,#265) ;
#271=LINE('Line',#268,#270) ;
#288=LINE('Line',#285,#287) ;
#297=LINE('Line',#294,#296) ;
#304=LINE('Line',#301,#303) ;
#311=LINE('Line',#308,#310) ;
#328=LINE('Line',#325,#327) ;
#335=LINE('Line',#332,#334) ;
#342=LINE('Line',#339,#341) ;
#359=LINE('Line',#356,#358) ;
#366=LINE('Line',#363,#365) ;
#373=LINE('Line',#370,#372) ;
#390=LINE('Line',#387,#389) ;
#395=LINE('Line',#392,#394) ;
#412=LINE('Line',#409,#411) ;
#421=LINE('Line',#418,#420) ;
#428=LINE('Line',#425,#427) ;
#435=LINE('Line',#432,#434) ;
#452=LINE('Line',#449,#451) ;
#459=LINE('Line',#456,#458) ;
#466=LINE('Line',#463,#465) ;
#483=LINE('Line',#480,#482) ;
#490=LINE('Line',#487,#489) ;
#497=LINE('Line',#494,#496) ;
#514=LINE('Line',#511,#513) ;
#519=LINE('Line',#516,#518) ;
#36=PLANE('',#35) ;
#76=PLANE('',#75) ;
#107=PLANE('',#106) ;
#138=PLANE('',#137) ;
#169=PLANE('',#168) ;
#200=PLANE('',#199) ;
#231=PLANE('',#230) ;
#262=PLANE('',#261) ;
#284=PLANE('',#283) ;
#324=PLANE('',#323) ;
#355=PLANE('',#354) ;
#386=PLANE('',#385) ;
#408=PLANE('',#407) ;
#448=PLANE('',#447) ;
#479=PLANE('',#478) ;
#510=PLANE('',#509) ;
#532=PLANE('',#531) ;
#560=PLANE('',#559) ;
#14=PLANE_ANGLE_MEASURE_WITH_UNIT(PLANE_ANGLE_MEASURE(0.0174532925199),#13) ;
#9=PRODUCT_CATEGORY_RELATIONSHIP(' ',' ',#7,#8) ;
#6=PRODUCT_DEFINITION_FORMATION_WITH_SPECIFIED_SOURCE('KEINE',' ',#5,.MADE.) ;
#21=SHAPE_DEFINITION_REPRESENTATION(#11,#20) ;
#42=VERTEX_POINT('',#41) ;
#44=VERTEX_POINT('',#43) ;
#51=VERTEX_POINT('',#50) ;
#58=VERTEX_POINT('',#57) ;
#82=VERTEX_POINT('',#81) ;
#89=VERTEX_POINT('',#88) ;
#113=VERTEX_POINT('',#112) ;
#120=VERTEX_POINT('',#119) ;
#144=VERTEX_POINT('',#143) ;
#151=VERTEX_POINT('',#150) ;
#175=VERTEX_POINT('',#174) ;
#182=VERTEX_POINT('',#181) ;
#206=VERTEX_POINT('',#205) ;
#213=VERTEX_POINT('',#212) ;
#237=VERTEX_POINT('',#236) ;
#244=VERTEX_POINT('',#243) ;
#290=VERTEX_POINT('',#289) ;
#292=VERTEX_POINT('',#291) ;
#299=VERTEX_POINT('',#298) ;
#306=VERTEX_POINT('',#305) ;
#330=VERTEX_POINT('',#329) ;
#337=VERTEX_POINT('',#336) ;
#361=VERTEX_POINT('',#360) ;
#368=VERTEX_POINT('',#367) ;
#414=VERTEX_POINT('',#413) ;
#416=VERTEX_POINT('',#415) ;
#423=VERTEX_POINT('',#422) ;
#430=VERTEX_POINT('',#429) ;
#454=VERTEX_POINT('',#453) ;
#461=VERTEX_POINT('',#460) ;
#485=VERTEX_POINT('',#484) ;
#492=VERTEX_POINT('',#491) ;
#12=(LENGTH_UNIT()NAMED_UNIT(*)SI_UNIT(.MILLI.,.METRE.)) ;
#13=(NAMED_UNIT(*)PLANE_ANGLE_UNIT()SI_UNIT($,.RADIAN.)) ;
#15=(NAMED_UNIT(*)SI_UNIT($,.STERADIAN.)SOLID_ANGLE_UNIT()) ;
#17=(GEOMETRIC_REPRESENTATION_CONTEXT(3)GLOBAL_UNCERTAINTY_ASSIGNED_CONTEXT((#16))GLOBAL_UNIT_ASSIGNED_CONTEXT((#12,#13,#15))REPRESENTATION_CONTEXT(' ',' ')) ;
ENDSEC;
END-ISO-10303-21;
