ISO-10303-21;
HEADER;
FILE_DESCRIPTION(('CATIA V5R19 STEP'),'2;1');

FILE_NAME ('D1461443_0', '2015-11-11T13:23:14+00:00', ('Weidmueller Interface'), ('Weidmueller'), 'CATIA Version 5 Release 20 SP 5 (IN-10)', 'CATIA V5 STEP AP214', 'none');

FILE_SCHEMA(('AUTOMOTIVE_DESIGN { 1 0 10303 214 1 1 1 1 }'));

ENDSEC;
/* file written by CATIA V5R20 */
DATA;
#5=PRODUCT('61465_WM_3X6_5-0-8-0_MM','','LEITERMARKIERER\X2\000D\X0\\X2\000A\X0\<Q-CHECKER_SEAL> Q-Checker Version 2.14.8  \X2\000A\X0\CATIA-Version         : Catia V5 R20 SP5 Build Date 01-06-2014.17.15\X2\000A\X0\Model size (in KByte) : 0\X2\000A\X0\Checking date         : 2015-08-12 11:01:30\X2\000A\X0\Checking profile      : ADMIN / Release_2D-3D [CATPart]\X2\000A\X0\Model assessment      : In Ordnung (IO)\X2\000A\X0\Total weight sum      : 0\X2\000A\X0\<CROSS_CHECK_SUM>\X2\000A\X0\  <CHKSUM_DATE> -572617269 </CHKSUM_DATE>\X2\000A\X0\  <CHKSUM_ENTITIES> -1581954954 </CHKSUM_ENTITIES>\X2\000A\X0\  <CHKSUM_PROFILE> 1594213346 </CHKSUM_PROFILE>\X2\000A\X0\  <CHKSUM_DIMENSION> -186917087 </CHKSUM_DIMENSION>\X2\000A\X0\  <CHKSUM_PROJINTERSEC> -896974048 </CHKSUM_PROJINTERSEC>\X2\000A\X0\  <CHKSUM_IDENTCRV> -896974048 </CHKSUM_IDENTCRV>\X2\000A\X0\  <CHKSUM_INFINITY> 138018827 </CHKSUM_INFINITY>\X2\000A\X0\</CROSS_CHECK_SUM>\X2\000A\X0\</Q-CHECKER_SEAL> \X2\000A\X0\ \X2\000D\X0\\X2\000A\X0\ \X2\000D\X0\\X2\000A\X0\ \X2\000D\X0\\X2\000A\X0\ \X2\000D\X0\\X2\000A\X0\',(#2)) ;
#2=PRODUCT_CONTEXT(' ',#1,'mechanical') ;
#1=APPLICATION_CONTEXT('automotive design') ;
#10=PRODUCT_DEFINITION('',' ',#6,#3) ;
#3=PRODUCT_DEFINITION_CONTEXT('part definition',#1,' ') ;
#11=PRODUCT_DEFINITION_SHAPE(' ',' ',#10) ;
#455=MECHANICAL_DESIGN_GEOMETRIC_PRESENTATION_REPRESENTATION(' ',(#30),#17) ;
#20=SHAPE_REPRESENTATION(' ',(#19),#17) ;
#19=AXIS2_PLACEMENT_3D(' ',#18,$,$) ;
#36=AXIS2_PLACEMENT_3D('Plane Axis2P3D',#33,#34,#35) ;
#76=AXIS2_PLACEMENT_3D('Plane Axis2P3D',#73,#74,#75) ;
#107=AXIS2_PLACEMENT_3D('Plane Axis2P3D',#104,#105,#106) ;
#138=AXIS2_PLACEMENT_3D('Plane Axis2P3D',#135,#136,#137) ;
#160=AXIS2_PLACEMENT_3D('Plane Axis2P3D',#157,#158,#159) ;
#170=AXIS2_PLACEMENT_3D('Circle Axis2P3D',#168,#169,$) ;
#186=AXIS2_PLACEMENT_3D('Circle Axis2P3D',#184,#185,$) ;
#213=AXIS2_PLACEMENT_3D('Circle Axis2P3D',#211,#212,$) ;
#227=AXIS2_PLACEMENT_3D('Circle Axis2P3D',#225,#226,$) ;
#240=AXIS2_PLACEMENT_3D('Plane Axis2P3D',#237,#238,#239) ;
#259=AXIS2_PLACEMENT_3D('Circle Axis2P3D',#257,#258,$) ;
#273=AXIS2_PLACEMENT_3D('Circle Axis2P3D',#271,#272,$) ;
#284=AXIS2_PLACEMENT_3D('Circle Axis2P3D',#282,#283,$) ;
#300=AXIS2_PLACEMENT_3D('Circle Axis2P3D',#298,#299,$) ;
#320=AXIS2_PLACEMENT_3D('Plane Axis2P3D',#317,#318,#319) ;
#342=AXIS2_PLACEMENT_3D('Cylinder Axis2P3D',#339,#340,#341) ;
#359=AXIS2_PLACEMENT_3D('Cylinder Axis2P3D',#356,#357,#358) ;
#376=AXIS2_PLACEMENT_3D('Plane Axis2P3D',#373,#374,#375) ;
#388=AXIS2_PLACEMENT_3D('Cylinder Axis2P3D',#385,#386,#387) ;
#410=AXIS2_PLACEMENT_3D('Plane Axis2P3D',#407,#408,#409) ;
#427=AXIS2_PLACEMENT_3D('Plane Axis2P3D',#424,#425,#426) ;
#444=AXIS2_PLACEMENT_3D('Cylinder Axis2P3D',#441,#442,#443) ;
#18=CARTESIAN_POINT(' ',(0.,0.,0.)) ;
#33=CARTESIAN_POINT('Axis2P3D Location',(10.,37.,3.06161699787E-016)) ;
#38=CARTESIAN_POINT('Line Origine',(10.,37.,0.125)) ;
#42=CARTESIAN_POINT('Vertex',(10.,37.,3.06161699787E-016)) ;
#44=CARTESIAN_POINT('Vertex',(10.,37.,0.25)) ;
#47=CARTESIAN_POINT('Line Origine',(5.,37.,0.)) ;
#51=CARTESIAN_POINT('Vertex',(-8.881784197E-016,37.,-3.06161699787E-016)) ;
#54=CARTESIAN_POINT('Line Origine',(-7.65404249467E-018,37.,0.125)) ;
#58=CARTESIAN_POINT('Vertex',(-8.881784197E-016,37.,0.25)) ;
#61=CARTESIAN_POINT('Line Origine',(5.,37.,0.25)) ;
#73=CARTESIAN_POINT('Axis2P3D Location',(-8.881784197E-016,0.,-3.06161699787E-016)) ;
#78=CARTESIAN_POINT('Line Origine',(2.44619869511E-016,18.5,-3.06161699787E-016)) ;
#82=CARTESIAN_POINT('Vertex',(-8.881784197E-016,3.06161699787E-016,-3.06161699787E-016)) ;
#85=CARTESIAN_POINT('Line Origine',(-8.95832462195E-016,4.68674932082E-034,0.125)) ;
#89=CARTESIAN_POINT('Vertex',(-8.881784197E-016,3.06161699787E-016,0.25)) ;
#92=CARTESIAN_POINT('Line Origine',(2.29311784522E-016,18.5,0.25)) ;
#104=CARTESIAN_POINT('Axis2P3D Location',(-2.6645352591E-015,0.,-3.06161699787E-016)) ;
#109=CARTESIAN_POINT('Line Origine',(5.,-3.06161699787E-016,0.)) ;
#113=CARTESIAN_POINT('Vertex',(10.,-3.06161699787E-016,3.06161699787E-016)) ;
#116=CARTESIAN_POINT('Line Origine',(10.,-6.12323399574E-016,0.125)) ;
#120=CARTESIAN_POINT('Vertex',(10.,-3.06161699787E-016,0.25)) ;
#123=CARTESIAN_POINT('Line Origine',(5.,-3.06161699787E-016,0.25)) ;
#135=CARTESIAN_POINT('Axis2P3D Location',(10.,37.,3.06161699787E-016)) ;
#140=CARTESIAN_POINT('Line Origine',(10.,18.5,3.06161699787E-016)) ;
#145=CARTESIAN_POINT('Line Origine',(10.,18.5,0.25)) ;
#157=CARTESIAN_POINT('Axis2P3D Location',(5.,18.5,0.25)) ;
#168=CARTESIAN_POINT('Axis2P3D Location',(5.,5.,0.25)) ;
#172=CARTESIAN_POINT('Vertex',(2.57938540862,4.375,0.25)) ;
#174=CARTESIAN_POINT('Vertex',(7.42061459138,4.375,0.25)) ;
#177=CARTESIAN_POINT('Line Origine',(1.85320103121,7.1875,0.25)) ;
#181=CARTESIAN_POINT('Vertex',(1.12701665379,10.,0.25)) ;
#184=CARTESIAN_POINT('Axis2P3D Location',(5.,11.,0.25)) ;
#188=CARTESIAN_POINT('Vertex',(8.87298334621,10.,0.25)) ;
#191=CARTESIAN_POINT('Line Origine',(8.14679896879,7.1875,0.25)) ;
#202=CARTESIAN_POINT('Line Origine',(1.85320103121,29.8125,0.25)) ;
#206=CARTESIAN_POINT('Vertex',(2.57938540862,32.625,0.25)) ;
#208=CARTESIAN_POINT('Vertex',(1.12701665379,27.,0.25)) ;
#211=CARTESIAN_POINT('Axis2P3D Location',(5.,32.,0.25)) ;
#215=CARTESIAN_POINT('Vertex',(7.42061459138,32.625,0.25)) ;
#218=CARTESIAN_POINT('Line Origine',(8.14679896879,29.8125,0.25)) ;
#222=CARTESIAN_POINT('Vertex',(8.87298334621,27.,0.25)) ;
#225=CARTESIAN_POINT('Axis2P3D Location',(5.,26.,0.25)) ;
#237=CARTESIAN_POINT('Axis2P3D Location',(5.,18.5,0.)) ;
#248=CARTESIAN_POINT('Line Origine',(8.14679896879,7.1875,1.92685864235E-016)) ;
#252=CARTESIAN_POINT('Vertex',(7.42061459138,4.375,1.48219895565E-016)) ;
#254=CARTESIAN_POINT('Vertex',(8.87298334621,10.,2.37151832904E-016)) ;
#257=CARTESIAN_POINT('Axis2P3D Location',(5.,11.,-1.20759497819E-047)) ;
#261=CARTESIAN_POINT('Vertex',(1.12701665379,10.,-2.37151832904E-016)) ;
#264=CARTESIAN_POINT('Line Origine',(1.85320103121,7.1875,-1.92685864235E-016)) ;
#268=CARTESIAN_POINT('Vertex',(2.57938540862,4.375,-1.48219895565E-016)) ;
#271=CARTESIAN_POINT('Axis2P3D Location',(5.,5.,0.)) ;
#282=CARTESIAN_POINT('Axis2P3D Location',(5.,26.,-1.124819837E-031)) ;
#286=CARTESIAN_POINT('Vertex',(1.12701665379,27.,-2.37151832904E-016)) ;
#288=CARTESIAN_POINT('Vertex',(8.87298334621,27.,2.37151832904E-016)) ;
#291=CARTESIAN_POINT('Line Origine',(8.14679896879,29.8125,1.92685864235E-016)) ;
#295=CARTESIAN_POINT('Vertex',(7.42061459138,32.625,1.48219895565E-016)) ;
#298=CARTESIAN_POINT('Axis2P3D Location',(5.,32.,-2.02467570659E-031)) ;
#302=CARTESIAN_POINT('Vertex',(2.57938540862,32.625,-1.48219895565E-016)) ;
#305=CARTESIAN_POINT('Line Origine',(1.85320103121,29.8125,-1.92685864235E-016)) ;
#317=CARTESIAN_POINT('Axis2P3D Location',(8.87298334621,27.,0.25)) ;
#322=CARTESIAN_POINT('Line Origine',(8.87298334621,27.,0.125)) ;
#327=CARTESIAN_POINT('Line Origine',(7.42061459138,32.625,0.125)) ;
#339=CARTESIAN_POINT('Axis2P3D Location',(5.,26.,0.125)) ;
#344=CARTESIAN_POINT('Line Origine',(1.12701665379,27.,0.125)) ;
#356=CARTESIAN_POINT('Axis2P3D Location',(5.,32.,0.125)) ;
#361=CARTESIAN_POINT('Line Origine',(2.57938540862,32.625,0.125)) ;
#373=CARTESIAN_POINT('Axis2P3D Location',(2.57938540862,32.625,0.25)) ;
#385=CARTESIAN_POINT('Axis2P3D Location',(5.,11.,0.125)) ;
#390=CARTESIAN_POINT('Line Origine',(8.87298334621,10.,0.125)) ;
#395=CARTESIAN_POINT('Line Origine',(1.12701665379,10.,0.125)) ;
#407=CARTESIAN_POINT('Axis2P3D Location',(7.42061459138,4.375,0.25)) ;
#412=CARTESIAN_POINT('Line Origine',(7.42061459138,4.375,0.125)) ;
#424=CARTESIAN_POINT('Axis2P3D Location',(1.12701665379,10.,0.25)) ;
#429=CARTESIAN_POINT('Line Origine',(2.57938540862,4.375,0.125)) ;
#441=CARTESIAN_POINT('Axis2P3D Location',(5.,5.,0.125)) ;
#34=DIRECTION('Axis2P3D Direction',(6.12323399574E-017,1.,0.)) ;
#35=DIRECTION('Axis2P3D XDirection',(-1.,6.12323399574E-017,-6.12323399574E-017)) ;
#39=DIRECTION('Vector Direction',(0.,0.,1.)) ;
#48=DIRECTION('Vector Direction',(-1.,0.,-6.12323399574E-017)) ;
#55=DIRECTION('Vector Direction',(-6.12323399574E-017,0.,1.)) ;
#62=DIRECTION('Vector Direction',(-1.,0.,-6.38378239159E-017)) ;
#74=DIRECTION('Axis2P3D Direction',(1.,-6.12323399574E-017,6.12323399574E-017)) ;
#75=DIRECTION('Axis2P3D XDirection',(6.12323399574E-017,1.,0.)) ;
#79=DIRECTION('Vector Direction',(6.12323399574E-017,1.,0.)) ;
#86=DIRECTION('Vector Direction',(-6.12323399574E-017,3.74939945665E-033,1.)) ;
#93=DIRECTION('Vector Direction',(6.12323399574E-017,1.,0.)) ;
#105=DIRECTION('Axis2P3D Direction',(-6.12323399574E-017,-1.,0.)) ;
#106=DIRECTION('Axis2P3D XDirection',(1.,-6.12323399574E-017,6.12323399574E-017)) ;
#110=DIRECTION('Vector Direction',(1.,-6.12323399574E-017,6.12323399574E-017)) ;
#117=DIRECTION('Vector Direction',(0.,0.,1.)) ;
#124=DIRECTION('Vector Direction',(1.,-6.12323399574E-017,6.38378239159E-017)) ;
#136=DIRECTION('Axis2P3D Direction',(-1.,6.12323399574E-017,-6.12323399574E-017)) ;
#137=DIRECTION('Axis2P3D XDirection',(-6.12323399574E-017,-1.,0.)) ;
#141=DIRECTION('Vector Direction',(-4.80096443081E-017,-1.,0.)) ;
#146=DIRECTION('Vector Direction',(-4.80096443081E-017,-1.,0.)) ;
#158=DIRECTION('Axis2P3D Direction',(-6.12323399574E-017,3.74939945665E-033,1.)) ;
#159=DIRECTION('Axis2P3D XDirection',(-6.12323399574E-017,-1.,0.)) ;
#169=DIRECTION('Axis2P3D Direction',(-6.12323399574E-017,3.74939945665E-033,1.)) ;
#178=DIRECTION('Vector Direction',(0.25,-0.968245836552,1.9110556822E-017)) ;
#185=DIRECTION('Axis2P3D Direction',(-6.12323399574E-017,3.74939945665E-033,1.)) ;
#192=DIRECTION('Vector Direction',(0.25,0.968245836552,9.555278411E-018)) ;
#203=DIRECTION('Vector Direction',(-0.25,-0.968245836552,-1.9110556822E-017)) ;
#212=DIRECTION('Axis2P3D Direction',(-6.12323399574E-017,3.74939945665E-033,1.)) ;
#219=DIRECTION('Vector Direction',(-0.25,0.968245836552,-9.555278411E-018)) ;
#226=DIRECTION('Axis2P3D Direction',(-6.12323399574E-017,3.74939945665E-033,1.)) ;
#238=DIRECTION('Axis2P3D Direction',(-6.12323399574E-017,3.74939945665E-033,1.)) ;
#239=DIRECTION('Axis2P3D XDirection',(-6.12323399574E-017,-1.,0.)) ;
#249=DIRECTION('Vector Direction',(0.25,0.968245836552,1.53080849893E-017)) ;
#258=DIRECTION('Axis2P3D Direction',(-6.12323399574E-017,3.74939945665E-033,1.)) ;
#265=DIRECTION('Vector Direction',(0.25,-0.968245836552,1.53080849893E-017)) ;
#272=DIRECTION('Axis2P3D Direction',(-6.12323399574E-017,3.74939945665E-033,1.)) ;
#283=DIRECTION('Axis2P3D Direction',(-6.12323399574E-017,3.74939945665E-033,1.)) ;
#292=DIRECTION('Vector Direction',(-0.25,0.968245836552,-1.53080849893E-017)) ;
#299=DIRECTION('Axis2P3D Direction',(-6.12323399574E-017,3.74939945665E-033,1.)) ;
#306=DIRECTION('Vector Direction',(-0.25,-0.968245836552,-1.53080849893E-017)) ;
#318=DIRECTION('Axis2P3D Direction',(-0.968245836552,-0.25,-5.9287958226E-017)) ;
#319=DIRECTION('Axis2P3D XDirection',(-0.25,0.968245836552,-1.53080849893E-017)) ;
#323=DIRECTION('Vector Direction',(0.,0.,-1.)) ;
#328=DIRECTION('Vector Direction',(0.,0.,-1.)) ;
#340=DIRECTION('Axis2P3D Direction',(-6.12323399574E-017,3.74939945665E-033,1.)) ;
#341=DIRECTION('Axis2P3D XDirection',(-0.968245836552,0.25,-5.9287958226E-017)) ;
#345=DIRECTION('Vector Direction',(0.,0.,1.)) ;
#357=DIRECTION('Axis2P3D Direction',(-6.12323399574E-017,3.74939945665E-033,1.)) ;
#358=DIRECTION('Axis2P3D XDirection',(0.968245836552,0.25,5.9287958226E-017)) ;
#362=DIRECTION('Vector Direction',(0.,0.,1.)) ;
#374=DIRECTION('Axis2P3D Direction',(0.968245836552,-0.25,5.9287958226E-017)) ;
#375=DIRECTION('Axis2P3D XDirection',(-0.25,-0.968245836552,-1.53080849893E-017)) ;
#386=DIRECTION('Axis2P3D Direction',(-6.12323399574E-017,3.74939945665E-033,1.)) ;
#387=DIRECTION('Axis2P3D XDirection',(0.968245836552,-0.25,5.9287958226E-017)) ;
#391=DIRECTION('Vector Direction',(0.,0.,1.)) ;
#396=DIRECTION('Vector Direction',(0.,0.,1.)) ;
#408=DIRECTION('Axis2P3D Direction',(-0.968245836552,0.25,-5.9287958226E-017)) ;
#409=DIRECTION('Axis2P3D XDirection',(0.25,0.968245836552,1.53080849893E-017)) ;
#413=DIRECTION('Vector Direction',(0.,0.,-1.)) ;
#425=DIRECTION('Axis2P3D Direction',(0.968245836552,0.25,5.9287958226E-017)) ;
#426=DIRECTION('Axis2P3D XDirection',(0.25,-0.968245836552,1.53080849893E-017)) ;
#430=DIRECTION('Vector Direction',(0.,0.,-1.)) ;
#442=DIRECTION('Axis2P3D Direction',(-6.12323399574E-017,3.74939945665E-033,1.)) ;
#443=DIRECTION('Axis2P3D XDirection',(-0.968245836552,-0.25,-5.9287958226E-017)) ;
#31=PRESENTATION_LAYER_ASSIGNMENT('1',' ',(#22)) ;
#8=PRODUCT_RELATED_PRODUCT_CATEGORY('part',$,(#5)) ;
#7=PRODUCT_CATEGORY('part','specification') ;
#30=STYLED_ITEM(' ',(#29),#22) ;
#29=PRESENTATION_STYLE_ASSIGNMENT((#28)) ;
#28=SURFACE_STYLE_USAGE(.BOTH.,#27) ;
#27=SURFACE_SIDE_STYLE(' ',(#26)) ;
#26=SURFACE_STYLE_FILL_AREA(#25) ;
#25=FILL_AREA_STYLE(' ',(#24)) ;
#24=FILL_AREA_STYLE_COLOUR(' ',#23) ;
#40=VECTOR('Line Direction',#39,1.) ;
#49=VECTOR('Line Direction',#48,1.) ;
#56=VECTOR('Line Direction',#55,1.) ;
#63=VECTOR('Line Direction',#62,1.) ;
#80=VECTOR('Line Direction',#79,1.) ;
#87=VECTOR('Line Direction',#86,1.) ;
#94=VECTOR('Line Direction',#93,1.) ;
#111=VECTOR('Line Direction',#110,1.) ;
#118=VECTOR('Line Direction',#117,1.) ;
#125=VECTOR('Line Direction',#124,1.) ;
#142=VECTOR('Line Direction',#141,1.) ;
#147=VECTOR('Line Direction',#146,1.) ;
#179=VECTOR('Line Direction',#178,1.) ;
#193=VECTOR('Line Direction',#192,1.) ;
#204=VECTOR('Line Direction',#203,1.) ;
#220=VECTOR('Line Direction',#219,1.) ;
#250=VECTOR('Line Direction',#249,1.) ;
#266=VECTOR('Line Direction',#265,1.) ;
#293=VECTOR('Line Direction',#292,1.) ;
#307=VECTOR('Line Direction',#306,1.) ;
#324=VECTOR('Line Direction',#323,1.) ;
#329=VECTOR('Line Direction',#328,1.) ;
#346=VECTOR('Line Direction',#345,1.) ;
#363=VECTOR('Line Direction',#362,1.) ;
#392=VECTOR('Line Direction',#391,1.) ;
#397=VECTOR('Line Direction',#396,1.) ;
#414=VECTOR('Line Direction',#413,1.) ;
#431=VECTOR('Line Direction',#430,1.) ;
#16=UNCERTAINTY_MEASURE_WITH_UNIT(LENGTH_MEASURE(0.005),#12,'distance_accuracy_value','CONFUSED CURVE UNCERTAINTY') ;
#454=SHAPE_REPRESENTATION_RELATIONSHIP(' ',' ',#20,#453) ;
#67=ORIENTED_EDGE('',*,*,#46,.F.) ;
#68=ORIENTED_EDGE('',*,*,#53,.T.) ;
#69=ORIENTED_EDGE('',*,*,#60,.T.) ;
#70=ORIENTED_EDGE('',*,*,#65,.F.) ;
#98=ORIENTED_EDGE('',*,*,#60,.F.) ;
#99=ORIENTED_EDGE('',*,*,#84,.T.) ;
#100=ORIENTED_EDGE('',*,*,#91,.T.) ;
#101=ORIENTED_EDGE('',*,*,#96,.F.) ;
#129=ORIENTED_EDGE('',*,*,#91,.F.) ;
#130=ORIENTED_EDGE('',*,*,#115,.T.) ;
#131=ORIENTED_EDGE('',*,*,#122,.T.) ;
#132=ORIENTED_EDGE('',*,*,#127,.F.) ;
#151=ORIENTED_EDGE('',*,*,#122,.F.) ;
#152=ORIENTED_EDGE('',*,*,#144,.T.) ;
#153=ORIENTED_EDGE('',*,*,#46,.T.) ;
#154=ORIENTED_EDGE('',*,*,#149,.F.) ;
#163=ORIENTED_EDGE('',*,*,#65,.T.) ;
#164=ORIENTED_EDGE('',*,*,#96,.T.) ;
#165=ORIENTED_EDGE('',*,*,#127,.T.) ;
#166=ORIENTED_EDGE('',*,*,#149,.T.) ;
#197=ORIENTED_EDGE('',*,*,#176,.F.) ;
#198=ORIENTED_EDGE('',*,*,#183,.F.) ;
#199=ORIENTED_EDGE('',*,*,#190,.F.) ;
#200=ORIENTED_EDGE('',*,*,#195,.F.) ;
#231=ORIENTED_EDGE('',*,*,#210,.F.) ;
#232=ORIENTED_EDGE('',*,*,#217,.F.) ;
#233=ORIENTED_EDGE('',*,*,#224,.F.) ;
#234=ORIENTED_EDGE('',*,*,#229,.F.) ;
#243=ORIENTED_EDGE('',*,*,#144,.F.) ;
#244=ORIENTED_EDGE('',*,*,#115,.F.) ;
#245=ORIENTED_EDGE('',*,*,#84,.F.) ;
#246=ORIENTED_EDGE('',*,*,#53,.F.) ;
#277=ORIENTED_EDGE('',*,*,#256,.T.) ;
#278=ORIENTED_EDGE('',*,*,#263,.T.) ;
#279=ORIENTED_EDGE('',*,*,#270,.T.) ;
#280=ORIENTED_EDGE('',*,*,#275,.T.) ;
#311=ORIENTED_EDGE('',*,*,#290,.T.) ;
#312=ORIENTED_EDGE('',*,*,#297,.T.) ;
#313=ORIENTED_EDGE('',*,*,#304,.T.) ;
#314=ORIENTED_EDGE('',*,*,#309,.T.) ;
#333=ORIENTED_EDGE('',*,*,#326,.F.) ;
#334=ORIENTED_EDGE('',*,*,#224,.T.) ;
#335=ORIENTED_EDGE('',*,*,#331,.T.) ;
#336=ORIENTED_EDGE('',*,*,#297,.F.) ;
#350=ORIENTED_EDGE('',*,*,#348,.F.) ;
#351=ORIENTED_EDGE('',*,*,#229,.T.) ;
#352=ORIENTED_EDGE('',*,*,#326,.T.) ;
#353=ORIENTED_EDGE('',*,*,#290,.F.) ;
#367=ORIENTED_EDGE('',*,*,#331,.F.) ;
#368=ORIENTED_EDGE('',*,*,#217,.T.) ;
#369=ORIENTED_EDGE('',*,*,#365,.T.) ;
#370=ORIENTED_EDGE('',*,*,#304,.F.) ;
#379=ORIENTED_EDGE('',*,*,#365,.F.) ;
#380=ORIENTED_EDGE('',*,*,#210,.T.) ;
#381=ORIENTED_EDGE('',*,*,#348,.T.) ;
#382=ORIENTED_EDGE('',*,*,#309,.F.) ;
#401=ORIENTED_EDGE('',*,*,#394,.F.) ;
#402=ORIENTED_EDGE('',*,*,#190,.T.) ;
#403=ORIENTED_EDGE('',*,*,#399,.T.) ;
#404=ORIENTED_EDGE('',*,*,#263,.F.) ;
#418=ORIENTED_EDGE('',*,*,#416,.F.) ;
#419=ORIENTED_EDGE('',*,*,#195,.T.) ;
#420=ORIENTED_EDGE('',*,*,#394,.T.) ;
#421=ORIENTED_EDGE('',*,*,#256,.F.) ;
#435=ORIENTED_EDGE('',*,*,#399,.F.) ;
#436=ORIENTED_EDGE('',*,*,#183,.T.) ;
#437=ORIENTED_EDGE('',*,*,#433,.T.) ;
#438=ORIENTED_EDGE('',*,*,#270,.F.) ;
#447=ORIENTED_EDGE('',*,*,#433,.F.) ;
#448=ORIENTED_EDGE('',*,*,#176,.T.) ;
#449=ORIENTED_EDGE('',*,*,#416,.T.) ;
#450=ORIENTED_EDGE('',*,*,#275,.F.) ;
#201=FACE_BOUND('',#196,.T.) ;
#235=FACE_BOUND('',#230,.T.) ;
#281=FACE_BOUND('',#276,.T.) ;
#315=FACE_BOUND('',#310,.T.) ;
#32=CLOSED_SHELL('Closed Shell',(#72,#103,#134,#156,#236,#316,#338,#355,#372,#384,#406,#423,#440,#452)) ;
#453=ADVANCED_BREP_SHAPE_REPRESENTATION('NONE',(#22),#17) ;
#72=ADVANCED_FACE('S3D gedreht',(#71),#37,.T.) ;
#103=ADVANCED_FACE('S3D gedreht',(#102),#77,.F.) ;
#134=ADVANCED_FACE('S3D gedreht',(#133),#108,.T.) ;
#156=ADVANCED_FACE('S3D gedreht',(#155),#139,.F.) ;
#236=ADVANCED_FACE('S3D gedreht',(#167,#201,#235),#161,.T.) ;
#316=ADVANCED_FACE('S3D gedreht',(#247,#281,#315),#241,.F.) ;
#338=ADVANCED_FACE('S3D gedreht',(#337),#321,.T.) ;
#355=ADVANCED_FACE('S3D gedreht',(#354),#343,.F.) ;
#372=ADVANCED_FACE('S3D gedreht',(#371),#360,.F.) ;
#384=ADVANCED_FACE('S3D gedreht',(#383),#377,.T.) ;
#406=ADVANCED_FACE('S3D gedreht',(#405),#389,.F.) ;
#423=ADVANCED_FACE('S3D gedreht',(#422),#411,.T.) ;
#440=ADVANCED_FACE('S3D gedreht',(#439),#428,.T.) ;
#452=ADVANCED_FACE('S3D gedreht',(#451),#445,.F.) ;
#4=APPLICATION_PROTOCOL_DEFINITION('international standard','automotive_design',2001,#1) ;
#22=MANIFOLD_SOLID_BREP('S3D gedreht',#32) ;
#171=CIRCLE('generated circle',#170,2.5) ;
#187=CIRCLE('generated circle',#186,4.) ;
#214=CIRCLE('generated circle',#213,2.5) ;
#228=CIRCLE('generated circle',#227,4.) ;
#260=CIRCLE('generated circle',#259,4.) ;
#274=CIRCLE('generated circle',#273,2.5) ;
#285=CIRCLE('generated circle',#284,4.) ;
#301=CIRCLE('generated circle',#300,2.5) ;
#343=CYLINDRICAL_SURFACE('generated cylinder',#342,4.) ;
#360=CYLINDRICAL_SURFACE('generated cylinder',#359,2.5) ;
#389=CYLINDRICAL_SURFACE('generated cylinder',#388,4.) ;
#445=CYLINDRICAL_SURFACE('generated cylinder',#444,2.5) ;
#23=DRAUGHTING_PRE_DEFINED_COLOUR('yellow') ;
#46=EDGE_CURVE('',#43,#45,#41,.T.) ;
#53=EDGE_CURVE('',#43,#52,#50,.T.) ;
#60=EDGE_CURVE('',#52,#59,#57,.T.) ;
#65=EDGE_CURVE('',#45,#59,#64,.T.) ;
#84=EDGE_CURVE('',#52,#83,#81,.F.) ;
#91=EDGE_CURVE('',#83,#90,#88,.T.) ;
#96=EDGE_CURVE('',#59,#90,#95,.F.) ;
#115=EDGE_CURVE('',#83,#114,#112,.T.) ;
#122=EDGE_CURVE('',#114,#121,#119,.T.) ;
#127=EDGE_CURVE('',#90,#121,#126,.T.) ;
#144=EDGE_CURVE('',#114,#43,#143,.F.) ;
#149=EDGE_CURVE('',#121,#45,#148,.F.) ;
#176=EDGE_CURVE('',#173,#175,#171,.T.) ;
#183=EDGE_CURVE('',#182,#173,#180,.T.) ;
#190=EDGE_CURVE('',#189,#182,#187,.T.) ;
#195=EDGE_CURVE('',#175,#189,#194,.T.) ;
#210=EDGE_CURVE('',#207,#209,#205,.T.) ;
#217=EDGE_CURVE('',#216,#207,#214,.T.) ;
#224=EDGE_CURVE('',#223,#216,#221,.T.) ;
#229=EDGE_CURVE('',#209,#223,#228,.T.) ;
#256=EDGE_CURVE('',#253,#255,#251,.T.) ;
#263=EDGE_CURVE('',#255,#262,#260,.T.) ;
#270=EDGE_CURVE('',#262,#269,#267,.T.) ;
#275=EDGE_CURVE('',#269,#253,#274,.T.) ;
#290=EDGE_CURVE('',#287,#289,#285,.T.) ;
#297=EDGE_CURVE('',#289,#296,#294,.T.) ;
#304=EDGE_CURVE('',#296,#303,#301,.T.) ;
#309=EDGE_CURVE('',#303,#287,#308,.T.) ;
#326=EDGE_CURVE('',#223,#289,#325,.T.) ;
#331=EDGE_CURVE('',#216,#296,#330,.T.) ;
#348=EDGE_CURVE('',#209,#287,#347,.F.) ;
#365=EDGE_CURVE('',#207,#303,#364,.F.) ;
#394=EDGE_CURVE('',#189,#255,#393,.F.) ;
#399=EDGE_CURVE('',#182,#262,#398,.F.) ;
#416=EDGE_CURVE('',#175,#253,#415,.T.) ;
#433=EDGE_CURVE('',#173,#269,#432,.T.) ;
#66=EDGE_LOOP('',(#67,#68,#69,#70)) ;
#97=EDGE_LOOP('',(#98,#99,#100,#101)) ;
#128=EDGE_LOOP('',(#129,#130,#131,#132)) ;
#150=EDGE_LOOP('',(#151,#152,#153,#154)) ;
#162=EDGE_LOOP('',(#163,#164,#165,#166)) ;
#196=EDGE_LOOP('',(#197,#198,#199,#200)) ;
#230=EDGE_LOOP('',(#231,#232,#233,#234)) ;
#242=EDGE_LOOP('',(#243,#244,#245,#246)) ;
#276=EDGE_LOOP('',(#277,#278,#279,#280)) ;
#310=EDGE_LOOP('',(#311,#312,#313,#314)) ;
#332=EDGE_LOOP('',(#333,#334,#335,#336)) ;
#349=EDGE_LOOP('',(#350,#351,#352,#353)) ;
#366=EDGE_LOOP('',(#367,#368,#369,#370)) ;
#378=EDGE_LOOP('',(#379,#380,#381,#382)) ;
#400=EDGE_LOOP('',(#401,#402,#403,#404)) ;
#417=EDGE_LOOP('',(#418,#419,#420,#421)) ;
#434=EDGE_LOOP('',(#435,#436,#437,#438)) ;
#446=EDGE_LOOP('',(#447,#448,#449,#450)) ;
#71=FACE_OUTER_BOUND('',#66,.T.) ;
#102=FACE_OUTER_BOUND('',#97,.T.) ;
#133=FACE_OUTER_BOUND('',#128,.T.) ;
#155=FACE_OUTER_BOUND('',#150,.T.) ;
#167=FACE_OUTER_BOUND('',#162,.T.) ;
#247=FACE_OUTER_BOUND('',#242,.T.) ;
#337=FACE_OUTER_BOUND('',#332,.T.) ;
#354=FACE_OUTER_BOUND('',#349,.T.) ;
#371=FACE_OUTER_BOUND('',#366,.T.) ;
#383=FACE_OUTER_BOUND('',#378,.T.) ;
#405=FACE_OUTER_BOUND('',#400,.T.) ;
#422=FACE_OUTER_BOUND('',#417,.T.) ;
#439=FACE_OUTER_BOUND('',#434,.T.) ;
#451=FACE_OUTER_BOUND('',#446,.T.) ;
#41=LINE('Line',#38,#40) ;
#50=LINE('Line',#47,#49) ;
#57=LINE('Line',#54,#56) ;
#64=LINE('Line',#61,#63) ;
#81=LINE('Line',#78,#80) ;
#88=LINE('Line',#85,#87) ;
#95=LINE('Line',#92,#94) ;
#112=LINE('Line',#109,#111) ;
#119=LINE('Line',#116,#118) ;
#126=LINE('Line',#123,#125) ;
#143=LINE('Line',#140,#142) ;
#148=LINE('Line',#145,#147) ;
#180=LINE('Line',#177,#179) ;
#194=LINE('Line',#191,#193) ;
#205=LINE('Line',#202,#204) ;
#221=LINE('Line',#218,#220) ;
#251=LINE('Line',#248,#250) ;
#267=LINE('Line',#264,#266) ;
#294=LINE('Line',#291,#293) ;
#308=LINE('Line',#305,#307) ;
#325=LINE('Line',#322,#324) ;
#330=LINE('Line',#327,#329) ;
#347=LINE('Line',#344,#346) ;
#364=LINE('Line',#361,#363) ;
#393=LINE('Line',#390,#392) ;
#398=LINE('Line',#395,#397) ;
#415=LINE('Line',#412,#414) ;
#432=LINE('Line',#429,#431) ;
#37=PLANE('',#36) ;
#77=PLANE('',#76) ;
#108=PLANE('',#107) ;
#139=PLANE('',#138) ;
#161=PLANE('',#160) ;
#241=PLANE('',#240) ;
#321=PLANE('',#320) ;
#377=PLANE('',#376) ;
#411=PLANE('',#410) ;
#428=PLANE('',#427) ;
#14=PLANE_ANGLE_MEASURE_WITH_UNIT(PLANE_ANGLE_MEASURE(0.0174532925199),#13) ;
#9=PRODUCT_CATEGORY_RELATIONSHIP(' ',' ',#7,#8) ;
#6=PRODUCT_DEFINITION_FORMATION_WITH_SPECIFIED_SOURCE('',' ',#5,.BOUGHT.) ;
#21=SHAPE_DEFINITION_REPRESENTATION(#11,#20) ;
#43=VERTEX_POINT('',#42) ;
#45=VERTEX_POINT('',#44) ;
#52=VERTEX_POINT('',#51) ;
#59=VERTEX_POINT('',#58) ;
#83=VERTEX_POINT('',#82) ;
#90=VERTEX_POINT('',#89) ;
#114=VERTEX_POINT('',#113) ;
#121=VERTEX_POINT('',#120) ;
#173=VERTEX_POINT('',#172) ;
#175=VERTEX_POINT('',#174) ;
#182=VERTEX_POINT('',#181) ;
#189=VERTEX_POINT('',#188) ;
#207=VERTEX_POINT('',#206) ;
#209=VERTEX_POINT('',#208) ;
#216=VERTEX_POINT('',#215) ;
#223=VERTEX_POINT('',#222) ;
#253=VERTEX_POINT('',#252) ;
#255=VERTEX_POINT('',#254) ;
#262=VERTEX_POINT('',#261) ;
#269=VERTEX_POINT('',#268) ;
#287=VERTEX_POINT('',#286) ;
#289=VERTEX_POINT('',#288) ;
#296=VERTEX_POINT('',#295) ;
#303=VERTEX_POINT('',#302) ;
#12=(LENGTH_UNIT()NAMED_UNIT(*)SI_UNIT(.MILLI.,.METRE.)) ;
#13=(NAMED_UNIT(*)PLANE_ANGLE_UNIT()SI_UNIT($,.RADIAN.)) ;
#15=(NAMED_UNIT(*)SI_UNIT($,.STERADIAN.)SOLID_ANGLE_UNIT()) ;
#17=(GEOMETRIC_REPRESENTATION_CONTEXT(3)GLOBAL_UNCERTAINTY_ASSIGNED_CONTEXT((#16))GLOBAL_UNIT_ASSIGNED_CONTEXT((#12,#13,#15))REPRESENTATION_CONTEXT(' ',' ')) ;
ENDSEC;
END-ISO-10303-21;
