ISO-10303-21;
HEADER;
FILE_DESCRIPTION(('CATIA V5R19 STEP'),'2;1');

FILE_NAME ('D1460400_0_1957340000_1957340000.stp','2015-03-02T09:47:24+00:00',('none'),('Weidmueller'),'CATIA Version 5 Release 20 SP 5 (IN-10)','CATIA V5 STEP AP214','none');

FILE_SCHEMA(('AUTOMOTIVE_DESIGN { 1 0 10303 214 1 1 1 1 }'));

ENDSEC;
/* file written by CATIA V5R20 */
DATA;
#5=PRODUCT('MFF 10/6','','',(#2)) ;
#2=PRODUCT_CONTEXT(' ',#1,'mechanical') ;
#1=APPLICATION_CONTEXT('automotive design') ;
#10=PRODUCT_DEFINITION('',' ',#6,#3) ;
#3=PRODUCT_DEFINITION_CONTEXT('part definition',#1,' ') ;
#11=PRODUCT_DEFINITION_SHAPE(' ',' ',#10) ;
#565=MECHANICAL_DESIGN_GEOMETRIC_PRESENTATION_REPRESENTATION(' ',(#80,#118,#149,#180,#272,#291,#329,#360,#391,#415,#448,#479,#505,#529,#548,#562,#30),#17) ;
#20=SHAPE_REPRESENTATION(' ',(#19),#17) ;
#19=AXIS2_PLACEMENT_3D(' ',#18,$,$) ;
#36=AXIS2_PLACEMENT_3D('Plane Axis2P3D',#33,#34,#35) ;
#84=AXIS2_PLACEMENT_3D('Plane Axis2P3D',#81,#82,#83) ;
#122=AXIS2_PLACEMENT_3D('Plane Axis2P3D',#119,#120,#121) ;
#153=AXIS2_PLACEMENT_3D('Plane Axis2P3D',#150,#151,#152) ;
#184=AXIS2_PLACEMENT_3D('Plane Axis2P3D',#181,#182,#183) ;
#276=AXIS2_PLACEMENT_3D('Plane Axis2P3D',#273,#274,#275) ;
#295=AXIS2_PLACEMENT_3D('Plane Axis2P3D',#292,#293,#294) ;
#333=AXIS2_PLACEMENT_3D('Plane Axis2P3D',#330,#331,#332) ;
#364=AXIS2_PLACEMENT_3D('Plane Axis2P3D',#361,#362,#363) ;
#395=AXIS2_PLACEMENT_3D('Plane Axis2P3D',#392,#393,#394) ;
#452=AXIS2_PLACEMENT_3D('Plane Axis2P3D',#449,#450,#451) ;
#509=AXIS2_PLACEMENT_3D('Plane Axis2P3D',#506,#507,#508) ;
#533=AXIS2_PLACEMENT_3D('Plane Axis2P3D',#530,#531,#532) ;
#18=CARTESIAN_POINT(' ',(0.,0.,0.)) ;
#33=CARTESIAN_POINT('Axis2P3D Location',(2.925,3.5,2.8)) ;
#38=CARTESIAN_POINT('Line Origine',(4.82500000037,3.1248711306,1.40000000001)) ;
#42=CARTESIAN_POINT('Vertex',(4.82500000037,3.5,2.8)) ;
#44=CARTESIAN_POINT('Vertex',(4.82500000037,2.7497422612,2.94817503743E-011)) ;
#47=CARTESIAN_POINT('Line Origine',(2.925,2.7497422612,2.94817503743E-011)) ;
#51=CARTESIAN_POINT('Vertex',(1.02499999963,2.7497422612,2.94817503743E-011)) ;
#54=CARTESIAN_POINT('Line Origine',(1.02499999963,3.1248711306,1.40000000001)) ;
#58=CARTESIAN_POINT('Vertex',(1.02499999963,3.5,2.8)) ;
#61=CARTESIAN_POINT('Line Origine',(2.925,3.5,2.8)) ;
#81=CARTESIAN_POINT('Axis2P3D Location',(4.825,-0.3,3.6)) ;
#86=CARTESIAN_POINT('Line Origine',(4.825,2.825,2.79999999925)) ;
#90=CARTESIAN_POINT('Vertex',(4.825,2.14999999925,2.79999999925)) ;
#93=CARTESIAN_POINT('Line Origine',(4.825,2.14999999925,1.39999999981)) ;
#97=CARTESIAN_POINT('Vertex',(4.82500000037,2.15,-4.4408920985E-016)) ;
#100=CARTESIAN_POINT('Line Origine',(4.825,2.4498711301,3.72529118664E-010)) ;
#119=CARTESIAN_POINT('Axis2P3D Location',(2.925,2.15,-4.4408920985E-016)) ;
#124=CARTESIAN_POINT('Line Origine',(2.925,2.15,-4.4408920985E-016)) ;
#128=CARTESIAN_POINT('Vertex',(1.025,2.14999999925,3.72529118664E-010)) ;
#131=CARTESIAN_POINT('Line Origine',(1.02499999963,2.44987113085,-4.4408920985E-016)) ;
#150=CARTESIAN_POINT('Axis2P3D Location',(1.025,-0.3,3.6)) ;
#155=CARTESIAN_POINT('Line Origine',(1.025,2.14999999925,1.39999999981)) ;
#159=CARTESIAN_POINT('Vertex',(1.025,2.14999999925,2.79999999925)) ;
#162=CARTESIAN_POINT('Line Origine',(1.025,2.825,2.79999999925)) ;
#181=CARTESIAN_POINT('Axis2P3D Location',(2.925,9.8,2.8)) ;
#186=CARTESIAN_POINT('Line Origine',(-7.45058237328E-010,4.89999999963,2.8)) ;
#190=CARTESIAN_POINT('Vertex',(-7.45058237328E-010,-7.4505734915E-010,2.8)) ;
#192=CARTESIAN_POINT('Vertex',(-7.45058237328E-010,9.8,2.8)) ;
#195=CARTESIAN_POINT('Line Origine',(2.925,9.8,2.8)) ;
#199=CARTESIAN_POINT('Vertex',(5.85000000075,9.8,2.8)) ;
#202=CARTESIAN_POINT('Line Origine',(5.85000000075,4.89999999963,2.8)) ;
#206=CARTESIAN_POINT('Vertex',(5.85000000075,-7.4505734915E-010,2.8)) ;
#209=CARTESIAN_POINT('Line Origine',(2.925,-7.4505734915E-010,2.8)) ;
#220=CARTESIAN_POINT('Line Origine',(2.925,2.14999999963,2.8)) ;
#231=CARTESIAN_POINT('Line Origine',(4.82500000037,6.97499999981,2.8)) ;
#235=CARTESIAN_POINT('Vertex',(4.82500000037,7.65,2.8)) ;
#237=CARTESIAN_POINT('Vertex',(4.825,6.29999999963,2.79999999925)) ;
#240=CARTESIAN_POINT('Line Origine',(2.925,7.64999999963,2.8)) ;
#244=CARTESIAN_POINT('Vertex',(1.02499999963,7.65,2.8)) ;
#247=CARTESIAN_POINT('Line Origine',(1.02499999963,6.97499999981,2.8)) ;
#251=CARTESIAN_POINT('Vertex',(1.025,6.29999999963,2.79999999925)) ;
#254=CARTESIAN_POINT('Line Origine',(2.925,6.3,2.8)) ;
#273=CARTESIAN_POINT('Axis2P3D Location',(2.925,2.15,2.8)) ;
#292=CARTESIAN_POINT('Axis2P3D Location',(0.,-0.3,3.6)) ;
#297=CARTESIAN_POINT('Line Origine',(0.,7.45058070795E-010,3.19999999963)) ;
#301=CARTESIAN_POINT('Vertex',(0.,7.45058070795E-010,3.6)) ;
#304=CARTESIAN_POINT('Line Origine',(0.,4.90000000019,3.6)) ;
#308=CARTESIAN_POINT('Vertex',(0.,9.79999999963,3.6)) ;
#311=CARTESIAN_POINT('Line Origine',(0.,9.79999999963,3.19999999963)) ;
#330=CARTESIAN_POINT('Axis2P3D Location',(2.925,9.8,3.6)) ;
#335=CARTESIAN_POINT('Line Origine',(2.925,9.8,3.6)) ;
#339=CARTESIAN_POINT('Vertex',(5.85,9.79999999963,3.6)) ;
#342=CARTESIAN_POINT('Line Origine',(5.85000000075,9.8,3.19999999963)) ;
#361=CARTESIAN_POINT('Axis2P3D Location',(5.85,-0.3,3.6)) ;
#366=CARTESIAN_POINT('Line Origine',(5.85,4.90000000019,3.6)) ;
#370=CARTESIAN_POINT('Vertex',(5.85,7.45058070795E-010,3.6)) ;
#373=CARTESIAN_POINT('Line Origine',(5.85,7.45058070795E-010,3.19999999963)) ;
#392=CARTESIAN_POINT('Axis2P3D Location',(2.925,-8.881784197E-016,2.8)) ;
#397=CARTESIAN_POINT('Line Origine',(2.925,-8.881784197E-016,3.60000000075)) ;
#416=CARTESIAN_POINT('Line Origine',(4.825,6.67512886953,1.39999999981)) ;
#420=CARTESIAN_POINT('Vertex',(4.825,7.05025773942,3.72529118664E-010)) ;
#423=CARTESIAN_POINT('Line Origine',(4.825,7.35012886934,3.72529118664E-010)) ;
#427=CARTESIAN_POINT('Vertex',(4.82500000037,7.65,-7.45058237328E-010)) ;
#430=CARTESIAN_POINT('Line Origine',(4.825,7.64999999925,1.39999999981)) ;
#449=CARTESIAN_POINT('Axis2P3D Location',(2.925,7.65,2.8)) ;
#454=CARTESIAN_POINT('Line Origine',(2.925,7.65,-7.45058237328E-010)) ;
#458=CARTESIAN_POINT('Vertex',(1.02499999963,7.65,-7.45058237328E-010)) ;
#461=CARTESIAN_POINT('Line Origine',(1.02499999963,7.65,1.39999999963)) ;
#480=CARTESIAN_POINT('Line Origine',(1.025,7.35012886934,3.72529118664E-010)) ;
#484=CARTESIAN_POINT('Vertex',(1.025,7.05025773942,3.72529118664E-010)) ;
#487=CARTESIAN_POINT('Line Origine',(1.025,6.67512886953,1.39999999981)) ;
#506=CARTESIAN_POINT('Axis2P3D Location',(2.925,6.3,2.8)) ;
#511=CARTESIAN_POINT('Line Origine',(2.925,7.0502577388,2.94817503743E-011)) ;
#530=CARTESIAN_POINT('Axis2P3D Location',(2.925,-8.881784197E-016,3.6)) ;
#34=DIRECTION('Axis2P3D Direction',(-1.77437695707E-016,-0.965925826289,0.258819045103)) ;
#35=DIRECTION('Axis2P3D XDirection',(-4.75442872715E-017,-0.258819045103,-0.965925826289)) ;
#39=DIRECTION('Vector Direction',(0.,-0.258819045103,-0.965925826289)) ;
#48=DIRECTION('Vector Direction',(1.,-2.33731163033E-016,0.)) ;
#55=DIRECTION('Vector Direction',(0.,-0.258819045103,-0.965925826289)) ;
#62=DIRECTION('Vector Direction',(1.,-2.33731163033E-016,0.)) ;
#82=DIRECTION('Axis2P3D Direction',(-1.,1.83697019872E-016,2.58195522249E-032)) ;
#83=DIRECTION('Axis2P3D XDirection',(-2.58195522249E-032,4.74297479815E-048,-1.)) ;
#87=DIRECTION('Vector Direction',(0.,1.,0.)) ;
#94=DIRECTION('Vector Direction',(0.,0.,-1.)) ;
#101=DIRECTION('Vector Direction',(0.,1.,0.)) ;
#120=DIRECTION('Axis2P3D Direction',(0.,-0.,-1.)) ;
#121=DIRECTION('Axis2P3D XDirection',(1.83697019872E-016,1.,-0.)) ;
#125=DIRECTION('Vector Direction',(1.,-2.33731163033E-016,0.)) ;
#132=DIRECTION('Vector Direction',(0.,1.,0.)) ;
#151=DIRECTION('Axis2P3D Direction',(-1.,1.83697019872E-016,2.58195522249E-032)) ;
#152=DIRECTION('Axis2P3D XDirection',(-2.58195522249E-032,4.74297479815E-048,-1.)) ;
#156=DIRECTION('Vector Direction',(0.,0.,-1.)) ;
#163=DIRECTION('Vector Direction',(1.64477484948E-016,1.,0.)) ;
#182=DIRECTION('Axis2P3D Direction',(-0.,-0.,-1.)) ;
#183=DIRECTION('Axis2P3D XDirection',(0.,-1.,0.)) ;
#187=DIRECTION('Vector Direction',(0.,-1.,0.)) ;
#196=DIRECTION('Vector Direction',(-1.,0.,0.)) ;
#203=DIRECTION('Vector Direction',(0.,-1.,0.)) ;
#210=DIRECTION('Vector Direction',(-1.,0.,0.)) ;
#221=DIRECTION('Vector Direction',(1.,0.,0.)) ;
#232=DIRECTION('Vector Direction',(0.,-1.,0.)) ;
#241=DIRECTION('Vector Direction',(1.,0.,0.)) ;
#248=DIRECTION('Vector Direction',(0.,-1.,0.)) ;
#255=DIRECTION('Vector Direction',(1.,0.,0.)) ;
#274=DIRECTION('Axis2P3D Direction',(-1.83697019872E-016,-1.,-6.40289931324E-060)) ;
#275=DIRECTION('Axis2P3D XDirection',(-2.58195522249E-032,4.74297479815E-048,-1.)) ;
#293=DIRECTION('Axis2P3D Direction',(1.,0.,0.)) ;
#294=DIRECTION('Axis2P3D XDirection',(0.,1.,0.)) ;
#298=DIRECTION('Vector Direction',(0.,0.,1.)) ;
#305=DIRECTION('Vector Direction',(0.,1.,0.)) ;
#312=DIRECTION('Vector Direction',(0.,0.,-1.)) ;
#331=DIRECTION('Axis2P3D Direction',(0.,1.,0.)) ;
#332=DIRECTION('Axis2P3D XDirection',(0.,0.,-1.)) ;
#336=DIRECTION('Vector Direction',(-1.,0.,0.)) ;
#343=DIRECTION('Vector Direction',(0.,0.,-1.)) ;
#362=DIRECTION('Axis2P3D Direction',(1.,0.,0.)) ;
#363=DIRECTION('Axis2P3D XDirection',(0.,1.,0.)) ;
#367=DIRECTION('Vector Direction',(0.,1.,0.)) ;
#374=DIRECTION('Vector Direction',(0.,0.,1.)) ;
#393=DIRECTION('Axis2P3D Direction',(0.,-1.,0.)) ;
#394=DIRECTION('Axis2P3D XDirection',(0.,0.,1.)) ;
#398=DIRECTION('Vector Direction',(-1.,0.,0.)) ;
#417=DIRECTION('Vector Direction',(3.06398026495E-016,0.258819045518,-0.965925826178)) ;
#424=DIRECTION('Vector Direction',(0.,-1.,0.)) ;
#431=DIRECTION('Vector Direction',(0.,0.,-1.)) ;
#450=DIRECTION('Axis2P3D Direction',(-1.83697019872E-016,-1.,-6.40289931324E-060)) ;
#451=DIRECTION('Axis2P3D XDirection',(-2.58195522249E-032,4.74297479815E-048,-1.)) ;
#455=DIRECTION('Vector Direction',(1.,0.,0.)) ;
#462=DIRECTION('Vector Direction',(0.,0.,-1.)) ;
#481=DIRECTION('Vector Direction',(-3.70233381566E-016,-1.,0.)) ;
#488=DIRECTION('Vector Direction',(7.65995066236E-017,0.258819045518,-0.965925826178)) ;
#507=DIRECTION('Axis2P3D Direction',(-1.77437695707E-016,-0.965925826289,-0.258819045103)) ;
#508=DIRECTION('Axis2P3D XDirection',(4.75442872715E-017,0.258819045103,-0.965925826289)) ;
#512=DIRECTION('Vector Direction',(1.,0.,0.)) ;
#531=DIRECTION('Axis2P3D Direction',(0.,-0.,1.)) ;
#532=DIRECTION('Axis2P3D XDirection',(0.,1.,0.)) ;
#31=PRESENTATION_LAYER_ASSIGNMENT('1',' ',(#22)) ;
#8=PRODUCT_RELATED_PRODUCT_CATEGORY('part',$,(#5)) ;
#7=PRODUCT_CATEGORY('part','specification') ;
#30=STYLED_ITEM(' ',(#29),#22) ;
#29=PRESENTATION_STYLE_ASSIGNMENT((#28)) ;
#79=PRESENTATION_STYLE_ASSIGNMENT((#78)) ;
#117=PRESENTATION_STYLE_ASSIGNMENT((#116)) ;
#148=PRESENTATION_STYLE_ASSIGNMENT((#147)) ;
#179=PRESENTATION_STYLE_ASSIGNMENT((#178)) ;
#271=PRESENTATION_STYLE_ASSIGNMENT((#270)) ;
#290=PRESENTATION_STYLE_ASSIGNMENT((#289)) ;
#328=PRESENTATION_STYLE_ASSIGNMENT((#327)) ;
#359=PRESENTATION_STYLE_ASSIGNMENT((#358)) ;
#390=PRESENTATION_STYLE_ASSIGNMENT((#389)) ;
#414=PRESENTATION_STYLE_ASSIGNMENT((#413)) ;
#447=PRESENTATION_STYLE_ASSIGNMENT((#446)) ;
#478=PRESENTATION_STYLE_ASSIGNMENT((#477)) ;
#504=PRESENTATION_STYLE_ASSIGNMENT((#503)) ;
#528=PRESENTATION_STYLE_ASSIGNMENT((#527)) ;
#547=PRESENTATION_STYLE_ASSIGNMENT((#546)) ;
#561=PRESENTATION_STYLE_ASSIGNMENT((#560)) ;
#28=SURFACE_STYLE_USAGE(.BOTH.,#27) ;
#78=SURFACE_STYLE_USAGE(.BOTH.,#77) ;
#116=SURFACE_STYLE_USAGE(.BOTH.,#115) ;
#147=SURFACE_STYLE_USAGE(.BOTH.,#146) ;
#178=SURFACE_STYLE_USAGE(.BOTH.,#177) ;
#270=SURFACE_STYLE_USAGE(.BOTH.,#269) ;
#289=SURFACE_STYLE_USAGE(.BOTH.,#288) ;
#327=SURFACE_STYLE_USAGE(.BOTH.,#326) ;
#358=SURFACE_STYLE_USAGE(.BOTH.,#357) ;
#389=SURFACE_STYLE_USAGE(.BOTH.,#388) ;
#413=SURFACE_STYLE_USAGE(.BOTH.,#412) ;
#446=SURFACE_STYLE_USAGE(.BOTH.,#445) ;
#477=SURFACE_STYLE_USAGE(.BOTH.,#476) ;
#503=SURFACE_STYLE_USAGE(.BOTH.,#502) ;
#527=SURFACE_STYLE_USAGE(.BOTH.,#526) ;
#546=SURFACE_STYLE_USAGE(.BOTH.,#545) ;
#560=SURFACE_STYLE_USAGE(.BOTH.,#559) ;
#27=SURFACE_SIDE_STYLE(' ',(#26)) ;
#77=SURFACE_SIDE_STYLE(' ',(#76)) ;
#115=SURFACE_SIDE_STYLE(' ',(#114)) ;
#146=SURFACE_SIDE_STYLE(' ',(#145)) ;
#177=SURFACE_SIDE_STYLE(' ',(#176)) ;
#269=SURFACE_SIDE_STYLE(' ',(#268)) ;
#288=SURFACE_SIDE_STYLE(' ',(#287)) ;
#326=SURFACE_SIDE_STYLE(' ',(#325)) ;
#357=SURFACE_SIDE_STYLE(' ',(#356)) ;
#388=SURFACE_SIDE_STYLE(' ',(#387)) ;
#412=SURFACE_SIDE_STYLE(' ',(#411)) ;
#445=SURFACE_SIDE_STYLE(' ',(#444)) ;
#476=SURFACE_SIDE_STYLE(' ',(#475)) ;
#502=SURFACE_SIDE_STYLE(' ',(#501)) ;
#526=SURFACE_SIDE_STYLE(' ',(#525)) ;
#545=SURFACE_SIDE_STYLE(' ',(#544)) ;
#559=SURFACE_SIDE_STYLE(' ',(#558)) ;
#26=SURFACE_STYLE_FILL_AREA(#25) ;
#76=SURFACE_STYLE_FILL_AREA(#75) ;
#114=SURFACE_STYLE_FILL_AREA(#113) ;
#145=SURFACE_STYLE_FILL_AREA(#144) ;
#176=SURFACE_STYLE_FILL_AREA(#175) ;
#268=SURFACE_STYLE_FILL_AREA(#267) ;
#287=SURFACE_STYLE_FILL_AREA(#286) ;
#325=SURFACE_STYLE_FILL_AREA(#324) ;
#356=SURFACE_STYLE_FILL_AREA(#355) ;
#387=SURFACE_STYLE_FILL_AREA(#386) ;
#411=SURFACE_STYLE_FILL_AREA(#410) ;
#444=SURFACE_STYLE_FILL_AREA(#443) ;
#475=SURFACE_STYLE_FILL_AREA(#474) ;
#501=SURFACE_STYLE_FILL_AREA(#500) ;
#525=SURFACE_STYLE_FILL_AREA(#524) ;
#544=SURFACE_STYLE_FILL_AREA(#543) ;
#558=SURFACE_STYLE_FILL_AREA(#557) ;
#25=FILL_AREA_STYLE(' ',(#24)) ;
#75=FILL_AREA_STYLE(' ',(#74)) ;
#113=FILL_AREA_STYLE(' ',(#112)) ;
#144=FILL_AREA_STYLE(' ',(#143)) ;
#175=FILL_AREA_STYLE(' ',(#174)) ;
#267=FILL_AREA_STYLE(' ',(#266)) ;
#286=FILL_AREA_STYLE(' ',(#285)) ;
#324=FILL_AREA_STYLE(' ',(#323)) ;
#355=FILL_AREA_STYLE(' ',(#354)) ;
#386=FILL_AREA_STYLE(' ',(#385)) ;
#410=FILL_AREA_STYLE(' ',(#409)) ;
#443=FILL_AREA_STYLE(' ',(#442)) ;
#474=FILL_AREA_STYLE(' ',(#473)) ;
#500=FILL_AREA_STYLE(' ',(#499)) ;
#524=FILL_AREA_STYLE(' ',(#523)) ;
#543=FILL_AREA_STYLE(' ',(#542)) ;
#557=FILL_AREA_STYLE(' ',(#556)) ;
#24=FILL_AREA_STYLE_COLOUR(' ',#23) ;
#74=FILL_AREA_STYLE_COLOUR(' ',#73) ;
#112=FILL_AREA_STYLE_COLOUR(' ',#73) ;
#143=FILL_AREA_STYLE_COLOUR(' ',#73) ;
#174=FILL_AREA_STYLE_COLOUR(' ',#73) ;
#266=FILL_AREA_STYLE_COLOUR(' ',#73) ;
#285=FILL_AREA_STYLE_COLOUR(' ',#73) ;
#323=FILL_AREA_STYLE_COLOUR(' ',#73) ;
#354=FILL_AREA_STYLE_COLOUR(' ',#73) ;
#385=FILL_AREA_STYLE_COLOUR(' ',#73) ;
#409=FILL_AREA_STYLE_COLOUR(' ',#73) ;
#442=FILL_AREA_STYLE_COLOUR(' ',#73) ;
#473=FILL_AREA_STYLE_COLOUR(' ',#73) ;
#499=FILL_AREA_STYLE_COLOUR(' ',#73) ;
#523=FILL_AREA_STYLE_COLOUR(' ',#73) ;
#542=FILL_AREA_STYLE_COLOUR(' ',#73) ;
#556=FILL_AREA_STYLE_COLOUR(' ',#73) ;
#40=VECTOR('Line Direction',#39,1.) ;
#49=VECTOR('Line Direction',#48,1.) ;
#56=VECTOR('Line Direction',#55,1.) ;
#63=VECTOR('Line Direction',#62,1.) ;
#88=VECTOR('Line Direction',#87,1.) ;
#95=VECTOR('Line Direction',#94,1.) ;
#102=VECTOR('Line Direction',#101,1.) ;
#126=VECTOR('Line Direction',#125,1.) ;
#133=VECTOR('Line Direction',#132,1.) ;
#157=VECTOR('Line Direction',#156,1.) ;
#164=VECTOR('Line Direction',#163,1.) ;
#188=VECTOR('Line Direction',#187,1.) ;
#197=VECTOR('Line Direction',#196,1.) ;
#204=VECTOR('Line Direction',#203,1.) ;
#211=VECTOR('Line Direction',#210,1.) ;
#222=VECTOR('Line Direction',#221,1.) ;
#233=VECTOR('Line Direction',#232,1.) ;
#242=VECTOR('Line Direction',#241,1.) ;
#249=VECTOR('Line Direction',#248,1.) ;
#256=VECTOR('Line Direction',#255,1.) ;
#299=VECTOR('Line Direction',#298,1.) ;
#306=VECTOR('Line Direction',#305,1.) ;
#313=VECTOR('Line Direction',#312,1.) ;
#337=VECTOR('Line Direction',#336,1.) ;
#344=VECTOR('Line Direction',#343,1.) ;
#368=VECTOR('Line Direction',#367,1.) ;
#375=VECTOR('Line Direction',#374,1.) ;
#399=VECTOR('Line Direction',#398,1.) ;
#418=VECTOR('Line Direction',#417,1.) ;
#425=VECTOR('Line Direction',#424,1.) ;
#432=VECTOR('Line Direction',#431,1.) ;
#456=VECTOR('Line Direction',#455,1.) ;
#463=VECTOR('Line Direction',#462,1.) ;
#482=VECTOR('Line Direction',#481,1.) ;
#489=VECTOR('Line Direction',#488,1.) ;
#513=VECTOR('Line Direction',#512,1.) ;
#16=UNCERTAINTY_MEASURE_WITH_UNIT(LENGTH_MEASURE(0.005),#12,'distance_accuracy_value','CONFUSED CURVE UNCERTAINTY') ;
#564=SHAPE_REPRESENTATION_RELATIONSHIP(' ',' ',#20,#563) ;
#67=ORIENTED_EDGE('',*,*,#46,.T.) ;
#68=ORIENTED_EDGE('',*,*,#53,.F.) ;
#69=ORIENTED_EDGE('',*,*,#60,.F.) ;
#70=ORIENTED_EDGE('',*,*,#65,.T.) ;
#106=ORIENTED_EDGE('',*,*,#92,.F.) ;
#107=ORIENTED_EDGE('',*,*,#99,.F.) ;
#108=ORIENTED_EDGE('',*,*,#104,.F.) ;
#109=ORIENTED_EDGE('',*,*,#46,.F.) ;
#137=ORIENTED_EDGE('',*,*,#104,.T.) ;
#138=ORIENTED_EDGE('',*,*,#130,.F.) ;
#139=ORIENTED_EDGE('',*,*,#135,.F.) ;
#140=ORIENTED_EDGE('',*,*,#53,.T.) ;
#168=ORIENTED_EDGE('',*,*,#60,.T.) ;
#169=ORIENTED_EDGE('',*,*,#135,.T.) ;
#170=ORIENTED_EDGE('',*,*,#161,.T.) ;
#171=ORIENTED_EDGE('',*,*,#166,.T.) ;
#215=ORIENTED_EDGE('',*,*,#194,.T.) ;
#216=ORIENTED_EDGE('',*,*,#201,.F.) ;
#217=ORIENTED_EDGE('',*,*,#208,.F.) ;
#218=ORIENTED_EDGE('',*,*,#213,.T.) ;
#226=ORIENTED_EDGE('',*,*,#65,.F.) ;
#227=ORIENTED_EDGE('',*,*,#166,.F.) ;
#228=ORIENTED_EDGE('',*,*,#224,.T.) ;
#229=ORIENTED_EDGE('',*,*,#92,.T.) ;
#260=ORIENTED_EDGE('',*,*,#239,.F.) ;
#261=ORIENTED_EDGE('',*,*,#246,.F.) ;
#262=ORIENTED_EDGE('',*,*,#253,.T.) ;
#263=ORIENTED_EDGE('',*,*,#258,.T.) ;
#279=ORIENTED_EDGE('',*,*,#99,.T.) ;
#280=ORIENTED_EDGE('',*,*,#224,.F.) ;
#281=ORIENTED_EDGE('',*,*,#161,.F.) ;
#282=ORIENTED_EDGE('',*,*,#130,.T.) ;
#317=ORIENTED_EDGE('',*,*,#303,.F.) ;
#318=ORIENTED_EDGE('',*,*,#310,.F.) ;
#319=ORIENTED_EDGE('',*,*,#315,.F.) ;
#320=ORIENTED_EDGE('',*,*,#194,.F.) ;
#348=ORIENTED_EDGE('',*,*,#315,.T.) ;
#349=ORIENTED_EDGE('',*,*,#341,.F.) ;
#350=ORIENTED_EDGE('',*,*,#346,.F.) ;
#351=ORIENTED_EDGE('',*,*,#201,.T.) ;
#379=ORIENTED_EDGE('',*,*,#208,.T.) ;
#380=ORIENTED_EDGE('',*,*,#346,.T.) ;
#381=ORIENTED_EDGE('',*,*,#372,.T.) ;
#382=ORIENTED_EDGE('',*,*,#377,.T.) ;
#403=ORIENTED_EDGE('',*,*,#303,.T.) ;
#404=ORIENTED_EDGE('',*,*,#213,.F.) ;
#405=ORIENTED_EDGE('',*,*,#377,.F.) ;
#406=ORIENTED_EDGE('',*,*,#401,.T.) ;
#436=ORIENTED_EDGE('',*,*,#239,.T.) ;
#437=ORIENTED_EDGE('',*,*,#422,.T.) ;
#438=ORIENTED_EDGE('',*,*,#429,.T.) ;
#439=ORIENTED_EDGE('',*,*,#434,.T.) ;
#467=ORIENTED_EDGE('',*,*,#460,.F.) ;
#468=ORIENTED_EDGE('',*,*,#465,.T.) ;
#469=ORIENTED_EDGE('',*,*,#246,.T.) ;
#470=ORIENTED_EDGE('',*,*,#434,.F.) ;
#493=ORIENTED_EDGE('',*,*,#465,.F.) ;
#494=ORIENTED_EDGE('',*,*,#486,.F.) ;
#495=ORIENTED_EDGE('',*,*,#491,.F.) ;
#496=ORIENTED_EDGE('',*,*,#253,.F.) ;
#517=ORIENTED_EDGE('',*,*,#258,.F.) ;
#518=ORIENTED_EDGE('',*,*,#491,.T.) ;
#519=ORIENTED_EDGE('',*,*,#515,.T.) ;
#520=ORIENTED_EDGE('',*,*,#422,.F.) ;
#536=ORIENTED_EDGE('',*,*,#310,.T.) ;
#537=ORIENTED_EDGE('',*,*,#401,.F.) ;
#538=ORIENTED_EDGE('',*,*,#372,.F.) ;
#539=ORIENTED_EDGE('',*,*,#341,.T.) ;
#550=ORIENTED_EDGE('',*,*,#515,.F.) ;
#551=ORIENTED_EDGE('',*,*,#486,.T.) ;
#552=ORIENTED_EDGE('',*,*,#460,.T.) ;
#553=ORIENTED_EDGE('',*,*,#429,.F.) ;
#230=FACE_BOUND('',#225,.T.) ;
#264=FACE_BOUND('',#259,.T.) ;
#32=CLOSED_SHELL('Closed Shell',(#72,#111,#142,#173,#265,#284,#322,#353,#384,#408,#441,#472,#498,#522,#541,#555)) ;
#563=ADVANCED_BREP_SHAPE_REPRESENTATION('NONE',(#22),#17) ;
#72=ADVANCED_FACE('S3D gedreht',(#71),#37,.F.) ;
#111=ADVANCED_FACE('S3D gedreht',(#110),#85,.F.) ;
#142=ADVANCED_FACE('S3D gedreht',(#141),#123,.T.) ;
#173=ADVANCED_FACE('S3D gedreht',(#172),#154,.T.) ;
#265=ADVANCED_FACE('S3D gedreht',(#219,#230,#264),#185,.T.) ;
#284=ADVANCED_FACE('S3D gedreht',(#283),#277,.T.) ;
#322=ADVANCED_FACE('S3D gedreht',(#321),#296,.F.) ;
#353=ADVANCED_FACE('S3D gedreht',(#352),#334,.T.) ;
#384=ADVANCED_FACE('S3D gedreht',(#383),#365,.T.) ;
#408=ADVANCED_FACE('S3D gedreht',(#407),#396,.T.) ;
#441=ADVANCED_FACE('S3D gedreht',(#440),#85,.F.) ;
#472=ADVANCED_FACE('S3D gedreht',(#471),#453,.F.) ;
#498=ADVANCED_FACE('S3D gedreht',(#497),#154,.T.) ;
#522=ADVANCED_FACE('S3D gedreht',(#521),#510,.T.) ;
#541=ADVANCED_FACE('S3D gedreht',(#540),#534,.T.) ;
#555=ADVANCED_FACE('S3D gedreht',(#554),#123,.T.) ;
#4=APPLICATION_PROTOCOL_DEFINITION('international standard','automotive_design',2001,#1) ;
#22=MANIFOLD_SOLID_BREP('S3D gedreht',#32) ;
#23=COLOUR_RGB('Colour',0.823529411765,0.823529411765,1.) ;
#80=OVER_RIDING_STYLED_ITEM(' ',(#79),#72,#30) ;
#118=OVER_RIDING_STYLED_ITEM(' ',(#117),#111,#30) ;
#149=OVER_RIDING_STYLED_ITEM(' ',(#148),#142,#30) ;
#180=OVER_RIDING_STYLED_ITEM(' ',(#179),#173,#30) ;
#272=OVER_RIDING_STYLED_ITEM(' ',(#271),#265,#30) ;
#291=OVER_RIDING_STYLED_ITEM(' ',(#290),#284,#30) ;
#329=OVER_RIDING_STYLED_ITEM(' ',(#328),#322,#30) ;
#360=OVER_RIDING_STYLED_ITEM(' ',(#359),#353,#30) ;
#391=OVER_RIDING_STYLED_ITEM(' ',(#390),#384,#30) ;
#415=OVER_RIDING_STYLED_ITEM(' ',(#414),#408,#30) ;
#448=OVER_RIDING_STYLED_ITEM(' ',(#447),#441,#30) ;
#479=OVER_RIDING_STYLED_ITEM(' ',(#478),#472,#30) ;
#505=OVER_RIDING_STYLED_ITEM(' ',(#504),#498,#30) ;
#529=OVER_RIDING_STYLED_ITEM(' ',(#528),#522,#30) ;
#548=OVER_RIDING_STYLED_ITEM(' ',(#547),#541,#30) ;
#562=OVER_RIDING_STYLED_ITEM(' ',(#561),#555,#30) ;
#73=DRAUGHTING_PRE_DEFINED_COLOUR('yellow') ;
#46=EDGE_CURVE('',#43,#45,#41,.T.) ;
#53=EDGE_CURVE('',#52,#45,#50,.T.) ;
#60=EDGE_CURVE('',#59,#52,#57,.T.) ;
#65=EDGE_CURVE('',#59,#43,#64,.T.) ;
#92=EDGE_CURVE('',#91,#43,#89,.T.) ;
#99=EDGE_CURVE('',#98,#91,#96,.F.) ;
#104=EDGE_CURVE('',#45,#98,#103,.F.) ;
#130=EDGE_CURVE('',#129,#98,#127,.T.) ;
#135=EDGE_CURVE('',#52,#129,#134,.F.) ;
#161=EDGE_CURVE('',#129,#160,#158,.F.) ;
#166=EDGE_CURVE('',#160,#59,#165,.T.) ;
#194=EDGE_CURVE('',#191,#193,#189,.F.) ;
#201=EDGE_CURVE('',#200,#193,#198,.T.) ;
#208=EDGE_CURVE('',#207,#200,#205,.F.) ;
#213=EDGE_CURVE('',#207,#191,#212,.T.) ;
#224=EDGE_CURVE('',#160,#91,#223,.T.) ;
#239=EDGE_CURVE('',#236,#238,#234,.T.) ;
#246=EDGE_CURVE('',#245,#236,#243,.T.) ;
#253=EDGE_CURVE('',#245,#252,#250,.T.) ;
#258=EDGE_CURVE('',#252,#238,#257,.T.) ;
#303=EDGE_CURVE('',#302,#191,#300,.F.) ;
#310=EDGE_CURVE('',#309,#302,#307,.F.) ;
#315=EDGE_CURVE('',#193,#309,#314,.F.) ;
#341=EDGE_CURVE('',#340,#309,#338,.T.) ;
#346=EDGE_CURVE('',#200,#340,#345,.F.) ;
#372=EDGE_CURVE('',#340,#371,#369,.F.) ;
#377=EDGE_CURVE('',#371,#207,#376,.F.) ;
#401=EDGE_CURVE('',#371,#302,#400,.T.) ;
#422=EDGE_CURVE('',#238,#421,#419,.T.) ;
#429=EDGE_CURVE('',#421,#428,#426,.F.) ;
#434=EDGE_CURVE('',#428,#236,#433,.F.) ;
#460=EDGE_CURVE('',#459,#428,#457,.T.) ;
#465=EDGE_CURVE('',#459,#245,#464,.F.) ;
#486=EDGE_CURVE('',#485,#459,#483,.F.) ;
#491=EDGE_CURVE('',#252,#485,#490,.T.) ;
#515=EDGE_CURVE('',#485,#421,#514,.T.) ;
#66=EDGE_LOOP('',(#67,#68,#69,#70)) ;
#105=EDGE_LOOP('',(#106,#107,#108,#109)) ;
#136=EDGE_LOOP('',(#137,#138,#139,#140)) ;
#167=EDGE_LOOP('',(#168,#169,#170,#171)) ;
#214=EDGE_LOOP('',(#215,#216,#217,#218)) ;
#225=EDGE_LOOP('',(#226,#227,#228,#229)) ;
#259=EDGE_LOOP('',(#260,#261,#262,#263)) ;
#278=EDGE_LOOP('',(#279,#280,#281,#282)) ;
#316=EDGE_LOOP('',(#317,#318,#319,#320)) ;
#347=EDGE_LOOP('',(#348,#349,#350,#351)) ;
#378=EDGE_LOOP('',(#379,#380,#381,#382)) ;
#402=EDGE_LOOP('',(#403,#404,#405,#406)) ;
#435=EDGE_LOOP('',(#436,#437,#438,#439)) ;
#466=EDGE_LOOP('',(#467,#468,#469,#470)) ;
#492=EDGE_LOOP('',(#493,#494,#495,#496)) ;
#516=EDGE_LOOP('',(#517,#518,#519,#520)) ;
#535=EDGE_LOOP('',(#536,#537,#538,#539)) ;
#549=EDGE_LOOP('',(#550,#551,#552,#553)) ;
#71=FACE_OUTER_BOUND('',#66,.T.) ;
#110=FACE_OUTER_BOUND('',#105,.T.) ;
#141=FACE_OUTER_BOUND('',#136,.T.) ;
#172=FACE_OUTER_BOUND('',#167,.T.) ;
#219=FACE_OUTER_BOUND('',#214,.T.) ;
#283=FACE_OUTER_BOUND('',#278,.T.) ;
#321=FACE_OUTER_BOUND('',#316,.T.) ;
#352=FACE_OUTER_BOUND('',#347,.T.) ;
#383=FACE_OUTER_BOUND('',#378,.T.) ;
#407=FACE_OUTER_BOUND('',#402,.T.) ;
#440=FACE_OUTER_BOUND('',#435,.T.) ;
#471=FACE_OUTER_BOUND('',#466,.T.) ;
#497=FACE_OUTER_BOUND('',#492,.T.) ;
#521=FACE_OUTER_BOUND('',#516,.T.) ;
#540=FACE_OUTER_BOUND('',#535,.T.) ;
#554=FACE_OUTER_BOUND('',#549,.T.) ;
#41=LINE('Line',#38,#40) ;
#50=LINE('Line',#47,#49) ;
#57=LINE('Line',#54,#56) ;
#64=LINE('Line',#61,#63) ;
#89=LINE('Line',#86,#88) ;
#96=LINE('Line',#93,#95) ;
#103=LINE('Line',#100,#102) ;
#127=LINE('Line',#124,#126) ;
#134=LINE('Line',#131,#133) ;
#158=LINE('Line',#155,#157) ;
#165=LINE('Line',#162,#164) ;
#189=LINE('Line',#186,#188) ;
#198=LINE('Line',#195,#197) ;
#205=LINE('Line',#202,#204) ;
#212=LINE('Line',#209,#211) ;
#223=LINE('Line',#220,#222) ;
#234=LINE('Line',#231,#233) ;
#243=LINE('Line',#240,#242) ;
#250=LINE('Line',#247,#249) ;
#257=LINE('Line',#254,#256) ;
#300=LINE('Line',#297,#299) ;
#307=LINE('Line',#304,#306) ;
#314=LINE('Line',#311,#313) ;
#338=LINE('Line',#335,#337) ;
#345=LINE('Line',#342,#344) ;
#369=LINE('Line',#366,#368) ;
#376=LINE('Line',#373,#375) ;
#400=LINE('Line',#397,#399) ;
#419=LINE('Line',#416,#418) ;
#426=LINE('Line',#423,#425) ;
#433=LINE('Line',#430,#432) ;
#457=LINE('Line',#454,#456) ;
#464=LINE('Line',#461,#463) ;
#483=LINE('Line',#480,#482) ;
#490=LINE('Line',#487,#489) ;
#514=LINE('Line',#511,#513) ;
#37=PLANE('',#36) ;
#85=PLANE('',#84) ;
#123=PLANE('',#122) ;
#154=PLANE('',#153) ;
#185=PLANE('',#184) ;
#277=PLANE('',#276) ;
#296=PLANE('',#295) ;
#334=PLANE('',#333) ;
#365=PLANE('',#364) ;
#396=PLANE('',#395) ;
#453=PLANE('',#452) ;
#510=PLANE('',#509) ;
#534=PLANE('',#533) ;
#14=PLANE_ANGLE_MEASURE_WITH_UNIT(PLANE_ANGLE_MEASURE(0.0174532925199),#13) ;
#9=PRODUCT_CATEGORY_RELATIONSHIP(' ',' ',#7,#8) ;
#6=PRODUCT_DEFINITION_FORMATION_WITH_SPECIFIED_SOURCE('',' ',#5,.NOT_KNOWN.) ;
#21=SHAPE_DEFINITION_REPRESENTATION(#11,#20) ;
#43=VERTEX_POINT('',#42) ;
#45=VERTEX_POINT('',#44) ;
#52=VERTEX_POINT('',#51) ;
#59=VERTEX_POINT('',#58) ;
#91=VERTEX_POINT('',#90) ;
#98=VERTEX_POINT('',#97) ;
#129=VERTEX_POINT('',#128) ;
#160=VERTEX_POINT('',#159) ;
#191=VERTEX_POINT('',#190) ;
#193=VERTEX_POINT('',#192) ;
#200=VERTEX_POINT('',#199) ;
#207=VERTEX_POINT('',#206) ;
#236=VERTEX_POINT('',#235) ;
#238=VERTEX_POINT('',#237) ;
#245=VERTEX_POINT('',#244) ;
#252=VERTEX_POINT('',#251) ;
#302=VERTEX_POINT('',#301) ;
#309=VERTEX_POINT('',#308) ;
#340=VERTEX_POINT('',#339) ;
#371=VERTEX_POINT('',#370) ;
#421=VERTEX_POINT('',#420) ;
#428=VERTEX_POINT('',#427) ;
#459=VERTEX_POINT('',#458) ;
#485=VERTEX_POINT('',#484) ;
#12=(LENGTH_UNIT()NAMED_UNIT(*)SI_UNIT(.MILLI.,.METRE.)) ;
#13=(NAMED_UNIT(*)PLANE_ANGLE_UNIT()SI_UNIT($,.RADIAN.)) ;
#15=(NAMED_UNIT(*)SI_UNIT($,.STERADIAN.)SOLID_ANGLE_UNIT()) ;
#17=(GEOMETRIC_REPRESENTATION_CONTEXT(3)GLOBAL_UNCERTAINTY_ASSIGNED_CONTEXT((#16))GLOBAL_UNIT_ASSIGNED_CONTEXT((#12,#13,#15))REPRESENTATION_CONTEXT(' ',' ')) ;
ENDSEC;
END-ISO-10303-21;
