ISO-10303-21;
HEADER;
FILE_DESCRIPTION(('CATIA V5 STEP','CAx-IF Rec.Pracs.--- Model Styling and Organization---1.4--- 2014-01-23'),'2;1');

FILE_NAME ('1176233-7_0_2712140000_71866_WS_10X6_MM_WS_Simple3D.stp','2021-06-25T15:43:27+00:00',('none'),('Weidmueller'),'CATIA Version 5-6 Release 2016 SP3 HF44','CATIA V5 STEP AP214','none');

FILE_SCHEMA(('AUTOMOTIVE_DESIGN { 1 0 10303 214 1 1 1 1 }'));

ENDSEC;
DATA;
#5=PRODUCT('71866_WS_10X6_MM_WS','','VERBINDERMARKIERER',(#2)) ;
#2=PRODUCT_CONTEXT(' ',#1,'mechanical') ;
#1=APPLICATION_CONTEXT('automotive design') ;
#10=PRODUCT_DEFINITION('',' ',#6,#3) ;
#3=PRODUCT_DEFINITION_CONTEXT('part definition',#1,' ') ;
#11=PRODUCT_DEFINITION_SHAPE(' ',' ',#10) ;
#572=MECHANICAL_DESIGN_GEOMETRIC_PRESENTATION_REPRESENTATION(' ',(#29),#16) ;
#19=SHAPE_REPRESENTATION(' ',(#18),#16) ;
#18=AXIS2_PLACEMENT_3D(' ',#17,$,$) ;
#34=AXIS2_PLACEMENT_3D('Plane Axis2P3D',#31,#32,#33) ;
#138=AXIS2_PLACEMENT_3D('Plane Axis2P3D',#135,#136,#137) ;
#242=AXIS2_PLACEMENT_3D('Plane Axis2P3D',#239,#240,#241) ;
#264=AXIS2_PLACEMENT_3D('Plane Axis2P3D',#261,#262,#263) ;
#281=AXIS2_PLACEMENT_3D('Plane Axis2P3D',#278,#279,#280) ;
#298=AXIS2_PLACEMENT_3D('Plane Axis2P3D',#295,#296,#297) ;
#327=AXIS2_PLACEMENT_3D('Plane Axis2P3D',#324,#325,#326) ;
#344=AXIS2_PLACEMENT_3D('Plane Axis2P3D',#341,#342,#343) ;
#361=AXIS2_PLACEMENT_3D('Plane Axis2P3D',#358,#359,#360) ;
#378=AXIS2_PLACEMENT_3D('Plane Axis2P3D',#375,#376,#377) ;
#395=AXIS2_PLACEMENT_3D('Plane Axis2P3D',#392,#393,#394) ;
#435=AXIS2_PLACEMENT_3D('Plane Axis2P3D',#432,#433,#434) ;
#485=AXIS2_PLACEMENT_3D('Plane Axis2P3D',#482,#483,#484) ;
#509=AXIS2_PLACEMENT_3D('Plane Axis2P3D',#506,#507,#508) ;
#549=AXIS2_PLACEMENT_3D('Plane Axis2P3D',#546,#547,#548) ;
#561=AXIS2_PLACEMENT_3D('Plane Axis2P3D',#558,#559,#560) ;
#17=CARTESIAN_POINT(' ',(0.,0.,0.)) ;
#31=CARTESIAN_POINT('Axis2P3D Location',(6.1,5.9,2.06214366)) ;
#36=CARTESIAN_POINT('Line Origine',(6.1,6.74482062594,1.56214366)) ;
#40=CARTESIAN_POINT('Vertex',(6.1,8.75,1.56214366)) ;
#42=CARTESIAN_POINT('Vertex',(6.1,4.73964125188,1.56214366)) ;
#45=CARTESIAN_POINT('Line Origine',(6.1,8.75,1.81214366)) ;
#49=CARTESIAN_POINT('Vertex',(6.1,8.75,2.06214366)) ;
#52=CARTESIAN_POINT('Line Origine',(6.1,9.275,2.06214366)) ;
#56=CARTESIAN_POINT('Vertex',(6.1,9.8,2.06214366)) ;
#59=CARTESIAN_POINT('Line Origine',(6.1,9.8,2.46214366)) ;
#63=CARTESIAN_POINT('Vertex',(6.1,9.8,2.86214366)) ;
#66=CARTESIAN_POINT('Line Origine',(6.1,4.9,2.86214366)) ;
#70=CARTESIAN_POINT('Vertex',(6.1,4.89858719659E-017,2.86214366)) ;
#73=CARTESIAN_POINT('Line Origine',(6.1,2.44929359829E-017,2.46214366)) ;
#77=CARTESIAN_POINT('Vertex',(6.1,-2.71926214689E-032,2.06214366)) ;
#80=CARTESIAN_POINT('Line Origine',(6.1,1.525,2.06214366)) ;
#84=CARTESIAN_POINT('Vertex',(6.1,3.05,2.06214366)) ;
#87=CARTESIAN_POINT('Line Origine',(6.1,3.05,1.81214366)) ;
#91=CARTESIAN_POINT('Vertex',(6.1,3.05,1.56214366)) ;
#94=CARTESIAN_POINT('Line Origine',(6.1,3.475,1.56214366)) ;
#98=CARTESIAN_POINT('Vertex',(6.1,3.9,1.56214366)) ;
#101=CARTESIAN_POINT('Line Origine',(6.1,3.9,0.781071830416)) ;
#105=CARTESIAN_POINT('Vertex',(6.1,3.9,8.31980262461E-010)) ;
#108=CARTESIAN_POINT('Line Origine',(6.1,4.11053305997,8.3198070655E-010)) ;
#112=CARTESIAN_POINT('Vertex',(6.1,4.32106611995,8.3198070655E-010)) ;
#115=CARTESIAN_POINT('Line Origine',(6.1,4.53035368592,0.781071830416)) ;
#135=CARTESIAN_POINT('Axis2P3D Location',(0.,5.9,2.06214366)) ;
#140=CARTESIAN_POINT('Line Origine',(-8.38666487253E-017,4.53035368592,0.781071830416)) ;
#144=CARTESIAN_POINT('Vertex',(-9.66818161135E-017,4.32106611995,8.3198070655E-010)) ;
#146=CARTESIAN_POINT('Vertex',(-7.10514813371E-017,4.73964125188,1.56214366)) ;
#149=CARTESIAN_POINT('Line Origine',(-1.09573248014E-016,4.11053305997,8.3198070655E-010)) ;
#153=CARTESIAN_POINT('Vertex',(-1.22464679915E-016,3.9,8.31980262461E-010)) ;
#156=CARTESIAN_POINT('Line Origine',(-1.22464679915E-016,3.9,0.781071830416)) ;
#160=CARTESIAN_POINT('Vertex',(-1.22464679915E-016,3.9,1.56214366)) ;
#163=CARTESIAN_POINT('Line Origine',(-1.48488424397E-016,3.475,1.56214366)) ;
#167=CARTESIAN_POINT('Vertex',(-1.74512168878E-016,3.05,1.56214366)) ;
#170=CARTESIAN_POINT('Line Origine',(-1.74512168878E-016,3.05,1.81214366)) ;
#174=CARTESIAN_POINT('Vertex',(-1.74512168878E-016,3.05,2.06214366)) ;
#177=CARTESIAN_POINT('Line Origine',(-2.67891487313E-016,1.525,2.06214366)) ;
#181=CARTESIAN_POINT('Vertex',(-3.61270805748E-016,-2.71926214689E-032,2.06214366)) ;
#184=CARTESIAN_POINT('Line Origine',(-3.61270805748E-016,2.44929359829E-017,2.46214366)) ;
#188=CARTESIAN_POINT('Vertex',(-3.61270805748E-016,4.89858719659E-017,2.86214366)) ;
#191=CARTESIAN_POINT('Line Origine',(-6.12323399574E-017,4.9,2.86214366)) ;
#195=CARTESIAN_POINT('Vertex',(2.38806125834E-016,9.8,2.86214366)) ;
#198=CARTESIAN_POINT('Line Origine',(2.38806125834E-016,9.8,2.46214366)) ;
#202=CARTESIAN_POINT('Vertex',(2.38806125834E-016,9.8,2.06214366)) ;
#205=CARTESIAN_POINT('Line Origine',(2.06659147356E-016,9.275,2.06214366)) ;
#209=CARTESIAN_POINT('Vertex',(1.74512168878E-016,8.75,2.06214366)) ;
#212=CARTESIAN_POINT('Line Origine',(1.74512168878E-016,8.75,1.81214366)) ;
#216=CARTESIAN_POINT('Vertex',(1.74512168878E-016,8.75,1.56214366)) ;
#219=CARTESIAN_POINT('Line Origine',(5.17303437707E-017,6.74482062594,1.56214366)) ;
#239=CARTESIAN_POINT('Axis2P3D Location',(3.05,3.05,2.06214366)) ;
#244=CARTESIAN_POINT('Line Origine',(3.05,8.75,2.06214366)) ;
#249=CARTESIAN_POINT('Line Origine',(3.05,9.8,2.06214366)) ;
#261=CARTESIAN_POINT('Axis2P3D Location',(3.05,9.8,2.06214366)) ;
#266=CARTESIAN_POINT('Line Origine',(3.05,9.8,2.86214366)) ;
#278=CARTESIAN_POINT('Axis2P3D Location',(3.05,8.881784197E-016,2.86214366)) ;
#283=CARTESIAN_POINT('Line Origine',(3.05,8.881784197E-016,2.86214366)) ;
#295=CARTESIAN_POINT('Axis2P3D Location',(3.05,0.,2.86214366)) ;
#300=CARTESIAN_POINT('Line Origine',(3.05,-4.89858719659E-017,2.06214366)) ;
#312=CARTESIAN_POINT('Line Origine',(3.05,3.05,2.06214366)) ;
#324=CARTESIAN_POINT('Axis2P3D Location',(3.05,3.05,2.06214366)) ;
#329=CARTESIAN_POINT('Line Origine',(3.05,3.05,1.56214366)) ;
#341=CARTESIAN_POINT('Axis2P3D Location',(3.05,3.05,1.56214366)) ;
#346=CARTESIAN_POINT('Line Origine',(3.05,3.9,1.56214366)) ;
#358=CARTESIAN_POINT('Axis2P3D Location',(3.05,3.9,1.56214366)) ;
#363=CARTESIAN_POINT('Line Origine',(3.05,3.9,8.31980262461E-010)) ;
#375=CARTESIAN_POINT('Axis2P3D Location',(3.05,3.9,8.3198070655E-010)) ;
#380=CARTESIAN_POINT('Line Origine',(3.05,4.32106611995,8.31980680768E-010)) ;
#392=CARTESIAN_POINT('Axis2P3D Location',(3.05,7.47893388005,8.31980262461E-010)) ;
#397=CARTESIAN_POINT('Line Origine',(3.05,7.47893388005,8.31980262461E-010)) ;
#401=CARTESIAN_POINT('Vertex',(0.7,7.47893388005,8.31980732333E-010)) ;
#403=CARTESIAN_POINT('Vertex',(5.4,7.47893388005,8.31980732333E-010)) ;
#406=CARTESIAN_POINT('Line Origine',(5.4,7.26964631408,0.781071830416)) ;
#410=CARTESIAN_POINT('Vertex',(5.4,7.06035874812,1.56214366)) ;
#413=CARTESIAN_POINT('Line Origine',(3.05,7.06035874812,1.56214366)) ;
#417=CARTESIAN_POINT('Vertex',(0.7,7.06035874812,1.56214366)) ;
#420=CARTESIAN_POINT('Line Origine',(0.7,7.26964631408,0.781071830416)) ;
#432=CARTESIAN_POINT('Axis2P3D Location',(0.7,7.9,8.3198070655E-010)) ;
#437=CARTESIAN_POINT('Line Origine',(0.7,7.48017937406,1.56214366)) ;
#441=CARTESIAN_POINT('Vertex',(0.7,7.9,1.56214366)) ;
#444=CARTESIAN_POINT('Line Origine',(0.7,7.9,0.781071830416)) ;
#448=CARTESIAN_POINT('Vertex',(0.7,7.9,8.31980461621E-010)) ;
#451=CARTESIAN_POINT('Line Origine',(0.7,7.68946694003,8.31980719442E-010)) ;
#463=CARTESIAN_POINT('Line Origine',(3.05,7.9,8.31980461621E-010)) ;
#467=CARTESIAN_POINT('Vertex',(5.4,7.9,8.31980461621E-010)) ;
#470=CARTESIAN_POINT('Line Origine',(5.4,7.68946694003,8.31980474513E-010)) ;
#482=CARTESIAN_POINT('Axis2P3D Location',(3.05,7.9,1.56214366)) ;
#487=CARTESIAN_POINT('Line Origine',(3.05,7.9,1.56214366)) ;
#491=CARTESIAN_POINT('Vertex',(5.4,7.9,1.56214366)) ;
#494=CARTESIAN_POINT('Line Origine',(5.4,7.9,0.781071830416)) ;
#506=CARTESIAN_POINT('Axis2P3D Location',(5.4,7.9,1.56214366)) ;
#511=CARTESIAN_POINT('Line Origine',(5.4,7.48017937406,1.56214366)) ;
#523=CARTESIAN_POINT('Line Origine',(3.05,4.73964125188,1.56214366)) ;
#528=CARTESIAN_POINT('Line Origine',(3.05,8.75,1.56214366)) ;
#546=CARTESIAN_POINT('Axis2P3D Location',(3.05,8.75,2.06214366)) ;
#558=CARTESIAN_POINT('Axis2P3D Location',(3.05,4.32106611995,8.31980262461E-010)) ;
#32=DIRECTION('Axis2P3D Direction',(1.,-6.12323399574E-017,3.74939945665E-033)) ;
#33=DIRECTION('Axis2P3D XDirection',(6.12323399574E-017,1.,-6.12323399574E-017)) ;
#37=DIRECTION('Vector Direction',(0.,1.,0.)) ;
#46=DIRECTION('Vector Direction',(0.,0.,-1.)) ;
#53=DIRECTION('Vector Direction',(0.,-1.,4.22942104619E-016)) ;
#60=DIRECTION('Vector Direction',(0.,0.,1.)) ;
#67=DIRECTION('Vector Direction',(0.,1.,-9.06304509898E-017)) ;
#74=DIRECTION('Vector Direction',(0.,-6.12323399574E-017,-1.)) ;
#81=DIRECTION('Vector Direction',(0.,-1.,1.45603019623E-016)) ;
#88=DIRECTION('Vector Direction',(0.,0.,-1.)) ;
#95=DIRECTION('Vector Direction',(0.,1.,0.)) ;
#102=DIRECTION('Vector Direction',(0.,0.,-1.)) ;
#109=DIRECTION('Vector Direction',(0.,1.,0.)) ;
#116=DIRECTION('Vector Direction',(0.,0.258819045103,0.965925826289)) ;
#136=DIRECTION('Axis2P3D Direction',(1.,-6.12323399574E-017,3.74939945665E-033)) ;
#137=DIRECTION('Axis2P3D XDirection',(6.12323399574E-017,1.,-6.12323399574E-017)) ;
#141=DIRECTION('Vector Direction',(1.58480957572E-017,0.258819045103,0.965925826289)) ;
#150=DIRECTION('Vector Direction',(6.12323399574E-017,1.,0.)) ;
#157=DIRECTION('Vector Direction',(0.,0.,-1.)) ;
#164=DIRECTION('Vector Direction',(6.12323399574E-017,1.,0.)) ;
#171=DIRECTION('Vector Direction',(0.,0.,-1.)) ;
#178=DIRECTION('Vector Direction',(-6.12323399574E-017,-1.,1.45603019623E-016)) ;
#185=DIRECTION('Vector Direction',(0.,-6.12323399574E-017,-1.)) ;
#192=DIRECTION('Vector Direction',(6.12323399574E-017,1.,-9.06304509898E-017)) ;
#199=DIRECTION('Vector Direction',(0.,0.,1.)) ;
#206=DIRECTION('Vector Direction',(-6.12323399574E-017,-1.,4.22942104619E-016)) ;
#213=DIRECTION('Vector Direction',(0.,0.,-1.)) ;
#220=DIRECTION('Vector Direction',(-6.12323399574E-017,-1.,0.)) ;
#240=DIRECTION('Axis2P3D Direction',(0.,6.12323399574E-017,1.)) ;
#241=DIRECTION('Axis2P3D XDirection',(-6.12323399574E-017,-1.,6.12323399574E-017)) ;
#245=DIRECTION('Vector Direction',(1.,0.,0.)) ;
#250=DIRECTION('Vector Direction',(1.,0.,0.)) ;
#262=DIRECTION('Axis2P3D Direction',(6.12323399574E-017,1.,-6.12323399574E-017)) ;
#263=DIRECTION('Axis2P3D XDirection',(0.,6.12323399574E-017,1.)) ;
#267=DIRECTION('Vector Direction',(1.,0.,0.)) ;
#279=DIRECTION('Axis2P3D Direction',(0.,-6.12323399574E-017,-1.)) ;
#280=DIRECTION('Axis2P3D XDirection',(6.12323399574E-017,1.,-6.12323399574E-017)) ;
#284=DIRECTION('Vector Direction',(1.,-6.12323399574E-017,0.)) ;
#296=DIRECTION('Axis2P3D Direction',(-6.12323399574E-017,-1.,6.12323399574E-017)) ;
#297=DIRECTION('Axis2P3D XDirection',(0.,-6.12323399574E-017,-1.)) ;
#301=DIRECTION('Vector Direction',(1.,-6.12323399574E-017,0.)) ;
#313=DIRECTION('Vector Direction',(1.,0.,0.)) ;
#325=DIRECTION('Axis2P3D Direction',(-6.12323399574E-017,-1.,6.12323399574E-017)) ;
#326=DIRECTION('Axis2P3D XDirection',(0.,-6.12323399574E-017,-1.)) ;
#330=DIRECTION('Vector Direction',(1.,0.,0.)) ;
#342=DIRECTION('Axis2P3D Direction',(0.,-6.12323399574E-017,-1.)) ;
#343=DIRECTION('Axis2P3D XDirection',(6.12323399574E-017,1.,-6.12323399574E-017)) ;
#347=DIRECTION('Vector Direction',(1.,0.,0.)) ;
#359=DIRECTION('Axis2P3D Direction',(-6.12323399574E-017,-1.,6.12323399574E-017)) ;
#360=DIRECTION('Axis2P3D XDirection',(0.,-6.12323399574E-017,-1.)) ;
#364=DIRECTION('Vector Direction',(1.,0.,0.)) ;
#376=DIRECTION('Axis2P3D Direction',(0.,-6.12323399574E-017,-1.)) ;
#377=DIRECTION('Axis2P3D XDirection',(6.12323399574E-017,1.,-6.12323399574E-017)) ;
#381=DIRECTION('Vector Direction',(1.,0.,0.)) ;
#393=DIRECTION('Axis2P3D Direction',(5.91458985689E-017,0.965925826289,0.258819045103)) ;
#394=DIRECTION('Axis2P3D XDirection',(-1.58480957572E-017,-0.258819045103,0.965925826289)) ;
#398=DIRECTION('Vector Direction',(1.,0.,0.)) ;
#407=DIRECTION('Vector Direction',(-5.49190510684E-016,0.258819045103,-0.965925826289)) ;
#414=DIRECTION('Vector Direction',(1.,0.,0.)) ;
#421=DIRECTION('Vector Direction',(0.,-0.258819045103,0.965925826289)) ;
#433=DIRECTION('Axis2P3D Direction',(1.,-6.12323399574E-017,3.74939945665E-033)) ;
#434=DIRECTION('Axis2P3D XDirection',(0.,6.12323399574E-017,1.)) ;
#438=DIRECTION('Vector Direction',(0.,-1.,0.)) ;
#445=DIRECTION('Vector Direction',(0.,0.,1.)) ;
#452=DIRECTION('Vector Direction',(0.,-1.,6.12323399517E-017)) ;
#464=DIRECTION('Vector Direction',(1.,0.,0.)) ;
#471=DIRECTION('Vector Direction',(-2.10935617382E-015,-1.,6.12323399517E-017)) ;
#483=DIRECTION('Axis2P3D Direction',(-6.12323399574E-017,-1.,6.12323399574E-017)) ;
#484=DIRECTION('Axis2P3D XDirection',(0.,-6.12323399574E-017,-1.)) ;
#488=DIRECTION('Vector Direction',(1.,0.,0.)) ;
#495=DIRECTION('Vector Direction',(0.,0.,-1.)) ;
#507=DIRECTION('Axis2P3D Direction',(-1.,6.12323399574E-017,-3.74939945665E-033)) ;
#508=DIRECTION('Axis2P3D XDirection',(0.,-6.12323399574E-017,-1.)) ;
#512=DIRECTION('Vector Direction',(0.,-1.,0.)) ;
#524=DIRECTION('Vector Direction',(1.,0.,0.)) ;
#529=DIRECTION('Vector Direction',(1.,0.,0.)) ;
#547=DIRECTION('Axis2P3D Direction',(-6.12323399574E-017,-1.,6.12323399574E-017)) ;
#548=DIRECTION('Axis2P3D XDirection',(0.,-6.12323399574E-017,-1.)) ;
#559=DIRECTION('Axis2P3D Direction',(5.91458985689E-017,0.965925826289,-0.258819045103)) ;
#560=DIRECTION('Axis2P3D XDirection',(1.58480957572E-017,0.258819045103,0.965925826289)) ;
#8=PRODUCT_RELATED_PRODUCT_CATEGORY('part',$,(#5)) ;
#7=PRODUCT_CATEGORY('part','specification') ;
#29=STYLED_ITEM(' ',(#28),#21) ;
#28=PRESENTATION_STYLE_ASSIGNMENT((#27)) ;
#27=SURFACE_STYLE_USAGE(.BOTH.,#26) ;
#26=SURFACE_SIDE_STYLE(' ',(#25)) ;
#25=SURFACE_STYLE_FILL_AREA(#24) ;
#24=FILL_AREA_STYLE(' ',(#23)) ;
#23=FILL_AREA_STYLE_COLOUR(' ',#22) ;
#38=VECTOR('Line Direction',#37,1.) ;
#47=VECTOR('Line Direction',#46,1.) ;
#54=VECTOR('Line Direction',#53,1.) ;
#61=VECTOR('Line Direction',#60,1.) ;
#68=VECTOR('Line Direction',#67,1.) ;
#75=VECTOR('Line Direction',#74,1.) ;
#82=VECTOR('Line Direction',#81,1.) ;
#89=VECTOR('Line Direction',#88,1.) ;
#96=VECTOR('Line Direction',#95,1.) ;
#103=VECTOR('Line Direction',#102,1.) ;
#110=VECTOR('Line Direction',#109,1.) ;
#117=VECTOR('Line Direction',#116,1.) ;
#142=VECTOR('Line Direction',#141,1.) ;
#151=VECTOR('Line Direction',#150,1.) ;
#158=VECTOR('Line Direction',#157,1.) ;
#165=VECTOR('Line Direction',#164,1.) ;
#172=VECTOR('Line Direction',#171,1.) ;
#179=VECTOR('Line Direction',#178,1.) ;
#186=VECTOR('Line Direction',#185,1.) ;
#193=VECTOR('Line Direction',#192,1.) ;
#200=VECTOR('Line Direction',#199,1.) ;
#207=VECTOR('Line Direction',#206,1.) ;
#214=VECTOR('Line Direction',#213,1.) ;
#221=VECTOR('Line Direction',#220,1.) ;
#246=VECTOR('Line Direction',#245,1.) ;
#251=VECTOR('Line Direction',#250,1.) ;
#268=VECTOR('Line Direction',#267,1.) ;
#285=VECTOR('Line Direction',#284,1.) ;
#302=VECTOR('Line Direction',#301,1.) ;
#314=VECTOR('Line Direction',#313,1.) ;
#331=VECTOR('Line Direction',#330,1.) ;
#348=VECTOR('Line Direction',#347,1.) ;
#365=VECTOR('Line Direction',#364,1.) ;
#382=VECTOR('Line Direction',#381,1.) ;
#399=VECTOR('Line Direction',#398,1.) ;
#408=VECTOR('Line Direction',#407,1.) ;
#415=VECTOR('Line Direction',#414,1.) ;
#422=VECTOR('Line Direction',#421,1.) ;
#439=VECTOR('Line Direction',#438,1.) ;
#446=VECTOR('Line Direction',#445,1.) ;
#453=VECTOR('Line Direction',#452,1.) ;
#465=VECTOR('Line Direction',#464,1.) ;
#472=VECTOR('Line Direction',#471,1.) ;
#489=VECTOR('Line Direction',#488,1.) ;
#496=VECTOR('Line Direction',#495,1.) ;
#513=VECTOR('Line Direction',#512,1.) ;
#525=VECTOR('Line Direction',#524,1.) ;
#530=VECTOR('Line Direction',#529,1.) ;
#15=UNCERTAINTY_MEASURE_WITH_UNIT(LENGTH_MEASURE(0.005),#12,'distance_accuracy_value','CONFUSED CURVE UNCERTAINTY') ;
#571=SHAPE_REPRESENTATION_RELATIONSHIP(' ',' ',#19,#570) ;
#121=ORIENTED_EDGE('',*,*,#44,.F.) ;
#122=ORIENTED_EDGE('',*,*,#51,.T.) ;
#123=ORIENTED_EDGE('',*,*,#58,.T.) ;
#124=ORIENTED_EDGE('',*,*,#65,.T.) ;
#125=ORIENTED_EDGE('',*,*,#72,.T.) ;
#126=ORIENTED_EDGE('',*,*,#79,.T.) ;
#127=ORIENTED_EDGE('',*,*,#86,.T.) ;
#128=ORIENTED_EDGE('',*,*,#93,.T.) ;
#129=ORIENTED_EDGE('',*,*,#100,.T.) ;
#130=ORIENTED_EDGE('',*,*,#107,.T.) ;
#131=ORIENTED_EDGE('',*,*,#114,.T.) ;
#132=ORIENTED_EDGE('',*,*,#119,.T.) ;
#225=ORIENTED_EDGE('',*,*,#148,.F.) ;
#226=ORIENTED_EDGE('',*,*,#155,.F.) ;
#227=ORIENTED_EDGE('',*,*,#162,.F.) ;
#228=ORIENTED_EDGE('',*,*,#169,.F.) ;
#229=ORIENTED_EDGE('',*,*,#176,.F.) ;
#230=ORIENTED_EDGE('',*,*,#183,.F.) ;
#231=ORIENTED_EDGE('',*,*,#190,.F.) ;
#232=ORIENTED_EDGE('',*,*,#197,.F.) ;
#233=ORIENTED_EDGE('',*,*,#204,.F.) ;
#234=ORIENTED_EDGE('',*,*,#211,.F.) ;
#235=ORIENTED_EDGE('',*,*,#218,.F.) ;
#236=ORIENTED_EDGE('',*,*,#223,.T.) ;
#255=ORIENTED_EDGE('',*,*,#248,.F.) ;
#256=ORIENTED_EDGE('',*,*,#211,.T.) ;
#257=ORIENTED_EDGE('',*,*,#253,.T.) ;
#258=ORIENTED_EDGE('',*,*,#58,.F.) ;
#272=ORIENTED_EDGE('',*,*,#253,.F.) ;
#273=ORIENTED_EDGE('',*,*,#204,.T.) ;
#274=ORIENTED_EDGE('',*,*,#270,.T.) ;
#275=ORIENTED_EDGE('',*,*,#65,.F.) ;
#289=ORIENTED_EDGE('',*,*,#270,.F.) ;
#290=ORIENTED_EDGE('',*,*,#197,.T.) ;
#291=ORIENTED_EDGE('',*,*,#287,.T.) ;
#292=ORIENTED_EDGE('',*,*,#72,.F.) ;
#306=ORIENTED_EDGE('',*,*,#287,.F.) ;
#307=ORIENTED_EDGE('',*,*,#190,.T.) ;
#308=ORIENTED_EDGE('',*,*,#304,.T.) ;
#309=ORIENTED_EDGE('',*,*,#79,.F.) ;
#318=ORIENTED_EDGE('',*,*,#304,.F.) ;
#319=ORIENTED_EDGE('',*,*,#183,.T.) ;
#320=ORIENTED_EDGE('',*,*,#316,.T.) ;
#321=ORIENTED_EDGE('',*,*,#86,.F.) ;
#335=ORIENTED_EDGE('',*,*,#316,.F.) ;
#336=ORIENTED_EDGE('',*,*,#176,.T.) ;
#337=ORIENTED_EDGE('',*,*,#333,.T.) ;
#338=ORIENTED_EDGE('',*,*,#93,.F.) ;
#352=ORIENTED_EDGE('',*,*,#333,.F.) ;
#353=ORIENTED_EDGE('',*,*,#169,.T.) ;
#354=ORIENTED_EDGE('',*,*,#350,.T.) ;
#355=ORIENTED_EDGE('',*,*,#100,.F.) ;
#369=ORIENTED_EDGE('',*,*,#350,.F.) ;
#370=ORIENTED_EDGE('',*,*,#162,.T.) ;
#371=ORIENTED_EDGE('',*,*,#367,.T.) ;
#372=ORIENTED_EDGE('',*,*,#107,.F.) ;
#386=ORIENTED_EDGE('',*,*,#367,.F.) ;
#387=ORIENTED_EDGE('',*,*,#155,.T.) ;
#388=ORIENTED_EDGE('',*,*,#384,.T.) ;
#389=ORIENTED_EDGE('',*,*,#114,.F.) ;
#426=ORIENTED_EDGE('',*,*,#405,.T.) ;
#427=ORIENTED_EDGE('',*,*,#412,.F.) ;
#428=ORIENTED_EDGE('',*,*,#419,.F.) ;
#429=ORIENTED_EDGE('',*,*,#424,.F.) ;
#457=ORIENTED_EDGE('',*,*,#424,.T.) ;
#458=ORIENTED_EDGE('',*,*,#443,.F.) ;
#459=ORIENTED_EDGE('',*,*,#450,.T.) ;
#460=ORIENTED_EDGE('',*,*,#455,.T.) ;
#476=ORIENTED_EDGE('',*,*,#455,.F.) ;
#477=ORIENTED_EDGE('',*,*,#469,.T.) ;
#478=ORIENTED_EDGE('',*,*,#474,.T.) ;
#479=ORIENTED_EDGE('',*,*,#405,.F.) ;
#500=ORIENTED_EDGE('',*,*,#493,.T.) ;
#501=ORIENTED_EDGE('',*,*,#498,.F.) ;
#502=ORIENTED_EDGE('',*,*,#469,.F.) ;
#503=ORIENTED_EDGE('',*,*,#450,.F.) ;
#517=ORIENTED_EDGE('',*,*,#412,.T.) ;
#518=ORIENTED_EDGE('',*,*,#474,.F.) ;
#519=ORIENTED_EDGE('',*,*,#498,.T.) ;
#520=ORIENTED_EDGE('',*,*,#515,.T.) ;
#534=ORIENTED_EDGE('',*,*,#527,.F.) ;
#535=ORIENTED_EDGE('',*,*,#223,.F.) ;
#536=ORIENTED_EDGE('',*,*,#532,.T.) ;
#537=ORIENTED_EDGE('',*,*,#44,.T.) ;
#540=ORIENTED_EDGE('',*,*,#443,.T.) ;
#541=ORIENTED_EDGE('',*,*,#419,.T.) ;
#542=ORIENTED_EDGE('',*,*,#515,.F.) ;
#543=ORIENTED_EDGE('',*,*,#493,.F.) ;
#552=ORIENTED_EDGE('',*,*,#532,.F.) ;
#553=ORIENTED_EDGE('',*,*,#218,.T.) ;
#554=ORIENTED_EDGE('',*,*,#248,.T.) ;
#555=ORIENTED_EDGE('',*,*,#51,.F.) ;
#564=ORIENTED_EDGE('',*,*,#384,.F.) ;
#565=ORIENTED_EDGE('',*,*,#148,.T.) ;
#566=ORIENTED_EDGE('',*,*,#527,.T.) ;
#567=ORIENTED_EDGE('',*,*,#119,.F.) ;
#544=FACE_BOUND('',#539,.T.) ;
#30=CLOSED_SHELL('Closed Shell',(#134,#238,#260,#277,#294,#311,#323,#340,#357,#374,#391,#431,#462,#481,#505,#522,#545,#557,#569)) ;
#570=ADVANCED_BREP_SHAPE_REPRESENTATION('NONE',(#21),#16) ;
#134=ADVANCED_FACE('S3D positioniert',(#133),#35,.T.) ;
#238=ADVANCED_FACE('S3D positioniert',(#237),#139,.F.) ;
#260=ADVANCED_FACE('S3D positioniert',(#259),#243,.F.) ;
#277=ADVANCED_FACE('S3D positioniert',(#276),#265,.T.) ;
#294=ADVANCED_FACE('S3D positioniert',(#293),#282,.F.) ;
#311=ADVANCED_FACE('S3D positioniert',(#310),#299,.T.) ;
#323=ADVANCED_FACE('S3D positioniert',(#322),#243,.F.) ;
#340=ADVANCED_FACE('S3D positioniert',(#339),#328,.T.) ;
#357=ADVANCED_FACE('S3D positioniert',(#356),#345,.T.) ;
#374=ADVANCED_FACE('S3D positioniert',(#373),#362,.T.) ;
#391=ADVANCED_FACE('S3D positioniert',(#390),#379,.T.) ;
#431=ADVANCED_FACE('S3D positioniert',(#430),#396,.F.) ;
#462=ADVANCED_FACE('S3D positioniert',(#461),#436,.F.) ;
#481=ADVANCED_FACE('S3D positioniert',(#480),#379,.T.) ;
#505=ADVANCED_FACE('S3D positioniert',(#504),#486,.F.) ;
#522=ADVANCED_FACE('S3D positioniert',(#521),#510,.F.) ;
#545=ADVANCED_FACE('S3D positioniert',(#538,#544),#345,.T.) ;
#557=ADVANCED_FACE('S3D positioniert',(#556),#550,.F.) ;
#569=ADVANCED_FACE('S3D positioniert',(#568),#562,.T.) ;
#4=APPLICATION_PROTOCOL_DEFINITION('international standard','automotive_design',2001,#1) ;
#21=MANIFOLD_SOLID_BREP('S3D positioniert',#30) ;
#22=DRAUGHTING_PRE_DEFINED_COLOUR('white') ;
#44=EDGE_CURVE('',#41,#43,#39,.F.) ;
#51=EDGE_CURVE('',#41,#50,#48,.F.) ;
#58=EDGE_CURVE('',#50,#57,#55,.F.) ;
#65=EDGE_CURVE('',#57,#64,#62,.T.) ;
#72=EDGE_CURVE('',#64,#71,#69,.F.) ;
#79=EDGE_CURVE('',#71,#78,#76,.T.) ;
#86=EDGE_CURVE('',#78,#85,#83,.F.) ;
#93=EDGE_CURVE('',#85,#92,#90,.T.) ;
#100=EDGE_CURVE('',#92,#99,#97,.T.) ;
#107=EDGE_CURVE('',#99,#106,#104,.T.) ;
#114=EDGE_CURVE('',#106,#113,#111,.T.) ;
#119=EDGE_CURVE('',#113,#43,#118,.T.) ;
#148=EDGE_CURVE('',#145,#147,#143,.T.) ;
#155=EDGE_CURVE('',#154,#145,#152,.T.) ;
#162=EDGE_CURVE('',#161,#154,#159,.T.) ;
#169=EDGE_CURVE('',#168,#161,#166,.T.) ;
#176=EDGE_CURVE('',#175,#168,#173,.T.) ;
#183=EDGE_CURVE('',#182,#175,#180,.F.) ;
#190=EDGE_CURVE('',#189,#182,#187,.T.) ;
#197=EDGE_CURVE('',#196,#189,#194,.F.) ;
#204=EDGE_CURVE('',#203,#196,#201,.T.) ;
#211=EDGE_CURVE('',#210,#203,#208,.F.) ;
#218=EDGE_CURVE('',#217,#210,#215,.F.) ;
#223=EDGE_CURVE('',#217,#147,#222,.T.) ;
#248=EDGE_CURVE('',#210,#50,#247,.T.) ;
#253=EDGE_CURVE('',#203,#57,#252,.T.) ;
#270=EDGE_CURVE('',#196,#64,#269,.T.) ;
#287=EDGE_CURVE('',#189,#71,#286,.T.) ;
#304=EDGE_CURVE('',#182,#78,#303,.T.) ;
#316=EDGE_CURVE('',#175,#85,#315,.T.) ;
#333=EDGE_CURVE('',#168,#92,#332,.T.) ;
#350=EDGE_CURVE('',#161,#99,#349,.T.) ;
#367=EDGE_CURVE('',#154,#106,#366,.T.) ;
#384=EDGE_CURVE('',#145,#113,#383,.T.) ;
#405=EDGE_CURVE('',#402,#404,#400,.T.) ;
#412=EDGE_CURVE('',#411,#404,#409,.T.) ;
#419=EDGE_CURVE('',#418,#411,#416,.T.) ;
#424=EDGE_CURVE('',#402,#418,#423,.T.) ;
#443=EDGE_CURVE('',#442,#418,#440,.T.) ;
#450=EDGE_CURVE('',#442,#449,#447,.F.) ;
#455=EDGE_CURVE('',#449,#402,#454,.T.) ;
#469=EDGE_CURVE('',#449,#468,#466,.T.) ;
#474=EDGE_CURVE('',#468,#404,#473,.T.) ;
#493=EDGE_CURVE('',#442,#492,#490,.T.) ;
#498=EDGE_CURVE('',#468,#492,#497,.F.) ;
#515=EDGE_CURVE('',#492,#411,#514,.T.) ;
#527=EDGE_CURVE('',#147,#43,#526,.T.) ;
#532=EDGE_CURVE('',#217,#41,#531,.T.) ;
#120=EDGE_LOOP('',(#121,#122,#123,#124,#125,#126,#127,#128,#129,#130,#131,#132)) ;
#224=EDGE_LOOP('',(#225,#226,#227,#228,#229,#230,#231,#232,#233,#234,#235,#236)) ;
#254=EDGE_LOOP('',(#255,#256,#257,#258)) ;
#271=EDGE_LOOP('',(#272,#273,#274,#275)) ;
#288=EDGE_LOOP('',(#289,#290,#291,#292)) ;
#305=EDGE_LOOP('',(#306,#307,#308,#309)) ;
#317=EDGE_LOOP('',(#318,#319,#320,#321)) ;
#334=EDGE_LOOP('',(#335,#336,#337,#338)) ;
#351=EDGE_LOOP('',(#352,#353,#354,#355)) ;
#368=EDGE_LOOP('',(#369,#370,#371,#372)) ;
#385=EDGE_LOOP('',(#386,#387,#388,#389)) ;
#425=EDGE_LOOP('',(#426,#427,#428,#429)) ;
#456=EDGE_LOOP('',(#457,#458,#459,#460)) ;
#475=EDGE_LOOP('',(#476,#477,#478,#479)) ;
#499=EDGE_LOOP('',(#500,#501,#502,#503)) ;
#516=EDGE_LOOP('',(#517,#518,#519,#520)) ;
#533=EDGE_LOOP('',(#534,#535,#536,#537)) ;
#539=EDGE_LOOP('',(#540,#541,#542,#543)) ;
#551=EDGE_LOOP('',(#552,#553,#554,#555)) ;
#563=EDGE_LOOP('',(#564,#565,#566,#567)) ;
#133=FACE_OUTER_BOUND('',#120,.T.) ;
#237=FACE_OUTER_BOUND('',#224,.T.) ;
#259=FACE_OUTER_BOUND('',#254,.T.) ;
#276=FACE_OUTER_BOUND('',#271,.T.) ;
#293=FACE_OUTER_BOUND('',#288,.T.) ;
#310=FACE_OUTER_BOUND('',#305,.T.) ;
#322=FACE_OUTER_BOUND('',#317,.T.) ;
#339=FACE_OUTER_BOUND('',#334,.T.) ;
#356=FACE_OUTER_BOUND('',#351,.T.) ;
#373=FACE_OUTER_BOUND('',#368,.T.) ;
#390=FACE_OUTER_BOUND('',#385,.T.) ;
#430=FACE_OUTER_BOUND('',#425,.T.) ;
#461=FACE_OUTER_BOUND('',#456,.T.) ;
#480=FACE_OUTER_BOUND('',#475,.T.) ;
#504=FACE_OUTER_BOUND('',#499,.T.) ;
#521=FACE_OUTER_BOUND('',#516,.T.) ;
#538=FACE_OUTER_BOUND('',#533,.T.) ;
#556=FACE_OUTER_BOUND('',#551,.T.) ;
#568=FACE_OUTER_BOUND('',#563,.T.) ;
#39=LINE('Line',#36,#38) ;
#48=LINE('Line',#45,#47) ;
#55=LINE('Line',#52,#54) ;
#62=LINE('Line',#59,#61) ;
#69=LINE('Line',#66,#68) ;
#76=LINE('Line',#73,#75) ;
#83=LINE('Line',#80,#82) ;
#90=LINE('Line',#87,#89) ;
#97=LINE('Line',#94,#96) ;
#104=LINE('Line',#101,#103) ;
#111=LINE('Line',#108,#110) ;
#118=LINE('Line',#115,#117) ;
#143=LINE('Line',#140,#142) ;
#152=LINE('Line',#149,#151) ;
#159=LINE('Line',#156,#158) ;
#166=LINE('Line',#163,#165) ;
#173=LINE('Line',#170,#172) ;
#180=LINE('Line',#177,#179) ;
#187=LINE('Line',#184,#186) ;
#194=LINE('Line',#191,#193) ;
#201=LINE('Line',#198,#200) ;
#208=LINE('Line',#205,#207) ;
#215=LINE('Line',#212,#214) ;
#222=LINE('Line',#219,#221) ;
#247=LINE('Line',#244,#246) ;
#252=LINE('Line',#249,#251) ;
#269=LINE('Line',#266,#268) ;
#286=LINE('Line',#283,#285) ;
#303=LINE('Line',#300,#302) ;
#315=LINE('Line',#312,#314) ;
#332=LINE('Line',#329,#331) ;
#349=LINE('Line',#346,#348) ;
#366=LINE('Line',#363,#365) ;
#383=LINE('Line',#380,#382) ;
#400=LINE('Line',#397,#399) ;
#409=LINE('Line',#406,#408) ;
#416=LINE('Line',#413,#415) ;
#423=LINE('Line',#420,#422) ;
#440=LINE('Line',#437,#439) ;
#447=LINE('Line',#444,#446) ;
#454=LINE('Line',#451,#453) ;
#466=LINE('Line',#463,#465) ;
#473=LINE('Line',#470,#472) ;
#490=LINE('Line',#487,#489) ;
#497=LINE('Line',#494,#496) ;
#514=LINE('Line',#511,#513) ;
#526=LINE('Line',#523,#525) ;
#531=LINE('Line',#528,#530) ;
#35=PLANE('',#34) ;
#139=PLANE('',#138) ;
#243=PLANE('',#242) ;
#265=PLANE('',#264) ;
#282=PLANE('',#281) ;
#299=PLANE('',#298) ;
#328=PLANE('',#327) ;
#345=PLANE('',#344) ;
#362=PLANE('',#361) ;
#379=PLANE('',#378) ;
#396=PLANE('',#395) ;
#436=PLANE('',#435) ;
#486=PLANE('',#485) ;
#510=PLANE('',#509) ;
#550=PLANE('',#549) ;
#562=PLANE('',#561) ;
#9=PRODUCT_CATEGORY_RELATIONSHIP(' ',' ',#7,#8) ;
#6=PRODUCT_DEFINITION_FORMATION_WITH_SPECIFIED_SOURCE('',' ',#5,.BOUGHT.) ;
#20=SHAPE_DEFINITION_REPRESENTATION(#11,#19) ;
#41=VERTEX_POINT('',#40) ;
#43=VERTEX_POINT('',#42) ;
#50=VERTEX_POINT('',#49) ;
#57=VERTEX_POINT('',#56) ;
#64=VERTEX_POINT('',#63) ;
#71=VERTEX_POINT('',#70) ;
#78=VERTEX_POINT('',#77) ;
#85=VERTEX_POINT('',#84) ;
#92=VERTEX_POINT('',#91) ;
#99=VERTEX_POINT('',#98) ;
#106=VERTEX_POINT('',#105) ;
#113=VERTEX_POINT('',#112) ;
#145=VERTEX_POINT('',#144) ;
#147=VERTEX_POINT('',#146) ;
#154=VERTEX_POINT('',#153) ;
#161=VERTEX_POINT('',#160) ;
#168=VERTEX_POINT('',#167) ;
#175=VERTEX_POINT('',#174) ;
#182=VERTEX_POINT('',#181) ;
#189=VERTEX_POINT('',#188) ;
#196=VERTEX_POINT('',#195) ;
#203=VERTEX_POINT('',#202) ;
#210=VERTEX_POINT('',#209) ;
#217=VERTEX_POINT('',#216) ;
#402=VERTEX_POINT('',#401) ;
#404=VERTEX_POINT('',#403) ;
#411=VERTEX_POINT('',#410) ;
#418=VERTEX_POINT('',#417) ;
#442=VERTEX_POINT('',#441) ;
#449=VERTEX_POINT('',#448) ;
#468=VERTEX_POINT('',#467) ;
#492=VERTEX_POINT('',#491) ;
#12=(LENGTH_UNIT()NAMED_UNIT(*)SI_UNIT(.MILLI.,.METRE.)) ;
#13=(NAMED_UNIT(*)PLANE_ANGLE_UNIT()SI_UNIT($,.RADIAN.)) ;
#14=(NAMED_UNIT(*)SI_UNIT($,.STERADIAN.)SOLID_ANGLE_UNIT()) ;
#16=(GEOMETRIC_REPRESENTATION_CONTEXT(3)GLOBAL_UNCERTAINTY_ASSIGNED_CONTEXT((#15))GLOBAL_UNIT_ASSIGNED_CONTEXT((#12,#13,#14))REPRESENTATION_CONTEXT(' ',' ')) ;
ENDSEC;
END-ISO-10303-21;
