ISO-10303-21;
HEADER;
FILE_DESCRIPTION(('CATIA V5R19 STEP'),'2;1');

FILE_NAME ('D1448331_0', '2015-02-18T10:31:09+00:00', ('Weidmueller Interface'), ('Weidmueller'), 'CATIA Version 5 Release 20 SP 5 (IN-10)', 'CATIA V5 STEP AP214', 'none');

FILE_SCHEMA(('AUTOMOTIVE_DESIGN { 1 0 10303 214 1 1 1 1 }'));

ENDSEC;
/* file written by CATIA V5R20 */
DATA;
#5=PRODUCT('CC-30x60-O4MM','','<Q-CHECKER_SEAL> Q-Checker Version 2.6.2  \X2\000A\X0\CATIA-Version         : Catia V5 R18 SP6 Build Date 07-18-2008.22.00\X2\000A\X0\Model size (in KByte) : 0\X2\000A\X0\Checking date         : 2008-12-15 15:04:54\X2\000A\X0\Checking profile      : ADMIN / Release_CATDrawings [CATPart]\X2\000A\X0\Model assessment      : In Ordnung (IO)\X2\000A\X0\Total weight sum      : 0\X2\000A\X0\<CROSS_CHECK_SUM>\X2\000A\X0\  <CHKSUM_DATE> 1323206085 </CHKSUM_DATE>\X2\000A\X0\  <CHKSUM_ENTITIES> 477328840 </CHKSUM_ENTITIES>\X2\000A\X0\  <CHKSUM_PROFILE> 1875091983 </CHKSUM_PROFILE>\X2\000A\X0\  <CHKSUM_DIMENSION> -186917087 </CHKSUM_DIMENSION>\X2\000A\X0\  <CHKSUM_PROJINTERSEC> -896974048 </CHKSUM_PROJINTERSEC>\X2\000A\X0\  <CHKSUM_IDENTCRV> -896974048 </CHKSUM_IDENTCRV>\X2\000A\X0\  <CHKSUM_INFINITY> 138018827 </CHKSUM_INFINITY>\X2\000A\X0\</CROSS_CHECK_SUM>\X2\000A\X0\</Q-CHECKER_SEAL> \X2\000A\X0\ \X2\000A\X0\',(#2)) ;
#2=PRODUCT_CONTEXT(' ',#1,'mechanical') ;
#1=APPLICATION_CONTEXT('automotive design') ;
#10=PRODUCT_DEFINITION('',' ',#6,#3) ;
#3=PRODUCT_DEFINITION_CONTEXT('part definition',#1,' ') ;
#11=PRODUCT_DEFINITION_SHAPE(' ',' ',#10) ;
#313=MECHANICAL_DESIGN_GEOMETRIC_PRESENTATION_REPRESENTATION(' ',(#30),#17) ;
#20=SHAPE_REPRESENTATION(' ',(#19),#17) ;
#19=AXIS2_PLACEMENT_3D(' ',#18,$,$) ;
#36=AXIS2_PLACEMENT_3D('Plane Axis2P3D',#33,#34,#35) ;
#76=AXIS2_PLACEMENT_3D('Plane Axis2P3D',#73,#74,#75) ;
#107=AXIS2_PLACEMENT_3D('Plane Axis2P3D',#104,#105,#106) ;
#138=AXIS2_PLACEMENT_3D('Plane Axis2P3D',#135,#136,#137) ;
#160=AXIS2_PLACEMENT_3D('Plane Axis2P3D',#157,#158,#159) ;
#170=AXIS2_PLACEMENT_3D('Circle Axis2P3D',#168,#169,$) ;
#179=AXIS2_PLACEMENT_3D('Circle Axis2P3D',#177,#178,$) ;
#188=AXIS2_PLACEMENT_3D('Circle Axis2P3D',#186,#187,$) ;
#197=AXIS2_PLACEMENT_3D('Circle Axis2P3D',#195,#196,$) ;
#208=AXIS2_PLACEMENT_3D('Plane Axis2P3D',#205,#206,#207) ;
#218=AXIS2_PLACEMENT_3D('Circle Axis2P3D',#216,#217,$) ;
#227=AXIS2_PLACEMENT_3D('Circle Axis2P3D',#225,#226,$) ;
#236=AXIS2_PLACEMENT_3D('Circle Axis2P3D',#234,#235,$) ;
#245=AXIS2_PLACEMENT_3D('Circle Axis2P3D',#243,#244,$) ;
#256=AXIS2_PLACEMENT_3D('Cylinder Axis2P3D',#253,#254,#255) ;
#285=AXIS2_PLACEMENT_3D('Cylinder Axis2P3D',#282,#283,#284) ;
#18=CARTESIAN_POINT(' ',(0.,0.,0.)) ;
#33=CARTESIAN_POINT('Axis2P3D Location',(60.,0.,1.2)) ;
#38=CARTESIAN_POINT('Line Origine',(60.,15.,0.)) ;
#42=CARTESIAN_POINT('Vertex',(60.,0.,9.18485099361E-016)) ;
#44=CARTESIAN_POINT('Vertex',(60.,30.,-9.18485099361E-016)) ;
#47=CARTESIAN_POINT('Line Origine',(60.,30.,0.6)) ;
#51=CARTESIAN_POINT('Vertex',(60.,30.,1.2)) ;
#54=CARTESIAN_POINT('Line Origine',(60.,15.,1.2)) ;
#58=CARTESIAN_POINT('Vertex',(60.,0.,1.2)) ;
#61=CARTESIAN_POINT('Line Origine',(60.,-3.67394039744E-017,0.6)) ;
#73=CARTESIAN_POINT('Axis2P3D Location',(0.,30.,1.2)) ;
#78=CARTESIAN_POINT('Line Origine',(30.,30.,-8.881784197E-016)) ;
#82=CARTESIAN_POINT('Vertex',(0.,30.,-9.18485099361E-016)) ;
#85=CARTESIAN_POINT('Line Origine',(0.,30.,0.6)) ;
#89=CARTESIAN_POINT('Vertex',(0.,30.,1.2)) ;
#92=CARTESIAN_POINT('Line Origine',(30.,30.,1.2)) ;
#104=CARTESIAN_POINT('Axis2P3D Location',(0.,30.,1.2)) ;
#109=CARTESIAN_POINT('Line Origine',(0.,15.,0.)) ;
#113=CARTESIAN_POINT('Vertex',(0.,0.,9.18485099361E-016)) ;
#116=CARTESIAN_POINT('Line Origine',(0.,-3.67394039744E-017,0.6)) ;
#120=CARTESIAN_POINT('Vertex',(0.,0.,1.2)) ;
#123=CARTESIAN_POINT('Line Origine',(0.,15.,1.2)) ;
#135=CARTESIAN_POINT('Axis2P3D Location',(60.,0.,1.2)) ;
#140=CARTESIAN_POINT('Line Origine',(30.,-7.34788079488E-017,8.881784197E-016)) ;
#145=CARTESIAN_POINT('Line Origine',(30.,0.,1.2)) ;
#157=CARTESIAN_POINT('Axis2P3D Location',(30.,15.,0.)) ;
#168=CARTESIAN_POINT('Axis2P3D Location',(5.,15.,5.43852429379E-032)) ;
#172=CARTESIAN_POINT('Vertex',(7.1,15.,1.57474777179E-032)) ;
#174=CARTESIAN_POINT('Vertex',(2.9,15.,8.27140547336E-032)) ;
#177=CARTESIAN_POINT('Axis2P3D Location',(5.,15.,-9.51741751413E-032)) ;
#186=CARTESIAN_POINT('Axis2P3D Location',(55.,15.,-8.15778644068E-032)) ;
#190=CARTESIAN_POINT('Vertex',(52.9,15.,0.)) ;
#192=CARTESIAN_POINT('Vertex',(57.1,15.,1.57474777179E-032)) ;
#195=CARTESIAN_POINT('Axis2P3D Location',(55.,15.,5.43852429379E-032)) ;
#205=CARTESIAN_POINT('Axis2P3D Location',(30.,15.,1.2)) ;
#216=CARTESIAN_POINT('Axis2P3D Location',(5.,15.,1.2)) ;
#220=CARTESIAN_POINT('Vertex',(7.1,15.,1.2)) ;
#222=CARTESIAN_POINT('Vertex',(2.9,15.,1.2)) ;
#225=CARTESIAN_POINT('Axis2P3D Location',(5.,15.,1.2)) ;
#234=CARTESIAN_POINT('Axis2P3D Location',(55.,15.,1.2)) ;
#238=CARTESIAN_POINT('Vertex',(52.9,15.,1.2)) ;
#240=CARTESIAN_POINT('Vertex',(57.1,15.,1.2)) ;
#243=CARTESIAN_POINT('Axis2P3D Location',(55.,15.,1.2)) ;
#253=CARTESIAN_POINT('Axis2P3D Location',(55.,15.,-0.060000000021)) ;
#258=CARTESIAN_POINT('Line Origine',(52.9,15.,-0.060000000021)) ;
#263=CARTESIAN_POINT('Line Origine',(57.1,15.,-0.060000000021)) ;
#282=CARTESIAN_POINT('Axis2P3D Location',(5.,15.,-0.060000000021)) ;
#287=CARTESIAN_POINT('Line Origine',(7.1,15.,-0.060000000021)) ;
#292=CARTESIAN_POINT('Line Origine',(2.9,15.,-0.060000000021)) ;
#34=DIRECTION('Axis2P3D Direction',(-1.,0.,-0.)) ;
#35=DIRECTION('Axis2P3D XDirection',(0.,1.,-6.12323399574E-017)) ;
#39=DIRECTION('Vector Direction',(0.,1.,-5.92118946467E-017)) ;
#48=DIRECTION('Vector Direction',(0.,0.,-1.)) ;
#55=DIRECTION('Vector Direction',(0.,1.,-5.92118946467E-017)) ;
#62=DIRECTION('Vector Direction',(0.,-6.12323399574E-017,-1.)) ;
#74=DIRECTION('Axis2P3D Direction',(0.,1.,-6.12323399574E-017)) ;
#75=DIRECTION('Axis2P3D XDirection',(1.,0.,0.)) ;
#79=DIRECTION('Vector Direction',(1.,0.,0.)) ;
#86=DIRECTION('Vector Direction',(0.,0.,-1.)) ;
#93=DIRECTION('Vector Direction',(1.,0.,0.)) ;
#105=DIRECTION('Axis2P3D Direction',(1.,0.,0.)) ;
#106=DIRECTION('Axis2P3D XDirection',(0.,-1.,6.12323399574E-017)) ;
#110=DIRECTION('Vector Direction',(0.,-1.,5.92118946467E-017)) ;
#117=DIRECTION('Vector Direction',(0.,-6.12323399574E-017,-1.)) ;
#124=DIRECTION('Vector Direction',(0.,-1.,5.92118946467E-017)) ;
#136=DIRECTION('Axis2P3D Direction',(0.,-1.,6.12323399574E-017)) ;
#137=DIRECTION('Axis2P3D XDirection',(-1.,0.,0.)) ;
#141=DIRECTION('Vector Direction',(-1.,0.,0.)) ;
#146=DIRECTION('Vector Direction',(-1.,0.,0.)) ;
#158=DIRECTION('Axis2P3D Direction',(0.,6.12323399574E-017,1.)) ;
#159=DIRECTION('Axis2P3D XDirection',(-1.,0.,0.)) ;
#169=DIRECTION('Axis2P3D Direction',(0.,6.12323399574E-017,1.)) ;
#178=DIRECTION('Axis2P3D Direction',(0.,6.12323399574E-017,1.)) ;
#187=DIRECTION('Axis2P3D Direction',(0.,6.12323399574E-017,1.)) ;
#196=DIRECTION('Axis2P3D Direction',(0.,6.12323399574E-017,1.)) ;
#206=DIRECTION('Axis2P3D Direction',(0.,6.12323399574E-017,1.)) ;
#207=DIRECTION('Axis2P3D XDirection',(-1.,0.,0.)) ;
#217=DIRECTION('Axis2P3D Direction',(0.,6.12323399574E-017,1.)) ;
#226=DIRECTION('Axis2P3D Direction',(0.,6.12323399574E-017,1.)) ;
#235=DIRECTION('Axis2P3D Direction',(0.,6.12323399574E-017,1.)) ;
#244=DIRECTION('Axis2P3D Direction',(0.,6.12323399574E-017,1.)) ;
#254=DIRECTION('Axis2P3D Direction',(0.,6.12323399574E-017,1.)) ;
#255=DIRECTION('Axis2P3D XDirection',(-1.,0.,0.)) ;
#259=DIRECTION('Vector Direction',(0.,0.,1.)) ;
#264=DIRECTION('Vector Direction',(0.,0.,1.)) ;
#283=DIRECTION('Axis2P3D Direction',(0.,6.12323399574E-017,1.)) ;
#284=DIRECTION('Axis2P3D XDirection',(1.,-1.22464679915E-016,7.49879891331E-033)) ;
#288=DIRECTION('Vector Direction',(0.,0.,1.)) ;
#293=DIRECTION('Vector Direction',(0.,0.,1.)) ;
#31=PRESENTATION_LAYER_ASSIGNMENT('1',' ',(#22)) ;
#8=PRODUCT_RELATED_PRODUCT_CATEGORY('part',$,(#5)) ;
#7=PRODUCT_CATEGORY('part','specification') ;
#30=STYLED_ITEM(' ',(#29),#22) ;
#29=PRESENTATION_STYLE_ASSIGNMENT((#28)) ;
#28=SURFACE_STYLE_USAGE(.BOTH.,#27) ;
#27=SURFACE_SIDE_STYLE(' ',(#26)) ;
#26=SURFACE_STYLE_FILL_AREA(#25) ;
#25=FILL_AREA_STYLE(' ',(#24)) ;
#24=FILL_AREA_STYLE_COLOUR(' ',#23) ;
#40=VECTOR('Line Direction',#39,1.) ;
#49=VECTOR('Line Direction',#48,1.) ;
#56=VECTOR('Line Direction',#55,1.) ;
#63=VECTOR('Line Direction',#62,1.) ;
#80=VECTOR('Line Direction',#79,1.) ;
#87=VECTOR('Line Direction',#86,1.) ;
#94=VECTOR('Line Direction',#93,1.) ;
#111=VECTOR('Line Direction',#110,1.) ;
#118=VECTOR('Line Direction',#117,1.) ;
#125=VECTOR('Line Direction',#124,1.) ;
#142=VECTOR('Line Direction',#141,1.) ;
#147=VECTOR('Line Direction',#146,1.) ;
#260=VECTOR('Line Direction',#259,1.) ;
#265=VECTOR('Line Direction',#264,1.) ;
#289=VECTOR('Line Direction',#288,1.) ;
#294=VECTOR('Line Direction',#293,1.) ;
#16=UNCERTAINTY_MEASURE_WITH_UNIT(LENGTH_MEASURE(0.005),#12,'distance_accuracy_value','CONFUSED CURVE UNCERTAINTY') ;
#312=SHAPE_REPRESENTATION_RELATIONSHIP(' ',' ',#20,#311) ;
#67=ORIENTED_EDGE('',*,*,#46,.T.) ;
#68=ORIENTED_EDGE('',*,*,#53,.F.) ;
#69=ORIENTED_EDGE('',*,*,#60,.F.) ;
#70=ORIENTED_EDGE('',*,*,#65,.T.) ;
#98=ORIENTED_EDGE('',*,*,#84,.T.) ;
#99=ORIENTED_EDGE('',*,*,#91,.F.) ;
#100=ORIENTED_EDGE('',*,*,#96,.F.) ;
#101=ORIENTED_EDGE('',*,*,#53,.T.) ;
#129=ORIENTED_EDGE('',*,*,#115,.T.) ;
#130=ORIENTED_EDGE('',*,*,#122,.F.) ;
#131=ORIENTED_EDGE('',*,*,#127,.F.) ;
#132=ORIENTED_EDGE('',*,*,#91,.T.) ;
#151=ORIENTED_EDGE('',*,*,#144,.T.) ;
#152=ORIENTED_EDGE('',*,*,#65,.F.) ;
#153=ORIENTED_EDGE('',*,*,#149,.F.) ;
#154=ORIENTED_EDGE('',*,*,#122,.T.) ;
#163=ORIENTED_EDGE('',*,*,#144,.F.) ;
#164=ORIENTED_EDGE('',*,*,#115,.F.) ;
#165=ORIENTED_EDGE('',*,*,#84,.F.) ;
#166=ORIENTED_EDGE('',*,*,#46,.F.) ;
#183=ORIENTED_EDGE('',*,*,#176,.T.) ;
#184=ORIENTED_EDGE('',*,*,#181,.T.) ;
#201=ORIENTED_EDGE('',*,*,#194,.T.) ;
#202=ORIENTED_EDGE('',*,*,#199,.T.) ;
#211=ORIENTED_EDGE('',*,*,#60,.T.) ;
#212=ORIENTED_EDGE('',*,*,#96,.T.) ;
#213=ORIENTED_EDGE('',*,*,#127,.T.) ;
#214=ORIENTED_EDGE('',*,*,#149,.T.) ;
#231=ORIENTED_EDGE('',*,*,#224,.F.) ;
#232=ORIENTED_EDGE('',*,*,#229,.F.) ;
#249=ORIENTED_EDGE('',*,*,#242,.F.) ;
#250=ORIENTED_EDGE('',*,*,#247,.F.) ;
#269=ORIENTED_EDGE('',*,*,#194,.F.) ;
#270=ORIENTED_EDGE('',*,*,#262,.F.) ;
#271=ORIENTED_EDGE('',*,*,#242,.T.) ;
#272=ORIENTED_EDGE('',*,*,#267,.T.) ;
#276=ORIENTED_EDGE('',*,*,#199,.F.) ;
#277=ORIENTED_EDGE('',*,*,#267,.F.) ;
#278=ORIENTED_EDGE('',*,*,#247,.T.) ;
#279=ORIENTED_EDGE('',*,*,#262,.T.) ;
#298=ORIENTED_EDGE('',*,*,#176,.F.) ;
#299=ORIENTED_EDGE('',*,*,#291,.F.) ;
#300=ORIENTED_EDGE('',*,*,#224,.T.) ;
#301=ORIENTED_EDGE('',*,*,#296,.T.) ;
#305=ORIENTED_EDGE('',*,*,#181,.F.) ;
#306=ORIENTED_EDGE('',*,*,#296,.F.) ;
#307=ORIENTED_EDGE('',*,*,#229,.T.) ;
#308=ORIENTED_EDGE('',*,*,#291,.T.) ;
#185=FACE_BOUND('',#182,.T.) ;
#203=FACE_BOUND('',#200,.T.) ;
#233=FACE_BOUND('',#230,.T.) ;
#251=FACE_BOUND('',#248,.T.) ;
#32=CLOSED_SHELL('Closed Shell',(#72,#103,#134,#156,#204,#252,#274,#281,#303,#310)) ;
#311=ADVANCED_BREP_SHAPE_REPRESENTATION('NONE',(#22),#17) ;
#72=ADVANCED_FACE('S3D gedreht',(#71),#37,.F.) ;
#103=ADVANCED_FACE('S3D gedreht',(#102),#77,.T.) ;
#134=ADVANCED_FACE('S3D gedreht',(#133),#108,.F.) ;
#156=ADVANCED_FACE('S3D gedreht',(#155),#139,.T.) ;
#204=ADVANCED_FACE('S3D gedreht',(#167,#185,#203),#161,.F.) ;
#252=ADVANCED_FACE('S3D gedreht',(#215,#233,#251),#209,.T.) ;
#274=ADVANCED_FACE('S3D gedreht',(#273),#257,.F.) ;
#281=ADVANCED_FACE('S3D gedreht',(#280),#257,.F.) ;
#303=ADVANCED_FACE('S3D gedreht',(#302),#286,.F.) ;
#310=ADVANCED_FACE('S3D gedreht',(#309),#286,.F.) ;
#4=APPLICATION_PROTOCOL_DEFINITION('international standard','automotive_design',2001,#1) ;
#22=MANIFOLD_SOLID_BREP('S3D gedreht',#32) ;
#171=CIRCLE('generated circle',#170,2.1) ;
#180=CIRCLE('generated circle',#179,2.1) ;
#189=CIRCLE('generated circle',#188,2.1) ;
#198=CIRCLE('generated circle',#197,2.1) ;
#219=CIRCLE('generated circle',#218,2.1) ;
#228=CIRCLE('generated circle',#227,2.1) ;
#237=CIRCLE('generated circle',#236,2.1) ;
#246=CIRCLE('generated circle',#245,2.1) ;
#257=CYLINDRICAL_SURFACE('generated cylinder',#256,2.1) ;
#286=CYLINDRICAL_SURFACE('generated cylinder',#285,2.1) ;
#23=DRAUGHTING_PRE_DEFINED_COLOUR('white') ;
#46=EDGE_CURVE('',#43,#45,#41,.T.) ;
#53=EDGE_CURVE('',#52,#45,#50,.T.) ;
#60=EDGE_CURVE('',#59,#52,#57,.T.) ;
#65=EDGE_CURVE('',#59,#43,#64,.T.) ;
#84=EDGE_CURVE('',#45,#83,#81,.F.) ;
#91=EDGE_CURVE('',#90,#83,#88,.T.) ;
#96=EDGE_CURVE('',#52,#90,#95,.F.) ;
#115=EDGE_CURVE('',#83,#114,#112,.T.) ;
#122=EDGE_CURVE('',#121,#114,#119,.T.) ;
#127=EDGE_CURVE('',#90,#121,#126,.T.) ;
#144=EDGE_CURVE('',#114,#43,#143,.F.) ;
#149=EDGE_CURVE('',#121,#59,#148,.F.) ;
#176=EDGE_CURVE('',#173,#175,#171,.T.) ;
#181=EDGE_CURVE('',#175,#173,#180,.T.) ;
#194=EDGE_CURVE('',#191,#193,#189,.T.) ;
#199=EDGE_CURVE('',#193,#191,#198,.T.) ;
#224=EDGE_CURVE('',#221,#223,#219,.T.) ;
#229=EDGE_CURVE('',#223,#221,#228,.T.) ;
#242=EDGE_CURVE('',#239,#241,#237,.T.) ;
#247=EDGE_CURVE('',#241,#239,#246,.T.) ;
#262=EDGE_CURVE('',#239,#191,#261,.F.) ;
#267=EDGE_CURVE('',#241,#193,#266,.F.) ;
#291=EDGE_CURVE('',#221,#173,#290,.F.) ;
#296=EDGE_CURVE('',#223,#175,#295,.F.) ;
#66=EDGE_LOOP('',(#67,#68,#69,#70)) ;
#97=EDGE_LOOP('',(#98,#99,#100,#101)) ;
#128=EDGE_LOOP('',(#129,#130,#131,#132)) ;
#150=EDGE_LOOP('',(#151,#152,#153,#154)) ;
#162=EDGE_LOOP('',(#163,#164,#165,#166)) ;
#182=EDGE_LOOP('',(#183,#184)) ;
#200=EDGE_LOOP('',(#201,#202)) ;
#210=EDGE_LOOP('',(#211,#212,#213,#214)) ;
#230=EDGE_LOOP('',(#231,#232)) ;
#248=EDGE_LOOP('',(#249,#250)) ;
#268=EDGE_LOOP('',(#269,#270,#271,#272)) ;
#275=EDGE_LOOP('',(#276,#277,#278,#279)) ;
#297=EDGE_LOOP('',(#298,#299,#300,#301)) ;
#304=EDGE_LOOP('',(#305,#306,#307,#308)) ;
#71=FACE_OUTER_BOUND('',#66,.T.) ;
#102=FACE_OUTER_BOUND('',#97,.T.) ;
#133=FACE_OUTER_BOUND('',#128,.T.) ;
#155=FACE_OUTER_BOUND('',#150,.T.) ;
#167=FACE_OUTER_BOUND('',#162,.T.) ;
#215=FACE_OUTER_BOUND('',#210,.T.) ;
#273=FACE_OUTER_BOUND('',#268,.T.) ;
#280=FACE_OUTER_BOUND('',#275,.T.) ;
#302=FACE_OUTER_BOUND('',#297,.T.) ;
#309=FACE_OUTER_BOUND('',#304,.T.) ;
#41=LINE('Line',#38,#40) ;
#50=LINE('Line',#47,#49) ;
#57=LINE('Line',#54,#56) ;
#64=LINE('Line',#61,#63) ;
#81=LINE('Line',#78,#80) ;
#88=LINE('Line',#85,#87) ;
#95=LINE('Line',#92,#94) ;
#112=LINE('Line',#109,#111) ;
#119=LINE('Line',#116,#118) ;
#126=LINE('Line',#123,#125) ;
#143=LINE('Line',#140,#142) ;
#148=LINE('Line',#145,#147) ;
#261=LINE('Line',#258,#260) ;
#266=LINE('Line',#263,#265) ;
#290=LINE('Line',#287,#289) ;
#295=LINE('Line',#292,#294) ;
#37=PLANE('',#36) ;
#77=PLANE('',#76) ;
#108=PLANE('',#107) ;
#139=PLANE('',#138) ;
#161=PLANE('',#160) ;
#209=PLANE('',#208) ;
#14=PLANE_ANGLE_MEASURE_WITH_UNIT(PLANE_ANGLE_MEASURE(0.0174532925199),#13) ;
#9=PRODUCT_CATEGORY_RELATIONSHIP(' ',' ',#7,#8) ;
#6=PRODUCT_DEFINITION_FORMATION_WITH_SPECIFIED_SOURCE('',' ',#5,.NOT_KNOWN.) ;
#21=SHAPE_DEFINITION_REPRESENTATION(#11,#20) ;
#43=VERTEX_POINT('',#42) ;
#45=VERTEX_POINT('',#44) ;
#52=VERTEX_POINT('',#51) ;
#59=VERTEX_POINT('',#58) ;
#83=VERTEX_POINT('',#82) ;
#90=VERTEX_POINT('',#89) ;
#114=VERTEX_POINT('',#113) ;
#121=VERTEX_POINT('',#120) ;
#173=VERTEX_POINT('',#172) ;
#175=VERTEX_POINT('',#174) ;
#191=VERTEX_POINT('',#190) ;
#193=VERTEX_POINT('',#192) ;
#221=VERTEX_POINT('',#220) ;
#223=VERTEX_POINT('',#222) ;
#239=VERTEX_POINT('',#238) ;
#241=VERTEX_POINT('',#240) ;
#12=(LENGTH_UNIT()NAMED_UNIT(*)SI_UNIT(.MILLI.,.METRE.)) ;
#13=(NAMED_UNIT(*)PLANE_ANGLE_UNIT()SI_UNIT($,.RADIAN.)) ;
#15=(NAMED_UNIT(*)SI_UNIT($,.STERADIAN.)SOLID_ANGLE_UNIT()) ;
#17=(GEOMETRIC_REPRESENTATION_CONTEXT(3)GLOBAL_UNCERTAINTY_ASSIGNED_CONTEXT((#16))GLOBAL_UNIT_ASSIGNED_CONTEXT((#12,#13,#15))REPRESENTATION_CONTEXT(' ',' ')) ;
ENDSEC;
END-ISO-10303-21;
