ISO-10303-21;
HEADER;
FILE_DESCRIPTION(('CATIA V5 STEP Exchange','CAx-IF Rec.Pracs.--- Model Styling and Organization---1.4--- 2014-01-23'),'2;1');

FILE_NAME ('1336264-2_0_8000074171_8000074171.stp','2022-08-25T06:26:10+00:00',('none'),('Weidmueller'),'CATIA Version 5-6 Release 2016 SP3 HF44','CATIA V5 STEP AP214','none');

FILE_SCHEMA(('AUTOMOTIVE_DESIGN { 1 0 10303 214 1 1 1 1 }'));

ENDSEC;
DATA;
#5=PRODUCT('KEB MOPL 3030 MSZN','','',(#2)) ;
#2=PRODUCT_CONTEXT(' ',#1,'mechanical') ;
#1=APPLICATION_CONTEXT('automotive design') ;
#10=PRODUCT_DEFINITION('',' ',#6,#3) ;
#3=PRODUCT_DEFINITION_CONTEXT('part definition',#1,' ') ;
#11=PRODUCT_DEFINITION_SHAPE(' ',' ',#10) ;
#650=MECHANICAL_DESIGN_GEOMETRIC_PRESENTATION_REPRESENTATION(' ',(#29),#16) ;
#651=MECHANICAL_DESIGN_GEOMETRIC_PRESENTATION_REPRESENTATION(' ',(#647),#16) ;
#19=SHAPE_REPRESENTATION(' ',(#18),#16) ;
#18=AXIS2_PLACEMENT_3D(' ',#17,$,$) ;
#35=AXIS2_PLACEMENT_3D('Cylinder Axis2P3D',#32,#33,#34) ;
#48=AXIS2_PLACEMENT_3D('Circle Axis2P3D',#46,#47,$) ;
#62=AXIS2_PLACEMENT_3D('Circle Axis2P3D',#60,#61,$) ;
#75=AXIS2_PLACEMENT_3D('Plane Axis2P3D',#72,#73,#74) ;
#79=AXIS2_PLACEMENT_3D('Circle Axis2P3D',#77,#78,$) ;
#95=AXIS2_PLACEMENT_3D('Circle Axis2P3D',#93,#94,$) ;
#109=AXIS2_PLACEMENT_3D('Circle Axis2P3D',#107,#108,$) ;
#123=AXIS2_PLACEMENT_3D('Circle Axis2P3D',#121,#122,$) ;
#145=AXIS2_PLACEMENT_3D('Circle Axis2P3D',#143,#144,$) ;
#154=AXIS2_PLACEMENT_3D('Circle Axis2P3D',#152,#153,$) ;
#163=AXIS2_PLACEMENT_3D('Circle Axis2P3D',#161,#162,$) ;
#172=AXIS2_PLACEMENT_3D('Circle Axis2P3D',#170,#171,$) ;
#181=AXIS2_PLACEMENT_3D('Circle Axis2P3D',#179,#180,$) ;
#190=AXIS2_PLACEMENT_3D('Circle Axis2P3D',#188,#189,$) ;
#199=AXIS2_PLACEMENT_3D('Circle Axis2P3D',#197,#198,$) ;
#208=AXIS2_PLACEMENT_3D('Circle Axis2P3D',#206,#207,$) ;
#217=AXIS2_PLACEMENT_3D('Circle Axis2P3D',#215,#216,$) ;
#227=AXIS2_PLACEMENT_3D('Circle Axis2P3D',#225,#226,$) ;
#240=AXIS2_PLACEMENT_3D('Cylinder Axis2P3D',#237,#238,#239) ;
#251=AXIS2_PLACEMENT_3D('Circle Axis2P3D',#249,#250,$) ;
#271=AXIS2_PLACEMENT_3D('Plane Axis2P3D',#268,#269,#270) ;
#295=AXIS2_PLACEMENT_3D('Cylinder Axis2P3D',#292,#293,#294) ;
#299=AXIS2_PLACEMENT_3D('Circle Axis2P3D',#297,#298,$) ;
#319=AXIS2_PLACEMENT_3D('Plane Axis2P3D',#316,#317,#318) ;
#343=AXIS2_PLACEMENT_3D('Cylinder Axis2P3D',#340,#341,#342) ;
#347=AXIS2_PLACEMENT_3D('Circle Axis2P3D',#345,#346,$) ;
#367=AXIS2_PLACEMENT_3D('Plane Axis2P3D',#364,#365,#366) ;
#391=AXIS2_PLACEMENT_3D('Cylinder Axis2P3D',#388,#389,#390) ;
#395=AXIS2_PLACEMENT_3D('Circle Axis2P3D',#393,#394,$) ;
#415=AXIS2_PLACEMENT_3D('Plane Axis2P3D',#412,#413,#414) ;
#432=AXIS2_PLACEMENT_3D('Cylinder Axis2P3D',#429,#430,#431) ;
#443=AXIS2_PLACEMENT_3D('Circle Axis2P3D',#441,#442,$) ;
#462=AXIS2_PLACEMENT_3D('Circle Axis2P3D',#460,#461,$) ;
#475=AXIS2_PLACEMENT_3D('Cylinder Axis2P3D',#472,#473,#474) ;
#486=AXIS2_PLACEMENT_3D('Circle Axis2P3D',#484,#485,$) ;
#505=AXIS2_PLACEMENT_3D('Circle Axis2P3D',#503,#504,$) ;
#518=AXIS2_PLACEMENT_3D('Cylinder Axis2P3D',#515,#516,#517) ;
#529=AXIS2_PLACEMENT_3D('Circle Axis2P3D',#527,#528,$) ;
#548=AXIS2_PLACEMENT_3D('Circle Axis2P3D',#546,#547,$) ;
#561=AXIS2_PLACEMENT_3D('Cylinder Axis2P3D',#558,#559,#560) ;
#572=AXIS2_PLACEMENT_3D('Circle Axis2P3D',#570,#571,$) ;
#591=AXIS2_PLACEMENT_3D('Circle Axis2P3D',#589,#590,$) ;
#604=AXIS2_PLACEMENT_3D('Plane Axis2P3D',#601,#602,#603) ;
#642=AXIS2_PLACEMENT_3D('Referenzachsensystem',#639,#640,#641) ;
#17=CARTESIAN_POINT(' ',(0.,0.,0.)) ;
#32=CARTESIAN_POINT('Axis2P3D Location',(32.,15.,1.5)) ;
#37=CARTESIAN_POINT('Line Origine',(29.3,15.,0.75)) ;
#41=CARTESIAN_POINT('Vertex',(29.3,15.,0.)) ;
#43=CARTESIAN_POINT('Vertex',(29.3,15.,1.5)) ;
#46=CARTESIAN_POINT('Axis2P3D Location',(32.,15.,0.)) ;
#50=CARTESIAN_POINT('Vertex',(34.7,15.,0.)) ;
#53=CARTESIAN_POINT('Line Origine',(34.7,15.,0.75)) ;
#57=CARTESIAN_POINT('Vertex',(34.7,15.,1.5)) ;
#60=CARTESIAN_POINT('Axis2P3D Location',(32.,15.,1.5)) ;
#72=CARTESIAN_POINT('Axis2P3D Location',(0.,0.,1.5)) ;
#77=CARTESIAN_POINT('Axis2P3D Location',(5.,235.,1.5)) ;
#81=CARTESIAN_POINT('Vertex',(5.,240.,1.5)) ;
#83=CARTESIAN_POINT('Vertex',(8.881784197E-016,235.,1.5)) ;
#86=CARTESIAN_POINT('Line Origine',(0.,120.,1.5)) ;
#90=CARTESIAN_POINT('Vertex',(0.,5.,1.5)) ;
#93=CARTESIAN_POINT('Axis2P3D Location',(5.,5.,1.5)) ;
#97=CARTESIAN_POINT('Vertex',(5.,8.881784197E-016,1.5)) ;
#100=CARTESIAN_POINT('Line Origine',(120.,0.,1.5)) ;
#104=CARTESIAN_POINT('Vertex',(235.,0.,1.5)) ;
#107=CARTESIAN_POINT('Axis2P3D Location',(235.,5.,1.5)) ;
#111=CARTESIAN_POINT('Vertex',(240.,5.,1.5)) ;
#114=CARTESIAN_POINT('Line Origine',(240.,120.,1.5)) ;
#118=CARTESIAN_POINT('Vertex',(240.,235.,1.5)) ;
#121=CARTESIAN_POINT('Axis2P3D Location',(235.,235.,1.5)) ;
#125=CARTESIAN_POINT('Vertex',(235.,240.,1.5)) ;
#128=CARTESIAN_POINT('Line Origine',(120.,240.,1.5)) ;
#143=CARTESIAN_POINT('Axis2P3D Location',(32.,15.,1.5)) ;
#152=CARTESIAN_POINT('Axis2P3D Location',(15.,225.,1.5)) ;
#156=CARTESIAN_POINT('Vertex',(11.4,225.,1.5)) ;
#158=CARTESIAN_POINT('Vertex',(18.6,225.,1.5)) ;
#161=CARTESIAN_POINT('Axis2P3D Location',(15.,225.,1.5)) ;
#170=CARTESIAN_POINT('Axis2P3D Location',(225.,225.,1.5)) ;
#174=CARTESIAN_POINT('Vertex',(228.6,225.,1.5)) ;
#176=CARTESIAN_POINT('Vertex',(221.4,225.,1.5)) ;
#179=CARTESIAN_POINT('Axis2P3D Location',(225.,225.,1.5)) ;
#188=CARTESIAN_POINT('Axis2P3D Location',(15.,15.,1.5)) ;
#192=CARTESIAN_POINT('Vertex',(18.6,15.,1.5)) ;
#194=CARTESIAN_POINT('Vertex',(11.4,15.,1.5)) ;
#197=CARTESIAN_POINT('Axis2P3D Location',(15.,15.,1.5)) ;
#206=CARTESIAN_POINT('Axis2P3D Location',(225.,15.,1.5)) ;
#210=CARTESIAN_POINT('Vertex',(228.6,15.,1.5)) ;
#212=CARTESIAN_POINT('Vertex',(221.4,15.,1.5)) ;
#215=CARTESIAN_POINT('Axis2P3D Location',(225.,15.,1.5)) ;
#225=CARTESIAN_POINT('Axis2P3D Location',(32.,15.,0.)) ;
#237=CARTESIAN_POINT('Axis2P3D Location',(5.,235.,0.75)) ;
#242=CARTESIAN_POINT('Line Origine',(5.,240.,0.75)) ;
#246=CARTESIAN_POINT('Vertex',(5.,240.,0.)) ;
#249=CARTESIAN_POINT('Axis2P3D Location',(5.,235.,0.)) ;
#253=CARTESIAN_POINT('Vertex',(8.881784197E-016,235.,0.)) ;
#256=CARTESIAN_POINT('Line Origine',(8.881784197E-016,235.,0.75)) ;
#268=CARTESIAN_POINT('Axis2P3D Location',(0.,235.,0.)) ;
#273=CARTESIAN_POINT('Line Origine',(0.,120.,0.)) ;
#277=CARTESIAN_POINT('Vertex',(0.,5.,0.)) ;
#280=CARTESIAN_POINT('Line Origine',(0.,5.,0.75)) ;
#292=CARTESIAN_POINT('Axis2P3D Location',(5.,5.,0.75)) ;
#297=CARTESIAN_POINT('Axis2P3D Location',(5.,5.,0.)) ;
#301=CARTESIAN_POINT('Vertex',(5.,8.881784197E-016,0.)) ;
#304=CARTESIAN_POINT('Line Origine',(5.,8.881784197E-016,0.75)) ;
#316=CARTESIAN_POINT('Axis2P3D Location',(235.,0.,0.)) ;
#321=CARTESIAN_POINT('Line Origine',(120.,0.,0.)) ;
#325=CARTESIAN_POINT('Vertex',(235.,0.,0.)) ;
#328=CARTESIAN_POINT('Line Origine',(235.,0.,0.75)) ;
#340=CARTESIAN_POINT('Axis2P3D Location',(235.,5.,0.75)) ;
#345=CARTESIAN_POINT('Axis2P3D Location',(235.,5.,0.)) ;
#349=CARTESIAN_POINT('Vertex',(240.,5.,0.)) ;
#352=CARTESIAN_POINT('Line Origine',(240.,5.,0.75)) ;
#364=CARTESIAN_POINT('Axis2P3D Location',(240.,5.,0.)) ;
#369=CARTESIAN_POINT('Line Origine',(240.,120.,0.)) ;
#373=CARTESIAN_POINT('Vertex',(240.,235.,0.)) ;
#376=CARTESIAN_POINT('Line Origine',(240.,235.,0.75)) ;
#388=CARTESIAN_POINT('Axis2P3D Location',(235.,235.,0.75)) ;
#393=CARTESIAN_POINT('Axis2P3D Location',(235.,235.,0.)) ;
#397=CARTESIAN_POINT('Vertex',(235.,240.,0.)) ;
#400=CARTESIAN_POINT('Line Origine',(235.,240.,0.75)) ;
#412=CARTESIAN_POINT('Axis2P3D Location',(5.,240.,0.)) ;
#417=CARTESIAN_POINT('Line Origine',(120.,240.,0.)) ;
#429=CARTESIAN_POINT('Axis2P3D Location',(225.,15.,1.5)) ;
#434=CARTESIAN_POINT('Line Origine',(228.6,15.,0.75)) ;
#438=CARTESIAN_POINT('Vertex',(228.6,15.,0.)) ;
#441=CARTESIAN_POINT('Axis2P3D Location',(225.,15.,0.)) ;
#445=CARTESIAN_POINT('Vertex',(221.4,15.,0.)) ;
#448=CARTESIAN_POINT('Line Origine',(221.4,15.,0.75)) ;
#460=CARTESIAN_POINT('Axis2P3D Location',(225.,15.,0.)) ;
#472=CARTESIAN_POINT('Axis2P3D Location',(15.,15.,1.5)) ;
#477=CARTESIAN_POINT('Line Origine',(18.6,15.,0.75)) ;
#481=CARTESIAN_POINT('Vertex',(18.6,15.,0.)) ;
#484=CARTESIAN_POINT('Axis2P3D Location',(15.,15.,0.)) ;
#488=CARTESIAN_POINT('Vertex',(11.4,15.,0.)) ;
#491=CARTESIAN_POINT('Line Origine',(11.4,15.,0.75)) ;
#503=CARTESIAN_POINT('Axis2P3D Location',(15.,15.,0.)) ;
#515=CARTESIAN_POINT('Axis2P3D Location',(225.,225.,1.5)) ;
#520=CARTESIAN_POINT('Line Origine',(228.6,225.,0.75)) ;
#524=CARTESIAN_POINT('Vertex',(228.6,225.,0.)) ;
#527=CARTESIAN_POINT('Axis2P3D Location',(225.,225.,0.)) ;
#531=CARTESIAN_POINT('Vertex',(221.4,225.,0.)) ;
#534=CARTESIAN_POINT('Line Origine',(221.4,225.,0.75)) ;
#546=CARTESIAN_POINT('Axis2P3D Location',(225.,225.,0.)) ;
#558=CARTESIAN_POINT('Axis2P3D Location',(15.,225.,1.5)) ;
#563=CARTESIAN_POINT('Line Origine',(11.4,225.,0.75)) ;
#567=CARTESIAN_POINT('Vertex',(11.4,225.,0.)) ;
#570=CARTESIAN_POINT('Axis2P3D Location',(15.,225.,0.)) ;
#574=CARTESIAN_POINT('Vertex',(18.6,225.,0.)) ;
#577=CARTESIAN_POINT('Line Origine',(18.6,225.,0.75)) ;
#589=CARTESIAN_POINT('Axis2P3D Location',(15.,225.,0.)) ;
#601=CARTESIAN_POINT('Axis2P3D Location',(0.,0.,0.)) ;
#639=CARTESIAN_POINT('Axis2P3D Location',(0.,0.,0.)) ;
#33=DIRECTION('Axis2P3D Direction',(0.,-0.,-1.)) ;
#34=DIRECTION('Axis2P3D XDirection',(1.,0.,0.)) ;
#38=DIRECTION('Vector Direction',(0.,0.,-1.)) ;
#47=DIRECTION('Axis2P3D Direction',(0.,-0.,-1.)) ;
#54=DIRECTION('Vector Direction',(0.,0.,-1.)) ;
#61=DIRECTION('Axis2P3D Direction',(0.,-0.,-1.)) ;
#73=DIRECTION('Axis2P3D Direction',(0.,0.,1.)) ;
#74=DIRECTION('Axis2P3D XDirection',(1.,0.,0.)) ;
#78=DIRECTION('Axis2P3D Direction',(0.,0.,1.)) ;
#87=DIRECTION('Vector Direction',(0.,-1.,0.)) ;
#94=DIRECTION('Axis2P3D Direction',(0.,0.,1.)) ;
#101=DIRECTION('Vector Direction',(-1.,0.,0.)) ;
#108=DIRECTION('Axis2P3D Direction',(0.,0.,1.)) ;
#115=DIRECTION('Vector Direction',(0.,1.,0.)) ;
#122=DIRECTION('Axis2P3D Direction',(0.,0.,1.)) ;
#129=DIRECTION('Vector Direction',(1.,0.,0.)) ;
#144=DIRECTION('Axis2P3D Direction',(0.,0.,1.)) ;
#153=DIRECTION('Axis2P3D Direction',(0.,0.,1.)) ;
#162=DIRECTION('Axis2P3D Direction',(0.,0.,1.)) ;
#171=DIRECTION('Axis2P3D Direction',(0.,0.,1.)) ;
#180=DIRECTION('Axis2P3D Direction',(0.,0.,1.)) ;
#189=DIRECTION('Axis2P3D Direction',(0.,0.,1.)) ;
#198=DIRECTION('Axis2P3D Direction',(0.,0.,1.)) ;
#207=DIRECTION('Axis2P3D Direction',(0.,0.,1.)) ;
#216=DIRECTION('Axis2P3D Direction',(0.,0.,1.)) ;
#226=DIRECTION('Axis2P3D Direction',(0.,-0.,-1.)) ;
#238=DIRECTION('Axis2P3D Direction',(0.,0.,1.)) ;
#239=DIRECTION('Axis2P3D XDirection',(-2.82534752407E-015,1.,0.)) ;
#243=DIRECTION('Vector Direction',(0.,0.,1.)) ;
#250=DIRECTION('Axis2P3D Direction',(0.,0.,1.)) ;
#257=DIRECTION('Vector Direction',(0.,0.,1.)) ;
#269=DIRECTION('Axis2P3D Direction',(-1.,0.,0.)) ;
#270=DIRECTION('Axis2P3D XDirection',(0.,-1.,0.)) ;
#274=DIRECTION('Vector Direction',(0.,-1.,0.)) ;
#281=DIRECTION('Vector Direction',(0.,0.,1.)) ;
#293=DIRECTION('Axis2P3D Direction',(0.,0.,1.)) ;
#294=DIRECTION('Axis2P3D XDirection',(-1.,-3.21624529935E-016,-0.)) ;
#298=DIRECTION('Axis2P3D Direction',(0.,0.,1.)) ;
#305=DIRECTION('Vector Direction',(0.,0.,1.)) ;
#317=DIRECTION('Axis2P3D Direction',(0.,1.,-0.)) ;
#318=DIRECTION('Axis2P3D XDirection',(-1.,0.,0.)) ;
#322=DIRECTION('Vector Direction',(-1.,0.,0.)) ;
#329=DIRECTION('Vector Direction',(0.,0.,1.)) ;
#341=DIRECTION('Axis2P3D Direction',(0.,0.,1.)) ;
#342=DIRECTION('Axis2P3D XDirection',(5.14537349833E-015,-1.,0.)) ;
#346=DIRECTION('Axis2P3D Direction',(0.,0.,1.)) ;
#353=DIRECTION('Vector Direction',(0.,0.,1.)) ;
#365=DIRECTION('Axis2P3D Direction',(1.,0.,0.)) ;
#366=DIRECTION('Axis2P3D XDirection',(0.,1.,0.)) ;
#370=DIRECTION('Vector Direction',(0.,1.,0.)) ;
#377=DIRECTION('Vector Direction',(0.,0.,1.)) ;
#389=DIRECTION('Axis2P3D Direction',(0.,0.,1.)) ;
#390=DIRECTION('Axis2P3D XDirection',(1.,0.,0.)) ;
#394=DIRECTION('Axis2P3D Direction',(0.,0.,1.)) ;
#401=DIRECTION('Vector Direction',(0.,0.,1.)) ;
#413=DIRECTION('Axis2P3D Direction',(0.,-1.,0.)) ;
#414=DIRECTION('Axis2P3D XDirection',(1.,0.,0.)) ;
#418=DIRECTION('Vector Direction',(1.,0.,0.)) ;
#430=DIRECTION('Axis2P3D Direction',(0.,-0.,-1.)) ;
#431=DIRECTION('Axis2P3D XDirection',(1.,0.,0.)) ;
#435=DIRECTION('Vector Direction',(0.,0.,-1.)) ;
#442=DIRECTION('Axis2P3D Direction',(0.,-0.,-1.)) ;
#449=DIRECTION('Vector Direction',(0.,0.,-1.)) ;
#461=DIRECTION('Axis2P3D Direction',(0.,-0.,-1.)) ;
#473=DIRECTION('Axis2P3D Direction',(0.,-0.,-1.)) ;
#474=DIRECTION('Axis2P3D XDirection',(1.,0.,0.)) ;
#478=DIRECTION('Vector Direction',(0.,0.,-1.)) ;
#485=DIRECTION('Axis2P3D Direction',(0.,-0.,-1.)) ;
#492=DIRECTION('Vector Direction',(0.,0.,-1.)) ;
#504=DIRECTION('Axis2P3D Direction',(0.,-0.,-1.)) ;
#516=DIRECTION('Axis2P3D Direction',(0.,-0.,-1.)) ;
#517=DIRECTION('Axis2P3D XDirection',(1.,0.,0.)) ;
#521=DIRECTION('Vector Direction',(0.,0.,-1.)) ;
#528=DIRECTION('Axis2P3D Direction',(0.,-0.,-1.)) ;
#535=DIRECTION('Vector Direction',(0.,0.,-1.)) ;
#547=DIRECTION('Axis2P3D Direction',(0.,-0.,-1.)) ;
#559=DIRECTION('Axis2P3D Direction',(0.,-0.,-1.)) ;
#560=DIRECTION('Axis2P3D XDirection',(1.,0.,0.)) ;
#564=DIRECTION('Vector Direction',(0.,0.,-1.)) ;
#571=DIRECTION('Axis2P3D Direction',(0.,-0.,-1.)) ;
#578=DIRECTION('Vector Direction',(0.,0.,-1.)) ;
#590=DIRECTION('Axis2P3D Direction',(0.,-0.,-1.)) ;
#602=DIRECTION('Axis2P3D Direction',(0.,0.,1.)) ;
#603=DIRECTION('Axis2P3D XDirection',(1.,0.,0.)) ;
#640=DIRECTION('Axis2P3D Direction',(0.,0.,1.)) ;
#641=DIRECTION('Axis2P3D XDirection',(1.,0.,0.)) ;
#30=PRESENTATION_LAYER_ASSIGNMENT('1',' ',(#21)) ;
#8=PRODUCT_RELATED_PRODUCT_CATEGORY('part',$,(#5)) ;
#7=PRODUCT_CATEGORY('part','specification') ;
#29=STYLED_ITEM(' ',(#28),#21) ;
#647=STYLED_ITEM(' ',(#646),#642) ;
#28=PRESENTATION_STYLE_ASSIGNMENT((#27)) ;
#646=PRESENTATION_STYLE_ASSIGNMENT((#645)) ;
#645=CURVE_STYLE(' ',#643,POSITIVE_LENGTH_MEASURE(0.129999995232),#644) ;
#27=SURFACE_STYLE_USAGE(.BOTH.,#26) ;
#26=SURFACE_SIDE_STYLE(' ',(#25)) ;
#25=SURFACE_STYLE_FILL_AREA(#24) ;
#24=FILL_AREA_STYLE(' ',(#23)) ;
#23=FILL_AREA_STYLE_COLOUR(' ',#22) ;
#39=VECTOR('Line Direction',#38,1.) ;
#55=VECTOR('Line Direction',#54,1.) ;
#88=VECTOR('Line Direction',#87,1.) ;
#102=VECTOR('Line Direction',#101,1.) ;
#116=VECTOR('Line Direction',#115,1.) ;
#130=VECTOR('Line Direction',#129,1.) ;
#244=VECTOR('Line Direction',#243,1.) ;
#258=VECTOR('Line Direction',#257,1.) ;
#275=VECTOR('Line Direction',#274,1.) ;
#282=VECTOR('Line Direction',#281,1.) ;
#306=VECTOR('Line Direction',#305,1.) ;
#323=VECTOR('Line Direction',#322,1.) ;
#330=VECTOR('Line Direction',#329,1.) ;
#354=VECTOR('Line Direction',#353,1.) ;
#371=VECTOR('Line Direction',#370,1.) ;
#378=VECTOR('Line Direction',#377,1.) ;
#402=VECTOR('Line Direction',#401,1.) ;
#419=VECTOR('Line Direction',#418,1.) ;
#436=VECTOR('Line Direction',#435,1.) ;
#450=VECTOR('Line Direction',#449,1.) ;
#479=VECTOR('Line Direction',#478,1.) ;
#493=VECTOR('Line Direction',#492,1.) ;
#522=VECTOR('Line Direction',#521,1.) ;
#536=VECTOR('Line Direction',#535,1.) ;
#565=VECTOR('Line Direction',#564,1.) ;
#579=VECTOR('Line Direction',#578,1.) ;
#15=UNCERTAINTY_MEASURE_WITH_UNIT(LENGTH_MEASURE(0.005),#12,'distance_accuracy_value','CONFUSED CURVE UNCERTAINTY') ;
#638=SHAPE_REPRESENTATION_RELATIONSHIP(' ',' ',#19,#637) ;
#66=ORIENTED_EDGE('',*,*,#45,.F.) ;
#67=ORIENTED_EDGE('',*,*,#52,.F.) ;
#68=ORIENTED_EDGE('',*,*,#59,.T.) ;
#69=ORIENTED_EDGE('',*,*,#64,.T.) ;
#134=ORIENTED_EDGE('',*,*,#85,.T.) ;
#135=ORIENTED_EDGE('',*,*,#92,.T.) ;
#136=ORIENTED_EDGE('',*,*,#99,.T.) ;
#137=ORIENTED_EDGE('',*,*,#106,.T.) ;
#138=ORIENTED_EDGE('',*,*,#113,.T.) ;
#139=ORIENTED_EDGE('',*,*,#120,.T.) ;
#140=ORIENTED_EDGE('',*,*,#127,.T.) ;
#141=ORIENTED_EDGE('',*,*,#132,.T.) ;
#149=ORIENTED_EDGE('',*,*,#147,.F.) ;
#150=ORIENTED_EDGE('',*,*,#64,.F.) ;
#167=ORIENTED_EDGE('',*,*,#160,.F.) ;
#168=ORIENTED_EDGE('',*,*,#165,.F.) ;
#185=ORIENTED_EDGE('',*,*,#178,.F.) ;
#186=ORIENTED_EDGE('',*,*,#183,.F.) ;
#203=ORIENTED_EDGE('',*,*,#196,.F.) ;
#204=ORIENTED_EDGE('',*,*,#201,.F.) ;
#221=ORIENTED_EDGE('',*,*,#214,.F.) ;
#222=ORIENTED_EDGE('',*,*,#219,.F.) ;
#231=ORIENTED_EDGE('',*,*,#59,.F.) ;
#232=ORIENTED_EDGE('',*,*,#229,.F.) ;
#233=ORIENTED_EDGE('',*,*,#45,.T.) ;
#234=ORIENTED_EDGE('',*,*,#147,.T.) ;
#262=ORIENTED_EDGE('',*,*,#248,.F.) ;
#263=ORIENTED_EDGE('',*,*,#255,.T.) ;
#264=ORIENTED_EDGE('',*,*,#260,.T.) ;
#265=ORIENTED_EDGE('',*,*,#85,.F.) ;
#286=ORIENTED_EDGE('',*,*,#260,.F.) ;
#287=ORIENTED_EDGE('',*,*,#279,.T.) ;
#288=ORIENTED_EDGE('',*,*,#284,.T.) ;
#289=ORIENTED_EDGE('',*,*,#92,.F.) ;
#310=ORIENTED_EDGE('',*,*,#284,.F.) ;
#311=ORIENTED_EDGE('',*,*,#303,.T.) ;
#312=ORIENTED_EDGE('',*,*,#308,.T.) ;
#313=ORIENTED_EDGE('',*,*,#99,.F.) ;
#334=ORIENTED_EDGE('',*,*,#308,.F.) ;
#335=ORIENTED_EDGE('',*,*,#327,.T.) ;
#336=ORIENTED_EDGE('',*,*,#332,.T.) ;
#337=ORIENTED_EDGE('',*,*,#106,.F.) ;
#358=ORIENTED_EDGE('',*,*,#332,.F.) ;
#359=ORIENTED_EDGE('',*,*,#351,.T.) ;
#360=ORIENTED_EDGE('',*,*,#356,.T.) ;
#361=ORIENTED_EDGE('',*,*,#113,.F.) ;
#382=ORIENTED_EDGE('',*,*,#356,.F.) ;
#383=ORIENTED_EDGE('',*,*,#375,.T.) ;
#384=ORIENTED_EDGE('',*,*,#380,.T.) ;
#385=ORIENTED_EDGE('',*,*,#120,.F.) ;
#406=ORIENTED_EDGE('',*,*,#380,.F.) ;
#407=ORIENTED_EDGE('',*,*,#399,.T.) ;
#408=ORIENTED_EDGE('',*,*,#404,.T.) ;
#409=ORIENTED_EDGE('',*,*,#127,.F.) ;
#423=ORIENTED_EDGE('',*,*,#404,.F.) ;
#424=ORIENTED_EDGE('',*,*,#421,.T.) ;
#425=ORIENTED_EDGE('',*,*,#248,.T.) ;
#426=ORIENTED_EDGE('',*,*,#132,.F.) ;
#454=ORIENTED_EDGE('',*,*,#440,.F.) ;
#455=ORIENTED_EDGE('',*,*,#447,.F.) ;
#456=ORIENTED_EDGE('',*,*,#452,.T.) ;
#457=ORIENTED_EDGE('',*,*,#219,.T.) ;
#466=ORIENTED_EDGE('',*,*,#452,.F.) ;
#467=ORIENTED_EDGE('',*,*,#464,.F.) ;
#468=ORIENTED_EDGE('',*,*,#440,.T.) ;
#469=ORIENTED_EDGE('',*,*,#214,.T.) ;
#497=ORIENTED_EDGE('',*,*,#483,.F.) ;
#498=ORIENTED_EDGE('',*,*,#490,.F.) ;
#499=ORIENTED_EDGE('',*,*,#495,.T.) ;
#500=ORIENTED_EDGE('',*,*,#201,.T.) ;
#509=ORIENTED_EDGE('',*,*,#495,.F.) ;
#510=ORIENTED_EDGE('',*,*,#507,.F.) ;
#511=ORIENTED_EDGE('',*,*,#483,.T.) ;
#512=ORIENTED_EDGE('',*,*,#196,.T.) ;
#540=ORIENTED_EDGE('',*,*,#526,.F.) ;
#541=ORIENTED_EDGE('',*,*,#533,.F.) ;
#542=ORIENTED_EDGE('',*,*,#538,.T.) ;
#543=ORIENTED_EDGE('',*,*,#183,.T.) ;
#552=ORIENTED_EDGE('',*,*,#538,.F.) ;
#553=ORIENTED_EDGE('',*,*,#550,.F.) ;
#554=ORIENTED_EDGE('',*,*,#526,.T.) ;
#555=ORIENTED_EDGE('',*,*,#178,.T.) ;
#583=ORIENTED_EDGE('',*,*,#569,.F.) ;
#584=ORIENTED_EDGE('',*,*,#576,.F.) ;
#585=ORIENTED_EDGE('',*,*,#581,.T.) ;
#586=ORIENTED_EDGE('',*,*,#165,.T.) ;
#595=ORIENTED_EDGE('',*,*,#581,.F.) ;
#596=ORIENTED_EDGE('',*,*,#593,.F.) ;
#597=ORIENTED_EDGE('',*,*,#569,.T.) ;
#598=ORIENTED_EDGE('',*,*,#160,.T.) ;
#607=ORIENTED_EDGE('',*,*,#421,.F.) ;
#608=ORIENTED_EDGE('',*,*,#399,.F.) ;
#609=ORIENTED_EDGE('',*,*,#375,.F.) ;
#610=ORIENTED_EDGE('',*,*,#351,.F.) ;
#611=ORIENTED_EDGE('',*,*,#327,.F.) ;
#612=ORIENTED_EDGE('',*,*,#303,.F.) ;
#613=ORIENTED_EDGE('',*,*,#279,.F.) ;
#614=ORIENTED_EDGE('',*,*,#255,.F.) ;
#617=ORIENTED_EDGE('',*,*,#52,.T.) ;
#618=ORIENTED_EDGE('',*,*,#229,.T.) ;
#621=ORIENTED_EDGE('',*,*,#576,.T.) ;
#622=ORIENTED_EDGE('',*,*,#593,.T.) ;
#625=ORIENTED_EDGE('',*,*,#533,.T.) ;
#626=ORIENTED_EDGE('',*,*,#550,.T.) ;
#629=ORIENTED_EDGE('',*,*,#490,.T.) ;
#630=ORIENTED_EDGE('',*,*,#507,.T.) ;
#633=ORIENTED_EDGE('',*,*,#447,.T.) ;
#634=ORIENTED_EDGE('',*,*,#464,.T.) ;
#151=FACE_BOUND('',#148,.T.) ;
#169=FACE_BOUND('',#166,.T.) ;
#187=FACE_BOUND('',#184,.T.) ;
#205=FACE_BOUND('',#202,.T.) ;
#223=FACE_BOUND('',#220,.T.) ;
#619=FACE_BOUND('',#616,.T.) ;
#623=FACE_BOUND('',#620,.T.) ;
#627=FACE_BOUND('',#624,.T.) ;
#631=FACE_BOUND('',#628,.T.) ;
#635=FACE_BOUND('',#632,.T.) ;
#31=CLOSED_SHELL('Closed Shell',(#71,#224,#236,#267,#291,#315,#339,#363,#387,#411,#428,#459,#471,#502,#514,#545,#557,#588,#600,#636)) ;
#637=ADVANCED_BREP_SHAPE_REPRESENTATION('NONE',(#21),#16) ;
#71=ADVANCED_FACE('Koerper.2',(#70),#36,.F.) ;
#224=ADVANCED_FACE('Koerper.2',(#142,#151,#169,#187,#205,#223),#76,.T.) ;
#236=ADVANCED_FACE('Koerper.2',(#235),#36,.F.) ;
#267=ADVANCED_FACE('Koerper.2',(#266),#241,.T.) ;
#291=ADVANCED_FACE('Koerper.2',(#290),#272,.T.) ;
#315=ADVANCED_FACE('Koerper.2',(#314),#296,.T.) ;
#339=ADVANCED_FACE('Koerper.2',(#338),#320,.F.) ;
#363=ADVANCED_FACE('Koerper.2',(#362),#344,.T.) ;
#387=ADVANCED_FACE('Koerper.2',(#386),#368,.T.) ;
#411=ADVANCED_FACE('Koerper.2',(#410),#392,.T.) ;
#428=ADVANCED_FACE('Koerper.2',(#427),#416,.F.) ;
#459=ADVANCED_FACE('Koerper.2',(#458),#433,.F.) ;
#471=ADVANCED_FACE('Koerper.2',(#470),#433,.F.) ;
#502=ADVANCED_FACE('Koerper.2',(#501),#476,.F.) ;
#514=ADVANCED_FACE('Koerper.2',(#513),#476,.F.) ;
#545=ADVANCED_FACE('Koerper.2',(#544),#519,.F.) ;
#557=ADVANCED_FACE('Koerper.2',(#556),#519,.F.) ;
#588=ADVANCED_FACE('Koerper.2',(#587),#562,.F.) ;
#600=ADVANCED_FACE('Koerper.2',(#599),#562,.F.) ;
#636=ADVANCED_FACE('Koerper.2',(#615,#619,#623,#627,#631,#635),#605,.F.) ;
#4=APPLICATION_PROTOCOL_DEFINITION('international standard','automotive_design',2001,#1) ;
#21=MANIFOLD_SOLID_BREP('Koerper.2',#31) ;
#49=CIRCLE('generated circle',#48,2.7) ;
#63=CIRCLE('generated circle',#62,2.7) ;
#80=CIRCLE('generated circle',#79,5.) ;
#96=CIRCLE('generated circle',#95,5.) ;
#110=CIRCLE('generated circle',#109,5.) ;
#124=CIRCLE('generated circle',#123,5.) ;
#146=CIRCLE('generated circle',#145,2.7) ;
#155=CIRCLE('generated circle',#154,3.6) ;
#164=CIRCLE('generated circle',#163,3.6) ;
#173=CIRCLE('generated circle',#172,3.6) ;
#182=CIRCLE('generated circle',#181,3.6) ;
#191=CIRCLE('generated circle',#190,3.6) ;
#200=CIRCLE('generated circle',#199,3.6) ;
#209=CIRCLE('generated circle',#208,3.6) ;
#218=CIRCLE('generated circle',#217,3.6) ;
#228=CIRCLE('generated circle',#227,2.7) ;
#252=CIRCLE('generated circle',#251,5.) ;
#300=CIRCLE('generated circle',#299,5.) ;
#348=CIRCLE('generated circle',#347,5.) ;
#396=CIRCLE('generated circle',#395,5.) ;
#444=CIRCLE('generated circle',#443,3.6) ;
#463=CIRCLE('generated circle',#462,3.6) ;
#487=CIRCLE('generated circle',#486,3.6) ;
#506=CIRCLE('generated circle',#505,3.6) ;
#530=CIRCLE('generated circle',#529,3.6) ;
#549=CIRCLE('generated circle',#548,3.6) ;
#573=CIRCLE('generated circle',#572,3.6) ;
#592=CIRCLE('generated circle',#591,3.6) ;
#22=COLOUR_RGB('Colour',0.850980392157,0.839215686275,0.858823529412) ;
#648=CONSTRUCTIVE_GEOMETRY_REPRESENTATION('supplemental geometry',(#642),#16) ;
#649=CONSTRUCTIVE_GEOMETRY_REPRESENTATION_RELATIONSHIP('supplemental geometry','',#19,#648) ;
#36=CYLINDRICAL_SURFACE('generated cylinder',#35,2.7) ;
#241=CYLINDRICAL_SURFACE('generated cylinder',#240,5.) ;
#296=CYLINDRICAL_SURFACE('generated cylinder',#295,5.) ;
#344=CYLINDRICAL_SURFACE('generated cylinder',#343,5.) ;
#392=CYLINDRICAL_SURFACE('generated cylinder',#391,5.) ;
#433=CYLINDRICAL_SURFACE('generated cylinder',#432,3.6) ;
#476=CYLINDRICAL_SURFACE('generated cylinder',#475,3.6) ;
#519=CYLINDRICAL_SURFACE('generated cylinder',#518,3.6) ;
#562=CYLINDRICAL_SURFACE('generated cylinder',#561,3.6) ;
#644=DRAUGHTING_PRE_DEFINED_COLOUR('white') ;
#643=DRAUGHTING_PRE_DEFINED_CURVE_FONT('continuous') ;
#45=EDGE_CURVE('',#42,#44,#40,.F.) ;
#52=EDGE_CURVE('',#51,#42,#49,.F.) ;
#59=EDGE_CURVE('',#51,#58,#56,.F.) ;
#64=EDGE_CURVE('',#58,#44,#63,.F.) ;
#85=EDGE_CURVE('',#82,#84,#80,.T.) ;
#92=EDGE_CURVE('',#84,#91,#89,.T.) ;
#99=EDGE_CURVE('',#91,#98,#96,.T.) ;
#106=EDGE_CURVE('',#98,#105,#103,.F.) ;
#113=EDGE_CURVE('',#105,#112,#110,.T.) ;
#120=EDGE_CURVE('',#112,#119,#117,.T.) ;
#127=EDGE_CURVE('',#119,#126,#124,.T.) ;
#132=EDGE_CURVE('',#126,#82,#131,.F.) ;
#147=EDGE_CURVE('',#44,#58,#146,.T.) ;
#160=EDGE_CURVE('',#157,#159,#155,.T.) ;
#165=EDGE_CURVE('',#159,#157,#164,.T.) ;
#178=EDGE_CURVE('',#175,#177,#173,.T.) ;
#183=EDGE_CURVE('',#177,#175,#182,.T.) ;
#196=EDGE_CURVE('',#193,#195,#191,.T.) ;
#201=EDGE_CURVE('',#195,#193,#200,.T.) ;
#214=EDGE_CURVE('',#211,#213,#209,.T.) ;
#219=EDGE_CURVE('',#213,#211,#218,.T.) ;
#229=EDGE_CURVE('',#42,#51,#228,.F.) ;
#248=EDGE_CURVE('',#247,#82,#245,.T.) ;
#255=EDGE_CURVE('',#247,#254,#252,.T.) ;
#260=EDGE_CURVE('',#254,#84,#259,.T.) ;
#279=EDGE_CURVE('',#254,#278,#276,.T.) ;
#284=EDGE_CURVE('',#278,#91,#283,.T.) ;
#303=EDGE_CURVE('',#278,#302,#300,.T.) ;
#308=EDGE_CURVE('',#302,#98,#307,.T.) ;
#327=EDGE_CURVE('',#302,#326,#324,.F.) ;
#332=EDGE_CURVE('',#326,#105,#331,.T.) ;
#351=EDGE_CURVE('',#326,#350,#348,.T.) ;
#356=EDGE_CURVE('',#350,#112,#355,.T.) ;
#375=EDGE_CURVE('',#350,#374,#372,.T.) ;
#380=EDGE_CURVE('',#374,#119,#379,.T.) ;
#399=EDGE_CURVE('',#374,#398,#396,.T.) ;
#404=EDGE_CURVE('',#398,#126,#403,.T.) ;
#421=EDGE_CURVE('',#398,#247,#420,.F.) ;
#440=EDGE_CURVE('',#439,#211,#437,.F.) ;
#447=EDGE_CURVE('',#446,#439,#444,.F.) ;
#452=EDGE_CURVE('',#446,#213,#451,.F.) ;
#464=EDGE_CURVE('',#439,#446,#463,.F.) ;
#483=EDGE_CURVE('',#482,#193,#480,.F.) ;
#490=EDGE_CURVE('',#489,#482,#487,.F.) ;
#495=EDGE_CURVE('',#489,#195,#494,.F.) ;
#507=EDGE_CURVE('',#482,#489,#506,.F.) ;
#526=EDGE_CURVE('',#525,#175,#523,.F.) ;
#533=EDGE_CURVE('',#532,#525,#530,.F.) ;
#538=EDGE_CURVE('',#532,#177,#537,.F.) ;
#550=EDGE_CURVE('',#525,#532,#549,.F.) ;
#569=EDGE_CURVE('',#568,#157,#566,.F.) ;
#576=EDGE_CURVE('',#575,#568,#573,.F.) ;
#581=EDGE_CURVE('',#575,#159,#580,.F.) ;
#593=EDGE_CURVE('',#568,#575,#592,.F.) ;
#65=EDGE_LOOP('',(#66,#67,#68,#69)) ;
#133=EDGE_LOOP('',(#134,#135,#136,#137,#138,#139,#140,#141)) ;
#148=EDGE_LOOP('',(#149,#150)) ;
#166=EDGE_LOOP('',(#167,#168)) ;
#184=EDGE_LOOP('',(#185,#186)) ;
#202=EDGE_LOOP('',(#203,#204)) ;
#220=EDGE_LOOP('',(#221,#222)) ;
#230=EDGE_LOOP('',(#231,#232,#233,#234)) ;
#261=EDGE_LOOP('',(#262,#263,#264,#265)) ;
#285=EDGE_LOOP('',(#286,#287,#288,#289)) ;
#309=EDGE_LOOP('',(#310,#311,#312,#313)) ;
#333=EDGE_LOOP('',(#334,#335,#336,#337)) ;
#357=EDGE_LOOP('',(#358,#359,#360,#361)) ;
#381=EDGE_LOOP('',(#382,#383,#384,#385)) ;
#405=EDGE_LOOP('',(#406,#407,#408,#409)) ;
#422=EDGE_LOOP('',(#423,#424,#425,#426)) ;
#453=EDGE_LOOP('',(#454,#455,#456,#457)) ;
#465=EDGE_LOOP('',(#466,#467,#468,#469)) ;
#496=EDGE_LOOP('',(#497,#498,#499,#500)) ;
#508=EDGE_LOOP('',(#509,#510,#511,#512)) ;
#539=EDGE_LOOP('',(#540,#541,#542,#543)) ;
#551=EDGE_LOOP('',(#552,#553,#554,#555)) ;
#582=EDGE_LOOP('',(#583,#584,#585,#586)) ;
#594=EDGE_LOOP('',(#595,#596,#597,#598)) ;
#606=EDGE_LOOP('',(#607,#608,#609,#610,#611,#612,#613,#614)) ;
#616=EDGE_LOOP('',(#617,#618)) ;
#620=EDGE_LOOP('',(#621,#622)) ;
#624=EDGE_LOOP('',(#625,#626)) ;
#628=EDGE_LOOP('',(#629,#630)) ;
#632=EDGE_LOOP('',(#633,#634)) ;
#70=FACE_OUTER_BOUND('',#65,.T.) ;
#142=FACE_OUTER_BOUND('',#133,.T.) ;
#235=FACE_OUTER_BOUND('',#230,.T.) ;
#266=FACE_OUTER_BOUND('',#261,.T.) ;
#290=FACE_OUTER_BOUND('',#285,.T.) ;
#314=FACE_OUTER_BOUND('',#309,.T.) ;
#338=FACE_OUTER_BOUND('',#333,.T.) ;
#362=FACE_OUTER_BOUND('',#357,.T.) ;
#386=FACE_OUTER_BOUND('',#381,.T.) ;
#410=FACE_OUTER_BOUND('',#405,.T.) ;
#427=FACE_OUTER_BOUND('',#422,.T.) ;
#458=FACE_OUTER_BOUND('',#453,.T.) ;
#470=FACE_OUTER_BOUND('',#465,.T.) ;
#501=FACE_OUTER_BOUND('',#496,.T.) ;
#513=FACE_OUTER_BOUND('',#508,.T.) ;
#544=FACE_OUTER_BOUND('',#539,.T.) ;
#556=FACE_OUTER_BOUND('',#551,.T.) ;
#587=FACE_OUTER_BOUND('',#582,.T.) ;
#599=FACE_OUTER_BOUND('',#594,.T.) ;
#615=FACE_OUTER_BOUND('',#606,.T.) ;
#40=LINE('Line',#37,#39) ;
#56=LINE('Line',#53,#55) ;
#89=LINE('Line',#86,#88) ;
#103=LINE('Line',#100,#102) ;
#117=LINE('Line',#114,#116) ;
#131=LINE('Line',#128,#130) ;
#245=LINE('Line',#242,#244) ;
#259=LINE('Line',#256,#258) ;
#276=LINE('Line',#273,#275) ;
#283=LINE('Line',#280,#282) ;
#307=LINE('Line',#304,#306) ;
#324=LINE('Line',#321,#323) ;
#331=LINE('Line',#328,#330) ;
#355=LINE('Line',#352,#354) ;
#372=LINE('Line',#369,#371) ;
#379=LINE('Line',#376,#378) ;
#403=LINE('Line',#400,#402) ;
#420=LINE('Line',#417,#419) ;
#437=LINE('Line',#434,#436) ;
#451=LINE('Line',#448,#450) ;
#480=LINE('Line',#477,#479) ;
#494=LINE('Line',#491,#493) ;
#523=LINE('Line',#520,#522) ;
#537=LINE('Line',#534,#536) ;
#566=LINE('Line',#563,#565) ;
#580=LINE('Line',#577,#579) ;
#76=PLANE('',#75) ;
#272=PLANE('',#271) ;
#320=PLANE('',#319) ;
#368=PLANE('',#367) ;
#416=PLANE('',#415) ;
#605=PLANE('',#604) ;
#9=PRODUCT_CATEGORY_RELATIONSHIP(' ',' ',#7,#8) ;
#6=PRODUCT_DEFINITION_FORMATION_WITH_SPECIFIED_SOURCE('',' ',#5,.NOT_KNOWN.) ;
#20=SHAPE_DEFINITION_REPRESENTATION(#11,#19) ;
#42=VERTEX_POINT('',#41) ;
#44=VERTEX_POINT('',#43) ;
#51=VERTEX_POINT('',#50) ;
#58=VERTEX_POINT('',#57) ;
#82=VERTEX_POINT('',#81) ;
#84=VERTEX_POINT('',#83) ;
#91=VERTEX_POINT('',#90) ;
#98=VERTEX_POINT('',#97) ;
#105=VERTEX_POINT('',#104) ;
#112=VERTEX_POINT('',#111) ;
#119=VERTEX_POINT('',#118) ;
#126=VERTEX_POINT('',#125) ;
#157=VERTEX_POINT('',#156) ;
#159=VERTEX_POINT('',#158) ;
#175=VERTEX_POINT('',#174) ;
#177=VERTEX_POINT('',#176) ;
#193=VERTEX_POINT('',#192) ;
#195=VERTEX_POINT('',#194) ;
#211=VERTEX_POINT('',#210) ;
#213=VERTEX_POINT('',#212) ;
#247=VERTEX_POINT('',#246) ;
#254=VERTEX_POINT('',#253) ;
#278=VERTEX_POINT('',#277) ;
#302=VERTEX_POINT('',#301) ;
#326=VERTEX_POINT('',#325) ;
#350=VERTEX_POINT('',#349) ;
#374=VERTEX_POINT('',#373) ;
#398=VERTEX_POINT('',#397) ;
#439=VERTEX_POINT('',#438) ;
#446=VERTEX_POINT('',#445) ;
#482=VERTEX_POINT('',#481) ;
#489=VERTEX_POINT('',#488) ;
#525=VERTEX_POINT('',#524) ;
#532=VERTEX_POINT('',#531) ;
#568=VERTEX_POINT('',#567) ;
#575=VERTEX_POINT('',#574) ;
#12=(LENGTH_UNIT()NAMED_UNIT(*)SI_UNIT(.MILLI.,.METRE.)) ;
#13=(NAMED_UNIT(*)PLANE_ANGLE_UNIT()SI_UNIT($,.RADIAN.)) ;
#14=(NAMED_UNIT(*)SI_UNIT($,.STERADIAN.)SOLID_ANGLE_UNIT()) ;
#16=(GEOMETRIC_REPRESENTATION_CONTEXT(3)GLOBAL_UNCERTAINTY_ASSIGNED_CONTEXT((#15))GLOBAL_UNIT_ASSIGNED_CONTEXT((#12,#13,#14))REPRESENTATION_CONTEXT(' ',' ')) ;
ENDSEC;
END-ISO-10303-21;
