ISO-10303-21;
HEADER;
FILE_DESCRIPTION(('CATIA V5R24 STEP','CAx-IF Rec.Pracs.--- Model Styling and Organization---1.2---2011-12-15'),'2;1');

FILE_NAME ('035232-1_1_0297200000_0297200000.stp','2018-08-27T06:32:09+00:00',('none'),('Weidmueller'),'CATIA Version 5-6 Release 2014 SP4 HF52','CATIA V5 STEP AP214','none');

FILE_SCHEMA(('AUTOMOTIVE_DESIGN { 1 0 10303 214 1 1 1 1 }'));

ENDSEC;
DATA;
#5=PRODUCT('0297200000','','QUERVERBINDUNGSLASCHE',(#2)) ;
#2=PRODUCT_CONTEXT(' ',#1,'mechanical') ;
#1=APPLICATION_CONTEXT('automotive design') ;
#10=PRODUCT_DEFINITION('',' ',#6,#3) ;
#3=PRODUCT_DEFINITION_CONTEXT('part definition',#1,' ') ;
#11=PRODUCT_DEFINITION_SHAPE(' ',' ',#10) ;
#461=MECHANICAL_DESIGN_GEOMETRIC_PRESENTATION_REPRESENTATION(' ',(#46),#16) ;
#19=SHAPE_REPRESENTATION(' ',(#18),#16) ;
#18=AXIS2_PLACEMENT_3D(' ',#17,$,$) ;
#24=AXIS2_PLACEMENT_3D('Plane Axis2P3D',#21,#22,#23) ;
#31=AXIS2_PLACEMENT_3D('Plane Axis2P3D',#28,#29,#30) ;
#36=AXIS2_PLACEMENT_3D('Plane Axis2P3D',#33,#34,#35) ;
#52=AXIS2_PLACEMENT_3D('Plane Axis2P3D',#49,#50,#51) ;
#92=AXIS2_PLACEMENT_3D('Plane Axis2P3D',#89,#90,#91) ;
#123=AXIS2_PLACEMENT_3D('Plane Axis2P3D',#120,#121,#122) ;
#154=AXIS2_PLACEMENT_3D('Plane Axis2P3D',#151,#152,#153) ;
#176=AXIS2_PLACEMENT_3D('Cylinder Axis2P3D',#173,#174,#175) ;
#189=AXIS2_PLACEMENT_3D('Circle Axis2P3D',#187,#188,$) ;
#203=AXIS2_PLACEMENT_3D('Circle Axis2P3D',#201,#202,$) ;
#216=AXIS2_PLACEMENT_3D('Plane Axis2P3D',#213,#214,#215) ;
#247=AXIS2_PLACEMENT_3D('Plane Axis2P3D',#244,#245,#246) ;
#278=AXIS2_PLACEMENT_3D('Cylinder Axis2P3D',#275,#276,#277) ;
#282=AXIS2_PLACEMENT_3D('Circle Axis2P3D',#280,#281,$) ;
#287=AXIS2_PLACEMENT_3D('Circle Axis2P3D',#285,#286,$) ;
#300=AXIS2_PLACEMENT_3D('Plane Axis2P3D',#297,#298,#299) ;
#319=AXIS2_PLACEMENT_3D('Circle Axis2P3D',#317,#318,$) ;
#333=AXIS2_PLACEMENT_3D('Circle Axis2P3D',#331,#332,$) ;
#352=AXIS2_PLACEMENT_3D('Plane Axis2P3D',#349,#350,#351) ;
#362=AXIS2_PLACEMENT_3D('Circle Axis2P3D',#360,#361,$) ;
#378=AXIS2_PLACEMENT_3D('Circle Axis2P3D',#376,#377,$) ;
#404=AXIS2_PLACEMENT_3D('Cylinder Axis2P3D',#401,#402,#403) ;
#450=AXIS2_PLACEMENT_3D('Cylinder Axis2P3D',#447,#448,#449) ;
#17=CARTESIAN_POINT(' ',(0.,0.,0.)) ;
#21=CARTESIAN_POINT('Axis2P3D Location',(0.,0.,0.)) ;
#28=CARTESIAN_POINT('Axis2P3D Location',(0.,0.,0.)) ;
#33=CARTESIAN_POINT('Axis2P3D Location',(0.,0.,0.)) ;
#49=CARTESIAN_POINT('Axis2P3D Location',(0.,0.,0.)) ;
#54=CARTESIAN_POINT('Line Origine',(0.,0.,0.4)) ;
#58=CARTESIAN_POINT('Vertex',(0.,0.,0.)) ;
#60=CARTESIAN_POINT('Vertex',(0.,0.,0.8)) ;
#63=CARTESIAN_POINT('Line Origine',(5.55,0.,0.)) ;
#67=CARTESIAN_POINT('Vertex',(11.1,0.,0.)) ;
#70=CARTESIAN_POINT('Line Origine',(11.1,0.,0.4)) ;
#74=CARTESIAN_POINT('Vertex',(11.1,0.,0.8)) ;
#77=CARTESIAN_POINT('Line Origine',(5.55,0.,0.8)) ;
#89=CARTESIAN_POINT('Axis2P3D Location',(11.1,-2.8343277541E-016,0.)) ;
#94=CARTESIAN_POINT('Line Origine',(11.1,2.,0.)) ;
#98=CARTESIAN_POINT('Vertex',(11.1,4.,0.)) ;
#101=CARTESIAN_POINT('Line Origine',(11.1,4.,0.4)) ;
#105=CARTESIAN_POINT('Vertex',(11.1,4.,0.8)) ;
#108=CARTESIAN_POINT('Line Origine',(11.1,2.,0.8)) ;
#120=CARTESIAN_POINT('Axis2P3D Location',(11.1,4.,0.)) ;
#125=CARTESIAN_POINT('Line Origine',(5.55,4.,0.)) ;
#129=CARTESIAN_POINT('Vertex',(0.,4.,0.)) ;
#132=CARTESIAN_POINT('Line Origine',(0.,4.,0.4)) ;
#136=CARTESIAN_POINT('Vertex',(0.,4.,0.8)) ;
#139=CARTESIAN_POINT('Line Origine',(5.55,4.,0.8)) ;
#151=CARTESIAN_POINT('Axis2P3D Location',(0.,4.,0.)) ;
#156=CARTESIAN_POINT('Line Origine',(0.,2.,0.)) ;
#161=CARTESIAN_POINT('Line Origine',(0.,2.,0.8)) ;
#173=CARTESIAN_POINT('Axis2P3D Location',(2.5,2.,0.4)) ;
#178=CARTESIAN_POINT('Line Origine',(1.26509109648,3.275,0.4)) ;
#182=CARTESIAN_POINT('Vertex',(1.26509109648,3.275,0.8)) ;
#184=CARTESIAN_POINT('Vertex',(1.26509109648,3.275,0.)) ;
#187=CARTESIAN_POINT('Axis2P3D Location',(2.5,2.,0.8)) ;
#191=CARTESIAN_POINT('Vertex',(1.26509109648,0.725,0.8)) ;
#194=CARTESIAN_POINT('Line Origine',(1.26509109648,0.725,0.4)) ;
#198=CARTESIAN_POINT('Vertex',(1.26509109648,0.725,5.55111512313E-017)) ;
#201=CARTESIAN_POINT('Axis2P3D Location',(2.5,2.,0.)) ;
#213=CARTESIAN_POINT('Axis2P3D Location',(1.26509109648,3.275,0.8)) ;
#218=CARTESIAN_POINT('Line Origine',(3.73490890352,3.275,0.4)) ;
#222=CARTESIAN_POINT('Vertex',(3.73490890352,3.275,0.8)) ;
#224=CARTESIAN_POINT('Vertex',(3.73490890352,3.275,5.55111512313E-017)) ;
#227=CARTESIAN_POINT('Line Origine',(2.5,3.275,0.8)) ;
#232=CARTESIAN_POINT('Line Origine',(2.5,3.275,0.)) ;
#244=CARTESIAN_POINT('Axis2P3D Location',(3.73490890352,0.725,0.8)) ;
#249=CARTESIAN_POINT('Line Origine',(2.5,0.725,0.8)) ;
#253=CARTESIAN_POINT('Vertex',(3.73490890352,0.725,0.8)) ;
#256=CARTESIAN_POINT('Line Origine',(3.73490890352,0.725,0.4)) ;
#260=CARTESIAN_POINT('Vertex',(3.73490890352,0.725,0.)) ;
#263=CARTESIAN_POINT('Line Origine',(2.5,0.725,0.)) ;
#275=CARTESIAN_POINT('Axis2P3D Location',(2.5,2.,0.4)) ;
#280=CARTESIAN_POINT('Axis2P3D Location',(2.5,2.,0.8)) ;
#285=CARTESIAN_POINT('Axis2P3D Location',(2.5,2.,0.)) ;
#297=CARTESIAN_POINT('Axis2P3D Location',(0.,0.,0.)) ;
#308=CARTESIAN_POINT('Line Origine',(8.6,3.275,0.)) ;
#312=CARTESIAN_POINT('Vertex',(9.83490890352,3.275,0.)) ;
#314=CARTESIAN_POINT('Vertex',(7.36509109648,3.275,0.)) ;
#317=CARTESIAN_POINT('Axis2P3D Location',(8.6,2.,0.)) ;
#321=CARTESIAN_POINT('Vertex',(7.36509109648,0.725,5.55111512313E-017)) ;
#324=CARTESIAN_POINT('Line Origine',(8.6,0.725,0.)) ;
#328=CARTESIAN_POINT('Vertex',(9.83490890352,0.725,0.)) ;
#331=CARTESIAN_POINT('Axis2P3D Location',(8.6,2.,0.)) ;
#349=CARTESIAN_POINT('Axis2P3D Location',(0.,0.,0.8)) ;
#360=CARTESIAN_POINT('Axis2P3D Location',(8.6,2.,0.8)) ;
#364=CARTESIAN_POINT('Vertex',(9.83490890352,0.725,0.8)) ;
#366=CARTESIAN_POINT('Vertex',(9.83490890352,3.275,0.8)) ;
#369=CARTESIAN_POINT('Line Origine',(8.6,0.725,0.8)) ;
#373=CARTESIAN_POINT('Vertex',(7.36509109648,0.725,0.8)) ;
#376=CARTESIAN_POINT('Axis2P3D Location',(8.6,2.,0.8)) ;
#380=CARTESIAN_POINT('Vertex',(7.36509109648,3.275,0.8)) ;
#383=CARTESIAN_POINT('Line Origine',(8.6,3.275,0.8)) ;
#401=CARTESIAN_POINT('Axis2P3D Location',(8.6,2.,0.4)) ;
#406=CARTESIAN_POINT('Line Origine',(7.36509109648,3.275,0.4)) ;
#411=CARTESIAN_POINT('Line Origine',(7.36509109648,0.725,0.4)) ;
#423=CARTESIAN_POINT('Line Origine',(9.83490890352,3.275,0.4)) ;
#435=CARTESIAN_POINT('Line Origine',(9.83490890352,0.725,0.4)) ;
#447=CARTESIAN_POINT('Axis2P3D Location',(8.6,2.,0.4)) ;
#22=DIRECTION('Axis2P3D Direction',(0.,0.,1.)) ;
#23=DIRECTION('Axis2P3D XDirection',(1.,0.,0.)) ;
#29=DIRECTION('Axis2P3D Direction',(1.,0.,0.)) ;
#30=DIRECTION('Axis2P3D XDirection',(0.,1.,0.)) ;
#34=DIRECTION('Axis2P3D Direction',(0.,1.,0.)) ;
#35=DIRECTION('Axis2P3D XDirection',(0.,0.,1.)) ;
#50=DIRECTION('Axis2P3D Direction',(0.,-1.,0.)) ;
#51=DIRECTION('Axis2P3D XDirection',(1.,0.,0.)) ;
#55=DIRECTION('Vector Direction',(0.,0.,1.)) ;
#64=DIRECTION('Vector Direction',(1.,0.,0.)) ;
#71=DIRECTION('Vector Direction',(0.,0.,1.)) ;
#78=DIRECTION('Vector Direction',(1.,0.,0.)) ;
#90=DIRECTION('Axis2P3D Direction',(1.,0.,0.)) ;
#91=DIRECTION('Axis2P3D XDirection',(0.,1.,0.)) ;
#95=DIRECTION('Vector Direction',(0.,1.,0.)) ;
#102=DIRECTION('Vector Direction',(0.,0.,1.)) ;
#109=DIRECTION('Vector Direction',(0.,1.,0.)) ;
#121=DIRECTION('Axis2P3D Direction',(0.,1.,-0.)) ;
#122=DIRECTION('Axis2P3D XDirection',(-1.,0.,0.)) ;
#126=DIRECTION('Vector Direction',(-1.,0.,0.)) ;
#133=DIRECTION('Vector Direction',(0.,0.,1.)) ;
#140=DIRECTION('Vector Direction',(-1.,0.,0.)) ;
#152=DIRECTION('Axis2P3D Direction',(-1.,0.,0.)) ;
#153=DIRECTION('Axis2P3D XDirection',(0.,-1.,0.)) ;
#157=DIRECTION('Vector Direction',(0.,-1.,0.)) ;
#162=DIRECTION('Vector Direction',(0.,-1.,0.)) ;
#174=DIRECTION('Axis2P3D Direction',(0.,0.,1.)) ;
#175=DIRECTION('Axis2P3D XDirection',(-0.695723325928,0.718309859155,0.)) ;
#179=DIRECTION('Vector Direction',(0.,0.,1.)) ;
#188=DIRECTION('Axis2P3D Direction',(0.,0.,1.)) ;
#195=DIRECTION('Vector Direction',(0.,0.,1.)) ;
#202=DIRECTION('Axis2P3D Direction',(0.,0.,1.)) ;
#214=DIRECTION('Axis2P3D Direction',(-0.,1.,0.)) ;
#215=DIRECTION('Axis2P3D XDirection',(1.,0.,0.)) ;
#219=DIRECTION('Vector Direction',(0.,0.,-1.)) ;
#228=DIRECTION('Vector Direction',(1.,0.,0.)) ;
#233=DIRECTION('Vector Direction',(1.,0.,0.)) ;
#245=DIRECTION('Axis2P3D Direction',(-0.,-1.,-0.)) ;
#246=DIRECTION('Axis2P3D XDirection',(-1.,0.,0.)) ;
#250=DIRECTION('Vector Direction',(-1.,0.,0.)) ;
#257=DIRECTION('Vector Direction',(0.,0.,-1.)) ;
#264=DIRECTION('Vector Direction',(-1.,0.,0.)) ;
#276=DIRECTION('Axis2P3D Direction',(0.,0.,1.)) ;
#277=DIRECTION('Axis2P3D XDirection',(0.695723325928,-0.718309859155,0.)) ;
#281=DIRECTION('Axis2P3D Direction',(0.,0.,1.)) ;
#286=DIRECTION('Axis2P3D Direction',(0.,0.,1.)) ;
#298=DIRECTION('Axis2P3D Direction',(0.,0.,1.)) ;
#299=DIRECTION('Axis2P3D XDirection',(1.,0.,0.)) ;
#309=DIRECTION('Vector Direction',(1.,0.,0.)) ;
#318=DIRECTION('Axis2P3D Direction',(0.,0.,1.)) ;
#325=DIRECTION('Vector Direction',(-1.,0.,0.)) ;
#332=DIRECTION('Axis2P3D Direction',(0.,0.,1.)) ;
#350=DIRECTION('Axis2P3D Direction',(0.,0.,1.)) ;
#351=DIRECTION('Axis2P3D XDirection',(1.,0.,0.)) ;
#361=DIRECTION('Axis2P3D Direction',(0.,0.,1.)) ;
#370=DIRECTION('Vector Direction',(-1.,0.,0.)) ;
#377=DIRECTION('Axis2P3D Direction',(0.,0.,1.)) ;
#384=DIRECTION('Vector Direction',(1.,0.,0.)) ;
#402=DIRECTION('Axis2P3D Direction',(0.,0.,1.)) ;
#403=DIRECTION('Axis2P3D XDirection',(-0.695723325928,0.718309859155,0.)) ;
#407=DIRECTION('Vector Direction',(0.,0.,1.)) ;
#412=DIRECTION('Vector Direction',(0.,0.,1.)) ;
#424=DIRECTION('Vector Direction',(0.,0.,-1.)) ;
#436=DIRECTION('Vector Direction',(0.,0.,-1.)) ;
#448=DIRECTION('Axis2P3D Direction',(0.,0.,1.)) ;
#449=DIRECTION('Axis2P3D XDirection',(0.695723325928,-0.718309859155,0.)) ;
#47=PRESENTATION_LAYER_ASSIGNMENT('1',' ',(#38)) ;
#8=PRODUCT_RELATED_PRODUCT_CATEGORY('part',$,(#5)) ;
#7=PRODUCT_CATEGORY('part','specification') ;
#46=STYLED_ITEM(' ',(#45),#38) ;
#45=PRESENTATION_STYLE_ASSIGNMENT((#44)) ;
#44=SURFACE_STYLE_USAGE(.BOTH.,#43) ;
#43=SURFACE_SIDE_STYLE(' ',(#42)) ;
#42=SURFACE_STYLE_FILL_AREA(#41) ;
#41=FILL_AREA_STYLE(' ',(#40)) ;
#40=FILL_AREA_STYLE_COLOUR(' ',#39) ;
#56=VECTOR('Line Direction',#55,1.) ;
#65=VECTOR('Line Direction',#64,1.) ;
#72=VECTOR('Line Direction',#71,1.) ;
#79=VECTOR('Line Direction',#78,1.) ;
#96=VECTOR('Line Direction',#95,1.) ;
#103=VECTOR('Line Direction',#102,1.) ;
#110=VECTOR('Line Direction',#109,1.) ;
#127=VECTOR('Line Direction',#126,1.) ;
#134=VECTOR('Line Direction',#133,1.) ;
#141=VECTOR('Line Direction',#140,1.) ;
#158=VECTOR('Line Direction',#157,1.) ;
#163=VECTOR('Line Direction',#162,1.) ;
#180=VECTOR('Line Direction',#179,1.) ;
#196=VECTOR('Line Direction',#195,1.) ;
#220=VECTOR('Line Direction',#219,1.) ;
#229=VECTOR('Line Direction',#228,1.) ;
#234=VECTOR('Line Direction',#233,1.) ;
#251=VECTOR('Line Direction',#250,1.) ;
#258=VECTOR('Line Direction',#257,1.) ;
#265=VECTOR('Line Direction',#264,1.) ;
#310=VECTOR('Line Direction',#309,1.) ;
#326=VECTOR('Line Direction',#325,1.) ;
#371=VECTOR('Line Direction',#370,1.) ;
#385=VECTOR('Line Direction',#384,1.) ;
#408=VECTOR('Line Direction',#407,1.) ;
#413=VECTOR('Line Direction',#412,1.) ;
#425=VECTOR('Line Direction',#424,1.) ;
#437=VECTOR('Line Direction',#436,1.) ;
#15=UNCERTAINTY_MEASURE_WITH_UNIT(LENGTH_MEASURE(0.005),#12,'distance_accuracy_value','CONFUSED CURVE UNCERTAINTY') ;
#460=SHAPE_REPRESENTATION_RELATIONSHIP(' ',' ',#19,#459) ;
#83=ORIENTED_EDGE('',*,*,#62,.F.) ;
#84=ORIENTED_EDGE('',*,*,#69,.T.) ;
#85=ORIENTED_EDGE('',*,*,#76,.T.) ;
#86=ORIENTED_EDGE('',*,*,#81,.F.) ;
#114=ORIENTED_EDGE('',*,*,#76,.F.) ;
#115=ORIENTED_EDGE('',*,*,#100,.T.) ;
#116=ORIENTED_EDGE('',*,*,#107,.T.) ;
#117=ORIENTED_EDGE('',*,*,#112,.F.) ;
#145=ORIENTED_EDGE('',*,*,#107,.F.) ;
#146=ORIENTED_EDGE('',*,*,#131,.T.) ;
#147=ORIENTED_EDGE('',*,*,#138,.T.) ;
#148=ORIENTED_EDGE('',*,*,#143,.F.) ;
#167=ORIENTED_EDGE('',*,*,#138,.F.) ;
#168=ORIENTED_EDGE('',*,*,#160,.T.) ;
#169=ORIENTED_EDGE('',*,*,#62,.T.) ;
#170=ORIENTED_EDGE('',*,*,#165,.F.) ;
#207=ORIENTED_EDGE('',*,*,#186,.F.) ;
#208=ORIENTED_EDGE('',*,*,#193,.T.) ;
#209=ORIENTED_EDGE('',*,*,#200,.T.) ;
#210=ORIENTED_EDGE('',*,*,#205,.F.) ;
#238=ORIENTED_EDGE('',*,*,#226,.F.) ;
#239=ORIENTED_EDGE('',*,*,#231,.T.) ;
#240=ORIENTED_EDGE('',*,*,#186,.T.) ;
#241=ORIENTED_EDGE('',*,*,#236,.F.) ;
#269=ORIENTED_EDGE('',*,*,#200,.F.) ;
#270=ORIENTED_EDGE('',*,*,#255,.T.) ;
#271=ORIENTED_EDGE('',*,*,#262,.T.) ;
#272=ORIENTED_EDGE('',*,*,#267,.F.) ;
#291=ORIENTED_EDGE('',*,*,#262,.F.) ;
#292=ORIENTED_EDGE('',*,*,#284,.T.) ;
#293=ORIENTED_EDGE('',*,*,#226,.T.) ;
#294=ORIENTED_EDGE('',*,*,#289,.F.) ;
#303=ORIENTED_EDGE('',*,*,#160,.F.) ;
#304=ORIENTED_EDGE('',*,*,#131,.F.) ;
#305=ORIENTED_EDGE('',*,*,#100,.F.) ;
#306=ORIENTED_EDGE('',*,*,#69,.F.) ;
#337=ORIENTED_EDGE('',*,*,#316,.T.) ;
#338=ORIENTED_EDGE('',*,*,#323,.T.) ;
#339=ORIENTED_EDGE('',*,*,#330,.T.) ;
#340=ORIENTED_EDGE('',*,*,#335,.T.) ;
#343=ORIENTED_EDGE('',*,*,#236,.T.) ;
#344=ORIENTED_EDGE('',*,*,#205,.T.) ;
#345=ORIENTED_EDGE('',*,*,#267,.T.) ;
#346=ORIENTED_EDGE('',*,*,#289,.T.) ;
#355=ORIENTED_EDGE('',*,*,#81,.T.) ;
#356=ORIENTED_EDGE('',*,*,#112,.T.) ;
#357=ORIENTED_EDGE('',*,*,#143,.T.) ;
#358=ORIENTED_EDGE('',*,*,#165,.T.) ;
#389=ORIENTED_EDGE('',*,*,#368,.F.) ;
#390=ORIENTED_EDGE('',*,*,#375,.F.) ;
#391=ORIENTED_EDGE('',*,*,#382,.F.) ;
#392=ORIENTED_EDGE('',*,*,#387,.F.) ;
#395=ORIENTED_EDGE('',*,*,#284,.F.) ;
#396=ORIENTED_EDGE('',*,*,#255,.F.) ;
#397=ORIENTED_EDGE('',*,*,#193,.F.) ;
#398=ORIENTED_EDGE('',*,*,#231,.F.) ;
#417=ORIENTED_EDGE('',*,*,#410,.F.) ;
#418=ORIENTED_EDGE('',*,*,#382,.T.) ;
#419=ORIENTED_EDGE('',*,*,#415,.T.) ;
#420=ORIENTED_EDGE('',*,*,#323,.F.) ;
#429=ORIENTED_EDGE('',*,*,#427,.F.) ;
#430=ORIENTED_EDGE('',*,*,#387,.T.) ;
#431=ORIENTED_EDGE('',*,*,#410,.T.) ;
#432=ORIENTED_EDGE('',*,*,#316,.F.) ;
#441=ORIENTED_EDGE('',*,*,#415,.F.) ;
#442=ORIENTED_EDGE('',*,*,#375,.T.) ;
#443=ORIENTED_EDGE('',*,*,#439,.T.) ;
#444=ORIENTED_EDGE('',*,*,#330,.F.) ;
#453=ORIENTED_EDGE('',*,*,#439,.F.) ;
#454=ORIENTED_EDGE('',*,*,#368,.T.) ;
#455=ORIENTED_EDGE('',*,*,#427,.T.) ;
#456=ORIENTED_EDGE('',*,*,#335,.F.) ;
#341=FACE_BOUND('',#336,.T.) ;
#347=FACE_BOUND('',#342,.T.) ;
#393=FACE_BOUND('',#388,.T.) ;
#399=FACE_BOUND('',#394,.T.) ;
#48=CLOSED_SHELL('Closed Shell',(#88,#119,#150,#172,#212,#243,#274,#296,#348,#400,#422,#434,#446,#458)) ;
#459=ADVANCED_BREP_SHAPE_REPRESENTATION('NONE',(#38),#16) ;
#88=ADVANCED_FACE('K\X2\00F6\X0\rper.2',(#87),#53,.T.) ;
#119=ADVANCED_FACE('K\X2\00F6\X0\rper.2',(#118),#93,.T.) ;
#150=ADVANCED_FACE('K\X2\00F6\X0\rper.2',(#149),#124,.T.) ;
#172=ADVANCED_FACE('K\X2\00F6\X0\rper.2',(#171),#155,.T.) ;
#212=ADVANCED_FACE('K\X2\00F6\X0\rper.2',(#211),#177,.F.) ;
#243=ADVANCED_FACE('K\X2\00F6\X0\rper.2',(#242),#217,.F.) ;
#274=ADVANCED_FACE('K\X2\00F6\X0\rper.2',(#273),#248,.F.) ;
#296=ADVANCED_FACE('K\X2\00F6\X0\rper.2',(#295),#279,.F.) ;
#348=ADVANCED_FACE('K\X2\00F6\X0\rper.2',(#307,#341,#347),#301,.F.) ;
#400=ADVANCED_FACE('K\X2\00F6\X0\rper.2',(#359,#393,#399),#353,.T.) ;
#422=ADVANCED_FACE('K\X2\00F6\X0\rper.2',(#421),#405,.F.) ;
#434=ADVANCED_FACE('K\X2\00F6\X0\rper.2',(#433),#217,.F.) ;
#446=ADVANCED_FACE('K\X2\00F6\X0\rper.2',(#445),#248,.F.) ;
#458=ADVANCED_FACE('K\X2\00F6\X0\rper.2',(#457),#451,.F.) ;
#4=APPLICATION_PROTOCOL_DEFINITION('international standard','automotive_design',2001,#1) ;
#38=MANIFOLD_SOLID_BREP('K\X2\00F6\X0\rper.2',#48) ;
#190=CIRCLE('generated circle',#189,1.775) ;
#204=CIRCLE('generated circle',#203,1.775) ;
#283=CIRCLE('generated circle',#282,1.775) ;
#288=CIRCLE('generated circle',#287,1.775) ;
#320=CIRCLE('generated circle',#319,1.775) ;
#334=CIRCLE('generated circle',#333,1.775) ;
#363=CIRCLE('generated circle',#362,1.775) ;
#379=CIRCLE('generated circle',#378,1.775) ;
#39=COLOUR_RGB('Colour',0.823529411765,0.823529411765,1.) ;
#26=CONSTRUCTIVE_GEOMETRY_REPRESENTATION('supplemental geometry',(#25,#32,#37),#16) ;
#27=CONSTRUCTIVE_GEOMETRY_REPRESENTATION_RELATIONSHIP('supplemental geometry','',#19,#26) ;
#177=CYLINDRICAL_SURFACE('generated cylinder',#176,1.775) ;
#279=CYLINDRICAL_SURFACE('generated cylinder',#278,1.775) ;
#405=CYLINDRICAL_SURFACE('generated cylinder',#404,1.775) ;
#451=CYLINDRICAL_SURFACE('generated cylinder',#450,1.775) ;
#62=EDGE_CURVE('',#59,#61,#57,.T.) ;
#69=EDGE_CURVE('',#59,#68,#66,.T.) ;
#76=EDGE_CURVE('',#68,#75,#73,.T.) ;
#81=EDGE_CURVE('',#61,#75,#80,.T.) ;
#100=EDGE_CURVE('',#68,#99,#97,.T.) ;
#107=EDGE_CURVE('',#99,#106,#104,.T.) ;
#112=EDGE_CURVE('',#75,#106,#111,.T.) ;
#131=EDGE_CURVE('',#99,#130,#128,.T.) ;
#138=EDGE_CURVE('',#130,#137,#135,.T.) ;
#143=EDGE_CURVE('',#106,#137,#142,.T.) ;
#160=EDGE_CURVE('',#130,#59,#159,.T.) ;
#165=EDGE_CURVE('',#137,#61,#164,.T.) ;
#186=EDGE_CURVE('',#183,#185,#181,.F.) ;
#193=EDGE_CURVE('',#183,#192,#190,.T.) ;
#200=EDGE_CURVE('',#192,#199,#197,.F.) ;
#205=EDGE_CURVE('',#185,#199,#204,.T.) ;
#226=EDGE_CURVE('',#223,#225,#221,.T.) ;
#231=EDGE_CURVE('',#223,#183,#230,.F.) ;
#236=EDGE_CURVE('',#225,#185,#235,.F.) ;
#255=EDGE_CURVE('',#192,#254,#252,.F.) ;
#262=EDGE_CURVE('',#254,#261,#259,.T.) ;
#267=EDGE_CURVE('',#199,#261,#266,.F.) ;
#284=EDGE_CURVE('',#254,#223,#283,.T.) ;
#289=EDGE_CURVE('',#261,#225,#288,.T.) ;
#316=EDGE_CURVE('',#313,#315,#311,.F.) ;
#323=EDGE_CURVE('',#315,#322,#320,.T.) ;
#330=EDGE_CURVE('',#322,#329,#327,.F.) ;
#335=EDGE_CURVE('',#329,#313,#334,.T.) ;
#368=EDGE_CURVE('',#365,#367,#363,.T.) ;
#375=EDGE_CURVE('',#374,#365,#372,.F.) ;
#382=EDGE_CURVE('',#381,#374,#379,.T.) ;
#387=EDGE_CURVE('',#367,#381,#386,.F.) ;
#410=EDGE_CURVE('',#381,#315,#409,.F.) ;
#415=EDGE_CURVE('',#374,#322,#414,.F.) ;
#427=EDGE_CURVE('',#367,#313,#426,.T.) ;
#439=EDGE_CURVE('',#365,#329,#438,.T.) ;
#82=EDGE_LOOP('',(#83,#84,#85,#86)) ;
#113=EDGE_LOOP('',(#114,#115,#116,#117)) ;
#144=EDGE_LOOP('',(#145,#146,#147,#148)) ;
#166=EDGE_LOOP('',(#167,#168,#169,#170)) ;
#206=EDGE_LOOP('',(#207,#208,#209,#210)) ;
#237=EDGE_LOOP('',(#238,#239,#240,#241)) ;
#268=EDGE_LOOP('',(#269,#270,#271,#272)) ;
#290=EDGE_LOOP('',(#291,#292,#293,#294)) ;
#302=EDGE_LOOP('',(#303,#304,#305,#306)) ;
#336=EDGE_LOOP('',(#337,#338,#339,#340)) ;
#342=EDGE_LOOP('',(#343,#344,#345,#346)) ;
#354=EDGE_LOOP('',(#355,#356,#357,#358)) ;
#388=EDGE_LOOP('',(#389,#390,#391,#392)) ;
#394=EDGE_LOOP('',(#395,#396,#397,#398)) ;
#416=EDGE_LOOP('',(#417,#418,#419,#420)) ;
#428=EDGE_LOOP('',(#429,#430,#431,#432)) ;
#440=EDGE_LOOP('',(#441,#442,#443,#444)) ;
#452=EDGE_LOOP('',(#453,#454,#455,#456)) ;
#87=FACE_OUTER_BOUND('',#82,.T.) ;
#118=FACE_OUTER_BOUND('',#113,.T.) ;
#149=FACE_OUTER_BOUND('',#144,.T.) ;
#171=FACE_OUTER_BOUND('',#166,.T.) ;
#211=FACE_OUTER_BOUND('',#206,.T.) ;
#242=FACE_OUTER_BOUND('',#237,.T.) ;
#273=FACE_OUTER_BOUND('',#268,.T.) ;
#295=FACE_OUTER_BOUND('',#290,.T.) ;
#307=FACE_OUTER_BOUND('',#302,.T.) ;
#359=FACE_OUTER_BOUND('',#354,.T.) ;
#421=FACE_OUTER_BOUND('',#416,.T.) ;
#433=FACE_OUTER_BOUND('',#428,.T.) ;
#445=FACE_OUTER_BOUND('',#440,.T.) ;
#457=FACE_OUTER_BOUND('',#452,.T.) ;
#57=LINE('Line',#54,#56) ;
#66=LINE('Line',#63,#65) ;
#73=LINE('Line',#70,#72) ;
#80=LINE('Line',#77,#79) ;
#97=LINE('Line',#94,#96) ;
#104=LINE('Line',#101,#103) ;
#111=LINE('Line',#108,#110) ;
#128=LINE('Line',#125,#127) ;
#135=LINE('Line',#132,#134) ;
#142=LINE('Line',#139,#141) ;
#159=LINE('Line',#156,#158) ;
#164=LINE('Line',#161,#163) ;
#181=LINE('Line',#178,#180) ;
#197=LINE('Line',#194,#196) ;
#221=LINE('Line',#218,#220) ;
#230=LINE('Line',#227,#229) ;
#235=LINE('Line',#232,#234) ;
#252=LINE('Line',#249,#251) ;
#259=LINE('Line',#256,#258) ;
#266=LINE('Line',#263,#265) ;
#311=LINE('Line',#308,#310) ;
#327=LINE('Line',#324,#326) ;
#372=LINE('Line',#369,#371) ;
#386=LINE('Line',#383,#385) ;
#409=LINE('Line',#406,#408) ;
#414=LINE('Line',#411,#413) ;
#426=LINE('Line',#423,#425) ;
#438=LINE('Line',#435,#437) ;
#25=PLANE('Referenz_xy',#24) ;
#32=PLANE('Referenz_yz',#31) ;
#37=PLANE('Referenz_zx',#36) ;
#53=PLANE('',#52) ;
#93=PLANE('',#92) ;
#124=PLANE('',#123) ;
#155=PLANE('',#154) ;
#217=PLANE('',#216) ;
#248=PLANE('',#247) ;
#301=PLANE('',#300) ;
#353=PLANE('',#352) ;
#9=PRODUCT_CATEGORY_RELATIONSHIP(' ',' ',#7,#8) ;
#6=PRODUCT_DEFINITION_FORMATION_WITH_SPECIFIED_SOURCE('',' ',#5,.NOT_KNOWN.) ;
#20=SHAPE_DEFINITION_REPRESENTATION(#11,#19) ;
#59=VERTEX_POINT('',#58) ;
#61=VERTEX_POINT('',#60) ;
#68=VERTEX_POINT('',#67) ;
#75=VERTEX_POINT('',#74) ;
#99=VERTEX_POINT('',#98) ;
#106=VERTEX_POINT('',#105) ;
#130=VERTEX_POINT('',#129) ;
#137=VERTEX_POINT('',#136) ;
#183=VERTEX_POINT('',#182) ;
#185=VERTEX_POINT('',#184) ;
#192=VERTEX_POINT('',#191) ;
#199=VERTEX_POINT('',#198) ;
#223=VERTEX_POINT('',#222) ;
#225=VERTEX_POINT('',#224) ;
#254=VERTEX_POINT('',#253) ;
#261=VERTEX_POINT('',#260) ;
#313=VERTEX_POINT('',#312) ;
#315=VERTEX_POINT('',#314) ;
#322=VERTEX_POINT('',#321) ;
#329=VERTEX_POINT('',#328) ;
#365=VERTEX_POINT('',#364) ;
#367=VERTEX_POINT('',#366) ;
#374=VERTEX_POINT('',#373) ;
#381=VERTEX_POINT('',#380) ;
#12=(LENGTH_UNIT()NAMED_UNIT(*)SI_UNIT(.MILLI.,.METRE.)) ;
#13=(NAMED_UNIT(*)PLANE_ANGLE_UNIT()SI_UNIT($,.RADIAN.)) ;
#14=(NAMED_UNIT(*)SI_UNIT($,.STERADIAN.)SOLID_ANGLE_UNIT()) ;
#16=(GEOMETRIC_REPRESENTATION_CONTEXT(3)GLOBAL_UNCERTAINTY_ASSIGNED_CONTEXT((#15))GLOBAL_UNIT_ASSIGNED_CONTEXT((#12,#13,#14))REPRESENTATION_CONTEXT(' ',' ')) ;
ENDSEC;
END-ISO-10303-21;
