ISO-10303-21;
HEADER;
FILE_DESCRIPTION(('CATIA V5 STEP Exchange','CAx-IF Rec.Pracs.--- Model Styling and Organization---1.5--- 2016-08-15','CAx-IF Rec.Pracs.---Supplemental Geometry---1.0---2011-11-01','CAx-IF Rec.Pracs.--- Composite Materials ---1.1---2010-07-15'),'2;1');

FILE_NAME ('706720-2_4_2652350000_2652350000.stp','2024-06-12T07:40:44+00:00',('none'),('Weidmueller'),'CATIA Version 5-6 Release 2022 SP4 HF5','CATIA V5 STEP AP214 v3','none');

FILE_SCHEMA(('AUTOMOTIVE_DESIGN { 1 0 10303 214 1 1 1 1 }'));

ENDSEC;
DATA;
#5=PRODUCT('CABTITE BP 7MM PA','CABTITE BP 7MM PA',' ',(#2)) ;
#2=PRODUCT_CONTEXT(' ',#1,'mechanical') ;
#1=APPLICATION_CONTEXT('automotive design') ;
#10=PRODUCT_DEFINITION(' ',' ',#6,#3) ;
#3=PRODUCT_DEFINITION_CONTEXT('part definition',#1,' ') ;
#11=PRODUCT_DEFINITION_SHAPE(' ',' ',#10) ;
#453=MECHANICAL_DESIGN_GEOMETRIC_PRESENTATION_REPRESENTATION(' ',(#87,#113,#178,#202,#219,#231,#238,#270,#283,#315,#328,#399,#431,#444,#450,#29),#16) ;
#19=SHAPE_REPRESENTATION(' ',(#18),#16) ;
#18=AXIS2_PLACEMENT_3D(' ',#17,$,$) ;
#35=AXIS2_PLACEMENT_3D('Cylinder Axis2P3D',#32,#33,#34) ;
#48=AXIS2_PLACEMENT_3D('Circle Axis2P3D',#46,#47,$) ;
#62=AXIS2_PLACEMENT_3D('Circle Axis2P3D',#60,#61,$) ;
#69=AXIS2_PLACEMENT_3D('Circle Axis2P3D',#67,#68,$) ;
#90=AXIS2_PLACEMENT_3D('Circle Axis2P3D',#88,#89,$) ;
#95=AXIS2_PLACEMENT_3D('Circle Axis2P3D',#93,#94,$) ;
#102=AXIS2_PLACEMENT_3D('Circle Axis2P3D',#100,#101,$) ;
#117=AXIS2_PLACEMENT_3D('Plane Axis2P3D',#114,#115,#116) ;
#182=AXIS2_PLACEMENT_3D('Sphere Axis2P3D',#179,#180,#181) ;
#186=AXIS2_PLACEMENT_3D('Circle Axis2P3D',#184,#185,$) ;
#193=AXIS2_PLACEMENT_3D('Circle Axis2P3D',#191,#192,$) ;
#206=AXIS2_PLACEMENT_3D('Sphere Axis2P3D',#203,#204,#205) ;
#210=AXIS2_PLACEMENT_3D('Circle Axis2P3D',#208,#209,$) ;
#222=AXIS2_PLACEMENT_3D('Circle Axis2P3D',#220,#221,$) ;
#242=AXIS2_PLACEMENT_3D('Cylinder Axis2P3D',#239,#240,#241) ;
#253=AXIS2_PLACEMENT_3D('Circle Axis2P3D',#251,#252,$) ;
#273=AXIS2_PLACEMENT_3D('Circle Axis2P3D',#271,#272,$) ;
#287=AXIS2_PLACEMENT_3D('Cone Axis2P3D',#284,#285,#286) ;
#305=AXIS2_PLACEMENT_3D('Circle Axis2P3D',#303,#304,$) ;
#318=AXIS2_PLACEMENT_3D('Circle Axis2P3D',#316,#317,$) ;
#332=AXIS2_PLACEMENT_3D('Plane Axis2P3D',#329,#330,#331) ;
#403=AXIS2_PLACEMENT_3D('Cylinder Axis2P3D',#400,#401,#402) ;
#407=AXIS2_PLACEMENT_3D('Circle Axis2P3D',#405,#406,$) ;
#434=AXIS2_PLACEMENT_3D('Circle Axis2P3D',#432,#433,$) ;
#17=CARTESIAN_POINT(' ',(0.,0.,0.)) ;
#32=CARTESIAN_POINT('Axis2P3D Location',(4.4,4.4,16.5)) ;
#37=CARTESIAN_POINT('Line Origine',(8.8,4.4,16.5)) ;
#41=CARTESIAN_POINT('Vertex',(8.8,4.4,17.)) ;
#43=CARTESIAN_POINT('Vertex',(8.8,4.4,16.5)) ;
#46=CARTESIAN_POINT('Axis2P3D Location',(4.4,4.4,16.5)) ;
#50=CARTESIAN_POINT('Vertex',(0.,4.4,16.5)) ;
#53=CARTESIAN_POINT('Line Origine',(0.,4.4,16.5)) ;
#57=CARTESIAN_POINT('Vertex',(0.,4.4,17.)) ;
#60=CARTESIAN_POINT('Axis2P3D Location',(4.4,4.4,17.)) ;
#64=CARTESIAN_POINT('Vertex',(4.4,8.8,17.)) ;
#67=CARTESIAN_POINT('Axis2P3D Location',(4.4,4.4,17.)) ;
#88=CARTESIAN_POINT('Axis2P3D Location',(4.4,4.4,16.5)) ;
#93=CARTESIAN_POINT('Axis2P3D Location',(4.4,4.4,17.)) ;
#97=CARTESIAN_POINT('Vertex',(4.4,0.,17.)) ;
#100=CARTESIAN_POINT('Axis2P3D Location',(4.4,4.4,17.)) ;
#114=CARTESIAN_POINT('Axis2P3D Location',(4.4,0.,16.5)) ;
#124=CARTESIAN_POINT('Control Point',(7.9,4.40000000037,16.5)) ;
#125=CARTESIAN_POINT('Control Point',(7.9,4.03342662159,16.5)) ;
#126=CARTESIAN_POINT('Control Point',(7.85200855342,3.66685408932,16.5)) ;
#127=CARTESIAN_POINT('Control Point',(7.75597400245,3.30852990826,16.5)) ;
#128=CARTESIAN_POINT('Control Point',(7.4724439874,2.62564624851,16.5)) ;
#129=CARTESIAN_POINT('Control Point',(7.02267958833,2.03876774639,16.5)) ;
#130=CARTESIAN_POINT('Control Point',(6.76031862859,1.77649767586,16.5)) ;
#131=CARTESIAN_POINT('Control Point',(6.17328032323,1.32693635232,16.5)) ;
#132=CARTESIAN_POINT('Control Point',(5.49030073766,1.04364628152,16.5)) ;
#133=CARTESIAN_POINT('Control Point',(5.13194328579,0.947735888149,16.5)) ;
#134=CARTESIAN_POINT('Control Point',(4.39876139932,0.852008772136,16.5)) ;
#135=CARTESIAN_POINT('Control Point',(3.66564988015,0.948247418438,16.5)) ;
#136=CARTESIAN_POINT('Control Point',(3.30735921209,1.04440697085,16.5)) ;
#137=CARTESIAN_POINT('Control Point',(2.62457450307,1.32817520109,16.5)) ;
#138=CARTESIAN_POINT('Control Point',(2.03785294787,1.77814430585,16.5)) ;
#139=CARTESIAN_POINT('Control Point',(1.77567442248,2.04059674195,16.5)) ;
#140=CARTESIAN_POINT('Control Point',(1.32661685911,2.62740120261,16.5)) ;
#141=CARTESIAN_POINT('Control Point',(1.04364281625,3.30996139,16.5)) ;
#142=CARTESIAN_POINT('Control Point',(0.947863819581,3.66782934579,16.5)) ;
#143=CARTESIAN_POINT('Control Point',(0.9,4.03391437317,16.5)) ;
#144=CARTESIAN_POINT('Control Point',(0.9,4.40000000037,16.5)) ;
#145=CARTESIAN_POINT('Vertex',(7.9,4.4,16.5)) ;
#147=CARTESIAN_POINT('Vertex',(0.9,4.40000000037,16.5)) ;
#151=CARTESIAN_POINT('Control Point',(0.9,4.40000000037,16.5)) ;
#152=CARTESIAN_POINT('Control Point',(0.9,4.76657337887,16.5)) ;
#153=CARTESIAN_POINT('Control Point',(0.947991446498,5.13314591085,16.5)) ;
#154=CARTESIAN_POINT('Control Point',(1.04402599749,5.49147009131,16.5)) ;
#155=CARTESIAN_POINT('Control Point',(1.32755601443,6.17435375458,16.5)) ;
#156=CARTESIAN_POINT('Control Point',(1.77732041713,6.76123225912,16.5)) ;
#157=CARTESIAN_POINT('Control Point',(2.03968136947,7.02350232264,16.5)) ;
#158=CARTESIAN_POINT('Control Point',(2.62671968149,7.47306365098,16.5)) ;
#159=CARTESIAN_POINT('Control Point',(3.30969927547,7.7563537228,16.5)) ;
#160=CARTESIAN_POINT('Control Point',(3.66805671773,7.85226411239,16.5)) ;
#161=CARTESIAN_POINT('Control Point',(4.4012386099,7.94799122744,16.5)) ;
#162=CARTESIAN_POINT('Control Point',(5.13435013406,7.85175257741,16.5)) ;
#163=CARTESIAN_POINT('Control Point',(5.4926407994,7.75559302658,16.5)) ;
#164=CARTESIAN_POINT('Control Point',(6.17542550941,7.47182479286,16.5)) ;
#165=CARTESIAN_POINT('Control Point',(6.76214706433,7.02185568402,16.5)) ;
#166=CARTESIAN_POINT('Control Point',(7.02432558689,6.7594032466,16.5)) ;
#167=CARTESIAN_POINT('Control Point',(7.47338314659,6.17259878573,16.5)) ;
#168=CARTESIAN_POINT('Control Point',(7.7563571863,5.49003859939,16.5)) ;
#169=CARTESIAN_POINT('Control Point',(7.85213618111,5.13217064966,16.5)) ;
#170=CARTESIAN_POINT('Control Point',(7.9,4.76608562493,16.5)) ;
#171=CARTESIAN_POINT('Control Point',(7.9,4.40000000037,16.5)) ;
#179=CARTESIAN_POINT('Axis2P3D Location',(4.4,4.4,-2.11)) ;
#184=CARTESIAN_POINT('Axis2P3D Location',(4.4,4.4,-2.11)) ;
#188=CARTESIAN_POINT('Vertex',(4.4,4.4,17.5)) ;
#191=CARTESIAN_POINT('Axis2P3D Location',(4.4,4.4,-2.11)) ;
#203=CARTESIAN_POINT('Axis2P3D Location',(4.4,4.4,-2.11)) ;
#208=CARTESIAN_POINT('Axis2P3D Location',(4.4,4.4,-2.11)) ;
#220=CARTESIAN_POINT('Axis2P3D Location',(4.4,4.4,-2.11)) ;
#239=CARTESIAN_POINT('Axis2P3D Location',(4.4,4.4,16.5)) ;
#244=CARTESIAN_POINT('Line Origine',(0.9,4.4,16.5)) ;
#248=CARTESIAN_POINT('Vertex',(0.9,4.4,2.)) ;
#251=CARTESIAN_POINT('Axis2P3D Location',(4.4,4.4,2.)) ;
#255=CARTESIAN_POINT('Vertex',(7.9,4.4,2.)) ;
#258=CARTESIAN_POINT('Line Origine',(7.9,4.4,16.5)) ;
#271=CARTESIAN_POINT('Axis2P3D Location',(4.4,4.4,2.)) ;
#284=CARTESIAN_POINT('Axis2P3D Location',(4.4,4.4,0.)) ;
#289=CARTESIAN_POINT('Line Origine',(980586.624583,4.39999999976,4902895.62868)) ;
#293=CARTESIAN_POINT('Vertex',(7.5,4.4,1.74186118993E-15)) ;
#296=CARTESIAN_POINT('Line Origine',(-980577.824583,4.40000000012,4902895.62868)) ;
#300=CARTESIAN_POINT('Vertex',(1.30000000003,4.4,-1.25929596587E-10)) ;
#303=CARTESIAN_POINT('Axis2P3D Location',(4.4,4.4,1.74186118993E-15)) ;
#316=CARTESIAN_POINT('Axis2P3D Location',(4.4,4.4,1.74186118993E-15)) ;
#329=CARTESIAN_POINT('Axis2P3D Location',(4.4,0.9,0.)) ;
#339=CARTESIAN_POINT('Control Point',(2.4,4.4,0.)) ;
#340=CARTESIAN_POINT('Control Point',(2.4,4.60783237943,0.)) ;
#341=CARTESIAN_POINT('Control Point',(2.42699643906,4.81566392555,0.)) ;
#342=CARTESIAN_POINT('Control Point',(2.4810173085,5.01889123564,0.)) ;
#343=CARTESIAN_POINT('Control Point',(2.6405496964,5.40650344801,0.)) ;
#344=CARTESIAN_POINT('Control Point',(2.89381301587,5.74049256467,0.)) ;
#345=CARTESIAN_POINT('Control Point',(3.04161588364,5.89007165124,0.)) ;
#346=CARTESIAN_POINT('Control Point',(3.37255978807,6.14730683451,0.)) ;
#347=CARTESIAN_POINT('Control Point',(3.75823647836,6.31145471548,0.)) ;
#348=CARTESIAN_POINT('Control Point',(3.9608040055,6.36789934071,0.)) ;
#349=CARTESIAN_POINT('Control Point',(4.37579605169,6.42685192767,0.)) ;
#350=CARTESIAN_POINT('Control Point',(4.7920742452,6.37782641748,0.)) ;
#351=CARTESIAN_POINT('Control Point',(4.99593214276,6.32623617771,0.)) ;
#352=CARTESIAN_POINT('Control Point',(5.38542173076,6.17134372106,0.)) ;
#353=CARTESIAN_POINT('Control Point',(5.72241130511,5.92208668866,0.)) ;
#354=CARTESIAN_POINT('Control Point',(5.87374466809,5.77608051561,0.)) ;
#355=CARTESIAN_POINT('Control Point',(6.13491362297,5.44823160012,0.)) ;
#356=CARTESIAN_POINT('Control Point',(6.30365531439,5.06454212216,0.)) ;
#357=CARTESIAN_POINT('Control Point',(6.36251451509,4.8626632284,0.)) ;
#358=CARTESIAN_POINT('Control Point',(6.39593516538,4.64601377991,0.)) ;
#359=CARTESIAN_POINT('Control Point',(6.39982888011,4.42865915241,0.)) ;
#360=CARTESIAN_POINT('Control Point',(6.39994296411,4.41910574318,0.)) ;
#361=CARTESIAN_POINT('Control Point',(6.4,4.40955287159,0.)) ;
#362=CARTESIAN_POINT('Control Point',(6.4,4.4,0.)) ;
#363=CARTESIAN_POINT('Vertex',(2.4,4.4,3.72523345504E-10)) ;
#365=CARTESIAN_POINT('Vertex',(6.4,4.4,0.)) ;
#369=CARTESIAN_POINT('Control Point',(6.4,4.4,0.)) ;
#370=CARTESIAN_POINT('Control Point',(6.4,4.19216762057,0.)) ;
#371=CARTESIAN_POINT('Control Point',(6.37300356094,3.98433607444,0.)) ;
#372=CARTESIAN_POINT('Control Point',(6.31898269151,3.78110876437,0.)) ;
#373=CARTESIAN_POINT('Control Point',(6.15945030361,3.39349655201,0.)) ;
#374=CARTESIAN_POINT('Control Point',(5.90618698415,3.05950743535,0.)) ;
#375=CARTESIAN_POINT('Control Point',(5.75838411634,2.90992834875,0.)) ;
#376=CARTESIAN_POINT('Control Point',(5.42744021193,2.6526931655,0.)) ;
#377=CARTESIAN_POINT('Control Point',(5.04176352167,2.48854528452,0.)) ;
#378=CARTESIAN_POINT('Control Point',(4.83919599446,2.43210065929,0.)) ;
#379=CARTESIAN_POINT('Control Point',(4.4242039483,2.37314807233,0.)) ;
#380=CARTESIAN_POINT('Control Point',(4.00792575481,2.42217358252,0.)) ;
#381=CARTESIAN_POINT('Control Point',(3.80406785722,2.4737638223,0.)) ;
#382=CARTESIAN_POINT('Control Point',(3.41457826925,2.62865627894,0.)) ;
#383=CARTESIAN_POINT('Control Point',(3.0775886949,2.87791331133,0.)) ;
#384=CARTESIAN_POINT('Control Point',(2.92625533191,3.0239194844,0.)) ;
#385=CARTESIAN_POINT('Control Point',(2.66508637711,3.35176839977,0.)) ;
#386=CARTESIAN_POINT('Control Point',(2.49634468575,3.73545787758,0.)) ;
#387=CARTESIAN_POINT('Control Point',(2.4374854847,3.93733677196,0.)) ;
#388=CARTESIAN_POINT('Control Point',(2.40406483461,4.15398622021,0.)) ;
#389=CARTESIAN_POINT('Control Point',(2.4001711199,4.37134084756,0.)) ;
#390=CARTESIAN_POINT('Control Point',(2.40005703589,4.38089425684,0.)) ;
#391=CARTESIAN_POINT('Control Point',(2.4,4.39044712842,0.)) ;
#392=CARTESIAN_POINT('Control Point',(2.4,4.4,0.)) ;
#400=CARTESIAN_POINT('Axis2P3D Location',(4.4,4.4,163.35)) ;
#405=CARTESIAN_POINT('Axis2P3D Location',(4.4,4.4,16.5000000004)) ;
#409=CARTESIAN_POINT('Vertex',(6.4,4.40000000037,16.5000000004)) ;
#411=CARTESIAN_POINT('Vertex',(2.4,4.4,16.5000000004)) ;
#414=CARTESIAN_POINT('Line Origine',(2.4,4.4,163.35)) ;
#419=CARTESIAN_POINT('Line Origine',(6.4,4.4,163.35)) ;
#432=CARTESIAN_POINT('Axis2P3D Location',(4.4,4.4,16.5000000004)) ;
#33=DIRECTION('Axis2P3D Direction',(0.,0.,-1.)) ;
#34=DIRECTION('Axis2P3D XDirection',(-1.,-4.037174635E-16,0.)) ;
#38=DIRECTION('Vector Direction',(0.,0.,-1.)) ;
#47=DIRECTION('Axis2P3D Direction',(0.,0.,-1.)) ;
#54=DIRECTION('Vector Direction',(0.,0.,-1.)) ;
#61=DIRECTION('Axis2P3D Direction',(0.,0.,-1.)) ;
#68=DIRECTION('Axis2P3D Direction',(0.,0.,-1.)) ;
#89=DIRECTION('Axis2P3D Direction',(0.,0.,-1.)) ;
#94=DIRECTION('Axis2P3D Direction',(0.,0.,-1.)) ;
#101=DIRECTION('Axis2P3D Direction',(0.,0.,-1.)) ;
#115=DIRECTION('Axis2P3D Direction',(0.,0.,1.)) ;
#116=DIRECTION('Axis2P3D XDirection',(1.,0.,0.)) ;
#180=DIRECTION('Axis2P3D Direction',(-0.,0.,-1.)) ;
#181=DIRECTION('Axis2P3D XDirection',(-1.,-4.07629055446E-16,0.)) ;
#185=DIRECTION('Axis2P3D Direction',(4.07629055446E-16,-1.,0.)) ;
#192=DIRECTION('Axis2P3D Direction',(-1.,-4.68861395403E-16,-0.)) ;
#204=DIRECTION('Axis2P3D Direction',(0.,0.,-1.)) ;
#205=DIRECTION('Axis2P3D XDirection',(1.,2.71752703631E-16,0.)) ;
#209=DIRECTION('Axis2P3D Direction',(-2.71752703631E-16,1.,0.)) ;
#221=DIRECTION('Axis2P3D Direction',(1.,3.32985043588E-16,0.)) ;
#240=DIRECTION('Axis2P3D Direction',(0.,0.,-1.)) ;
#241=DIRECTION('Axis2P3D XDirection',(-1.,-2.64687485605E-28,-0.)) ;
#245=DIRECTION('Vector Direction',(0.,0.,-1.)) ;
#252=DIRECTION('Axis2P3D Direction',(0.,0.,-1.)) ;
#259=DIRECTION('Vector Direction',(0.,0.,-1.)) ;
#272=DIRECTION('Axis2P3D Direction',(0.,0.,-1.)) ;
#285=DIRECTION('Axis2P3D Direction',(0.,0.,1.)) ;
#286=DIRECTION('Axis2P3D XDirection',(1.,0.,0.)) ;
#290=DIRECTION('Vector Direction',(0.196116134917,-4.80345670019E-17,0.980580675735)) ;
#297=DIRECTION('Vector Direction',(-0.196116134917,2.40172835009E-17,0.980580675735)) ;
#304=DIRECTION('Axis2P3D Direction',(0.,0.,1.)) ;
#317=DIRECTION('Axis2P3D Direction',(0.,0.,1.)) ;
#330=DIRECTION('Axis2P3D Direction',(0.,0.,1.)) ;
#331=DIRECTION('Axis2P3D XDirection',(1.,0.,0.)) ;
#401=DIRECTION('Axis2P3D Direction',(0.,0.,-1.)) ;
#402=DIRECTION('Axis2P3D XDirection',(-1.,0.,0.)) ;
#406=DIRECTION('Axis2P3D Direction',(0.,0.,-1.)) ;
#415=DIRECTION('Vector Direction',(0.,0.,-1.)) ;
#420=DIRECTION('Vector Direction',(0.,0.,-1.)) ;
#433=DIRECTION('Axis2P3D Direction',(0.,0.,-1.)) ;
#30=PRESENTATION_LAYER_ASSIGNMENT('1',' ',(#21)) ;
#8=PRODUCT_RELATED_PRODUCT_CATEGORY('part',$,(#5)) ;
#7=PRODUCT_CATEGORY('part','specification') ;
#29=STYLED_ITEM(' ',(#28),#21) ;
#28=PRESENTATION_STYLE_ASSIGNMENT((#27)) ;
#86=PRESENTATION_STYLE_ASSIGNMENT((#85)) ;
#27=SURFACE_STYLE_USAGE(.BOTH.,#26) ;
#85=SURFACE_STYLE_USAGE(.BOTH.,#84) ;
#26=SURFACE_SIDE_STYLE(' ',(#25)) ;
#84=SURFACE_SIDE_STYLE(' ',(#83)) ;
#25=SURFACE_STYLE_FILL_AREA(#24) ;
#83=SURFACE_STYLE_FILL_AREA(#82) ;
#24=FILL_AREA_STYLE(' ',(#23)) ;
#82=FILL_AREA_STYLE(' ',(#81)) ;
#23=FILL_AREA_STYLE_COLOUR(' ',#22) ;
#81=FILL_AREA_STYLE_COLOUR(' ',#80) ;
#39=VECTOR('Line Direction',#38,1.) ;
#55=VECTOR('Line Direction',#54,1.) ;
#246=VECTOR('Line Direction',#245,1.) ;
#260=VECTOR('Line Direction',#259,1.) ;
#291=VECTOR('Line Direction',#290,1.) ;
#298=VECTOR('Line Direction',#297,1.) ;
#416=VECTOR('Line Direction',#415,1.) ;
#421=VECTOR('Line Direction',#420,1.) ;
#15=UNCERTAINTY_MEASURE_WITH_UNIT(LENGTH_MEASURE(0.005),#12,'distance_accuracy_value','CONFUSED CURVE UNCERTAINTY') ;
#452=SHAPE_REPRESENTATION_RELATIONSHIP(' ',' ',#19,#451) ;
#73=ORIENTED_EDGE('',*,*,#45,.T.) ;
#74=ORIENTED_EDGE('',*,*,#52,.F.) ;
#75=ORIENTED_EDGE('',*,*,#59,.T.) ;
#76=ORIENTED_EDGE('',*,*,#66,.T.) ;
#77=ORIENTED_EDGE('',*,*,#71,.T.) ;
#106=ORIENTED_EDGE('',*,*,#59,.F.) ;
#107=ORIENTED_EDGE('',*,*,#92,.F.) ;
#108=ORIENTED_EDGE('',*,*,#45,.F.) ;
#109=ORIENTED_EDGE('',*,*,#99,.T.) ;
#110=ORIENTED_EDGE('',*,*,#104,.T.) ;
#120=ORIENTED_EDGE('',*,*,#52,.T.) ;
#121=ORIENTED_EDGE('',*,*,#92,.T.) ;
#174=ORIENTED_EDGE('',*,*,#149,.F.) ;
#175=ORIENTED_EDGE('',*,*,#172,.F.) ;
#197=ORIENTED_EDGE('',*,*,#190,.F.) ;
#198=ORIENTED_EDGE('',*,*,#195,.T.) ;
#199=ORIENTED_EDGE('',*,*,#66,.F.) ;
#214=ORIENTED_EDGE('',*,*,#212,.T.) ;
#215=ORIENTED_EDGE('',*,*,#71,.F.) ;
#216=ORIENTED_EDGE('',*,*,#195,.F.) ;
#226=ORIENTED_EDGE('',*,*,#212,.F.) ;
#227=ORIENTED_EDGE('',*,*,#224,.T.) ;
#228=ORIENTED_EDGE('',*,*,#99,.F.) ;
#233=ORIENTED_EDGE('',*,*,#190,.T.) ;
#234=ORIENTED_EDGE('',*,*,#104,.F.) ;
#235=ORIENTED_EDGE('',*,*,#224,.F.) ;
#264=ORIENTED_EDGE('',*,*,#250,.F.) ;
#265=ORIENTED_EDGE('',*,*,#257,.T.) ;
#266=ORIENTED_EDGE('',*,*,#262,.F.) ;
#267=ORIENTED_EDGE('',*,*,#149,.T.) ;
#277=ORIENTED_EDGE('',*,*,#262,.T.) ;
#278=ORIENTED_EDGE('',*,*,#275,.T.) ;
#279=ORIENTED_EDGE('',*,*,#250,.T.) ;
#280=ORIENTED_EDGE('',*,*,#172,.T.) ;
#309=ORIENTED_EDGE('',*,*,#295,.F.) ;
#310=ORIENTED_EDGE('',*,*,#257,.F.) ;
#311=ORIENTED_EDGE('',*,*,#302,.F.) ;
#312=ORIENTED_EDGE('',*,*,#307,.F.) ;
#322=ORIENTED_EDGE('',*,*,#302,.T.) ;
#323=ORIENTED_EDGE('',*,*,#275,.F.) ;
#324=ORIENTED_EDGE('',*,*,#295,.T.) ;
#325=ORIENTED_EDGE('',*,*,#320,.F.) ;
#335=ORIENTED_EDGE('',*,*,#307,.T.) ;
#336=ORIENTED_EDGE('',*,*,#320,.T.) ;
#395=ORIENTED_EDGE('',*,*,#367,.F.) ;
#396=ORIENTED_EDGE('',*,*,#393,.F.) ;
#425=ORIENTED_EDGE('',*,*,#413,.T.) ;
#426=ORIENTED_EDGE('',*,*,#418,.F.) ;
#427=ORIENTED_EDGE('',*,*,#367,.T.) ;
#428=ORIENTED_EDGE('',*,*,#423,.F.) ;
#438=ORIENTED_EDGE('',*,*,#436,.T.) ;
#439=ORIENTED_EDGE('',*,*,#423,.T.) ;
#440=ORIENTED_EDGE('',*,*,#393,.T.) ;
#441=ORIENTED_EDGE('',*,*,#418,.T.) ;
#446=ORIENTED_EDGE('',*,*,#436,.F.) ;
#447=ORIENTED_EDGE('',*,*,#413,.F.) ;
#176=FACE_BOUND('',#173,.T.) ;
#397=FACE_BOUND('',#394,.T.) ;
#31=CLOSED_SHELL('Closed Shell',(#79,#112,#177,#201,#218,#230,#237,#269,#282,#314,#327,#398,#430,#443,#449)) ;
#451=ADVANCED_BREP_SHAPE_REPRESENTATION('NONE',(#21),#16) ;
#79=ADVANCED_FACE('CABTITE BP 7MM PA',(#78),#36,.T.) ;
#112=ADVANCED_FACE('CABTITE BP 7MM PA',(#111),#36,.T.) ;
#177=ADVANCED_FACE('CABTITE BP 7MM PA',(#122,#176),#118,.F.) ;
#201=ADVANCED_FACE('CABTITE BP 7MM PA',(#200),#183,.T.) ;
#218=ADVANCED_FACE('CABTITE BP 7MM PA',(#217),#207,.T.) ;
#230=ADVANCED_FACE('CABTITE BP 7MM PA',(#229),#207,.T.) ;
#237=ADVANCED_FACE('CABTITE BP 7MM PA',(#236),#207,.T.) ;
#269=ADVANCED_FACE('CABTITE BP 7MM PA',(#268),#243,.T.) ;
#282=ADVANCED_FACE('CABTITE BP 7MM PA',(#281),#243,.T.) ;
#314=ADVANCED_FACE('CABTITE BP 7MM PA',(#313),#288,.T.) ;
#327=ADVANCED_FACE('CABTITE BP 7MM PA',(#326),#288,.T.) ;
#398=ADVANCED_FACE('CABTITE BP 7MM PA',(#337,#397),#333,.F.) ;
#430=ADVANCED_FACE('CABTITE BP 7MM PA',(#429),#404,.F.) ;
#443=ADVANCED_FACE('CABTITE BP 7MM PA',(#442),#404,.F.) ;
#449=ADVANCED_FACE('CABTITE BP 7MM PA',(#448),#118,.F.) ;
#4=APPLICATION_PROTOCOL_DEFINITION('international standard','automotive_design',2001,#1) ;
#123=B_SPLINE_CURVE_WITH_KNOTS('',5,(#124,#125,#126,#127,#128,#129,#130,#131,#132,#133,#134,#135,#136,#137,#138,#139,#140,#141,#142,#143,#144),.UNSPECIFIED.,.F.,.U.,(6,3,3,3,3,3,6),(0.,2.59956644037,5.19913284781,7.79869924437,10.398265656,12.9978320748,15.5939396097),.UNSPECIFIED.) ;
#150=B_SPLINE_CURVE_WITH_KNOTS('',5,(#151,#152,#153,#154,#155,#156,#157,#158,#159,#160,#161,#162,#163,#164,#165,#166,#167,#168,#169,#170,#171),.UNSPECIFIED.,.F.,.U.,(6,3,3,3,3,3,6),(0.,2.5995664321,5.19913286342,7.79869928033,10.3982656971,12.997832114,15.5939396239),.UNSPECIFIED.) ;
#338=B_SPLINE_CURVE_WITH_KNOTS('',5,(#339,#340,#341,#342,#343,#344,#345,#346,#347,#348,#349,#350,#351,#352,#353,#354,#355,#356,#357,#358,#359,#360,#361,#362),.UNSPECIFIED.,.F.,.U.,(6,3,3,3,3,3,3,6),(0.,1.47375275516,2.94750552539,4.42125825826,5.89501101713,7.36876380237,8.84251926166,8.91025928785),.UNSPECIFIED.) ;
#368=B_SPLINE_CURVE_WITH_KNOTS('',5,(#369,#370,#371,#372,#373,#374,#375,#376,#377,#378,#379,#380,#381,#382,#383,#384,#385,#386,#387,#388,#389,#390,#391,#392),.UNSPECIFIED.,.F.,.U.,(6,3,3,3,3,3,3,6),(0.,1.47375275521,2.94750552535,4.42125825809,5.89501101691,7.36876380211,8.84251926039,8.91025928649),.UNSPECIFIED.) ;
#21=MANIFOLD_SOLID_BREP('CABTITE BP 7MM PA',#31) ;
#49=CIRCLE('generated circle',#48,4.4) ;
#63=CIRCLE('generated circle',#62,4.4) ;
#70=CIRCLE('generated circle',#69,4.4) ;
#91=CIRCLE('generated circle',#90,4.4) ;
#96=CIRCLE('generated circle',#95,4.4) ;
#103=CIRCLE('generated circle',#102,4.4) ;
#187=CIRCLE('generated circle',#186,19.61) ;
#194=CIRCLE('generated circle',#193,19.61) ;
#211=CIRCLE('generated circle',#210,19.61) ;
#223=CIRCLE('generated circle',#222,19.61) ;
#254=CIRCLE('generated circle',#253,3.5) ;
#274=CIRCLE('generated circle',#273,3.5) ;
#306=CIRCLE('generated circle',#305,3.1) ;
#319=CIRCLE('generated circle',#318,3.1) ;
#408=CIRCLE('generated circle',#407,2.) ;
#435=CIRCLE('generated circle',#434,2.) ;
#22=COLOUR_RGB('Colour',0.823529411765,0.823529411765,1.) ;
#80=COLOUR_RGB('Colour',0.964705882353,0.937254901961,0.894117647059) ;
#288=CONICAL_SURFACE('Cone',#287,3.1,0.197395559624) ;
#87=OVER_RIDING_STYLED_ITEM(' ',(#86),#79,#29) ;
#113=OVER_RIDING_STYLED_ITEM(' ',(#86),#112,#29) ;
#178=OVER_RIDING_STYLED_ITEM(' ',(#86),#177,#29) ;
#202=OVER_RIDING_STYLED_ITEM(' ',(#86),#201,#29) ;
#219=OVER_RIDING_STYLED_ITEM(' ',(#86),#218,#29) ;
#231=OVER_RIDING_STYLED_ITEM(' ',(#86),#230,#29) ;
#238=OVER_RIDING_STYLED_ITEM(' ',(#86),#237,#29) ;
#270=OVER_RIDING_STYLED_ITEM(' ',(#86),#269,#29) ;
#283=OVER_RIDING_STYLED_ITEM(' ',(#86),#282,#29) ;
#315=OVER_RIDING_STYLED_ITEM(' ',(#86),#314,#29) ;
#328=OVER_RIDING_STYLED_ITEM(' ',(#86),#327,#29) ;
#399=OVER_RIDING_STYLED_ITEM(' ',(#86),#398,#29) ;
#431=OVER_RIDING_STYLED_ITEM(' ',(#86),#430,#29) ;
#444=OVER_RIDING_STYLED_ITEM(' ',(#86),#443,#29) ;
#450=OVER_RIDING_STYLED_ITEM(' ',(#86),#449,#29) ;
#36=CYLINDRICAL_SURFACE('generated cylinder',#35,4.4) ;
#243=CYLINDRICAL_SURFACE('generated cylinder',#242,3.5) ;
#404=CYLINDRICAL_SURFACE('generated cylinder',#403,2.) ;
#45=EDGE_CURVE('',#42,#44,#40,.T.) ;
#52=EDGE_CURVE('',#51,#44,#49,.T.) ;
#59=EDGE_CURVE('',#51,#58,#56,.F.) ;
#66=EDGE_CURVE('',#58,#65,#63,.T.) ;
#71=EDGE_CURVE('',#65,#42,#70,.T.) ;
#92=EDGE_CURVE('',#44,#51,#91,.T.) ;
#99=EDGE_CURVE('',#42,#98,#96,.T.) ;
#104=EDGE_CURVE('',#98,#58,#103,.T.) ;
#149=EDGE_CURVE('',#146,#148,#123,.T.) ;
#172=EDGE_CURVE('',#148,#146,#150,.T.) ;
#190=EDGE_CURVE('',#189,#58,#187,.T.) ;
#195=EDGE_CURVE('',#189,#65,#194,.T.) ;
#212=EDGE_CURVE('',#189,#42,#211,.T.) ;
#224=EDGE_CURVE('',#189,#98,#223,.T.) ;
#250=EDGE_CURVE('',#249,#148,#247,.F.) ;
#257=EDGE_CURVE('',#249,#256,#254,.F.) ;
#262=EDGE_CURVE('',#146,#256,#261,.T.) ;
#275=EDGE_CURVE('',#256,#249,#274,.F.) ;
#295=EDGE_CURVE('',#256,#294,#292,.F.) ;
#302=EDGE_CURVE('',#301,#249,#299,.T.) ;
#307=EDGE_CURVE('',#294,#301,#306,.F.) ;
#320=EDGE_CURVE('',#301,#294,#319,.F.) ;
#367=EDGE_CURVE('',#364,#366,#338,.T.) ;
#393=EDGE_CURVE('',#366,#364,#368,.T.) ;
#413=EDGE_CURVE('',#410,#412,#408,.F.) ;
#418=EDGE_CURVE('',#364,#412,#417,.F.) ;
#423=EDGE_CURVE('',#410,#366,#422,.T.) ;
#436=EDGE_CURVE('',#412,#410,#435,.F.) ;
#72=EDGE_LOOP('',(#73,#74,#75,#76,#77)) ;
#105=EDGE_LOOP('',(#106,#107,#108,#109,#110)) ;
#119=EDGE_LOOP('',(#120,#121)) ;
#173=EDGE_LOOP('',(#174,#175)) ;
#196=EDGE_LOOP('',(#197,#198,#199)) ;
#213=EDGE_LOOP('',(#214,#215,#216)) ;
#225=EDGE_LOOP('',(#226,#227,#228)) ;
#232=EDGE_LOOP('',(#233,#234,#235)) ;
#263=EDGE_LOOP('',(#264,#265,#266,#267)) ;
#276=EDGE_LOOP('',(#277,#278,#279,#280)) ;
#308=EDGE_LOOP('',(#309,#310,#311,#312)) ;
#321=EDGE_LOOP('',(#322,#323,#324,#325)) ;
#334=EDGE_LOOP('',(#335,#336)) ;
#394=EDGE_LOOP('',(#395,#396)) ;
#424=EDGE_LOOP('',(#425,#426,#427,#428)) ;
#437=EDGE_LOOP('',(#438,#439,#440,#441)) ;
#445=EDGE_LOOP('',(#446,#447)) ;
#78=FACE_OUTER_BOUND('',#72,.T.) ;
#111=FACE_OUTER_BOUND('',#105,.T.) ;
#122=FACE_OUTER_BOUND('',#119,.T.) ;
#200=FACE_OUTER_BOUND('',#196,.T.) ;
#217=FACE_OUTER_BOUND('',#213,.T.) ;
#229=FACE_OUTER_BOUND('',#225,.T.) ;
#236=FACE_OUTER_BOUND('',#232,.T.) ;
#268=FACE_OUTER_BOUND('',#263,.T.) ;
#281=FACE_OUTER_BOUND('',#276,.T.) ;
#313=FACE_OUTER_BOUND('',#308,.T.) ;
#326=FACE_OUTER_BOUND('',#321,.T.) ;
#337=FACE_OUTER_BOUND('',#334,.T.) ;
#429=FACE_OUTER_BOUND('',#424,.T.) ;
#442=FACE_OUTER_BOUND('',#437,.T.) ;
#448=FACE_OUTER_BOUND('',#445,.T.) ;
#40=LINE('Line',#37,#39) ;
#56=LINE('Line',#53,#55) ;
#247=LINE('Line',#244,#246) ;
#261=LINE('Line',#258,#260) ;
#292=LINE('Line',#289,#291) ;
#299=LINE('Line',#296,#298) ;
#417=LINE('Line',#414,#416) ;
#422=LINE('Line',#419,#421) ;
#118=PLANE('',#117) ;
#333=PLANE('',#332) ;
#9=PRODUCT_CATEGORY_RELATIONSHIP(' ',' ',#7,#8) ;
#6=PRODUCT_DEFINITION_FORMATION_WITH_SPECIFIED_SOURCE(' ',' ',#5,.NOT_KNOWN.) ;
#20=SHAPE_DEFINITION_REPRESENTATION(#11,#19) ;
#183=SPHERICAL_SURFACE('',#182,19.61) ;
#207=SPHERICAL_SURFACE('',#206,19.61) ;
#42=VERTEX_POINT('',#41) ;
#44=VERTEX_POINT('',#43) ;
#51=VERTEX_POINT('',#50) ;
#58=VERTEX_POINT('',#57) ;
#65=VERTEX_POINT('',#64) ;
#98=VERTEX_POINT('',#97) ;
#146=VERTEX_POINT('',#145) ;
#148=VERTEX_POINT('',#147) ;
#189=VERTEX_POINT('',#188) ;
#249=VERTEX_POINT('',#248) ;
#256=VERTEX_POINT('',#255) ;
#294=VERTEX_POINT('',#293) ;
#301=VERTEX_POINT('',#300) ;
#364=VERTEX_POINT('',#363) ;
#366=VERTEX_POINT('',#365) ;
#410=VERTEX_POINT('',#409) ;
#412=VERTEX_POINT('',#411) ;
#12=(LENGTH_UNIT()NAMED_UNIT(*)SI_UNIT(.MILLI.,.METRE.)) ;
#13=(NAMED_UNIT(*)PLANE_ANGLE_UNIT()SI_UNIT($,.RADIAN.)) ;
#14=(NAMED_UNIT(*)SI_UNIT($,.STERADIAN.)SOLID_ANGLE_UNIT()) ;
#16=(GEOMETRIC_REPRESENTATION_CONTEXT(3)GLOBAL_UNCERTAINTY_ASSIGNED_CONTEXT((#15))GLOBAL_UNIT_ASSIGNED_CONTEXT((#12,#13,#14))REPRESENTATION_CONTEXT(' ',' ')) ;
ENDSEC;
END-ISO-10303-21;
