ISO-10303-21;
HEADER;
FILE_DESCRIPTION(('CATIA V5 STEP Exchange','CAx-IF Rec.Pracs.--- Model Styling and Organization---1.4--- 2014-01-23'),'2;1');

FILE_NAME ('029483-6_0', '2020-08-07T09:40:57+00:00', ('none'), ('Weidmueller'), 'CATIA Version 5-6 Release 2016 SP3 HF44', 'CATIA V5 STEP AP214', 'none');

FILE_SCHEMA(('AUTOMOTIVE_DESIGN { 1 0 10303 214 1 1 1 1 }'));

ENDSEC;
DATA;
#5=PRODUCT('1987490000','','',(#2)) ;
#2=PRODUCT_CONTEXT(' ',#1,'mechanical') ;
#1=APPLICATION_CONTEXT('automotive design') ;
#10=PRODUCT_DEFINITION('',' ',#6,#3) ;
#3=PRODUCT_DEFINITION_CONTEXT('part definition',#1,' ') ;
#11=PRODUCT_DEFINITION_SHAPE(' ',' ',#10) ;
#378=MECHANICAL_DESIGN_GEOMETRIC_PRESENTATION_REPRESENTATION(' ',(#29),#16) ;
#19=SHAPE_REPRESENTATION(' ',(#18),#16) ;
#18=AXIS2_PLACEMENT_3D(' ',#17,$,$) ;
#35=AXIS2_PLACEMENT_3D('Torus Axis2P3D',#32,#33,#34) ;
#39=AXIS2_PLACEMENT_3D('Circle Axis2P3D',#37,#38,$) ;
#48=AXIS2_PLACEMENT_3D('Circle Axis2P3D',#46,#47,$) ;
#55=AXIS2_PLACEMENT_3D('Circle Axis2P3D',#53,#54,$) ;
#62=AXIS2_PLACEMENT_3D('Circle Axis2P3D',#60,#61,$) ;
#75=AXIS2_PLACEMENT_3D('Cylinder Axis2P3D',#72,#73,#74) ;
#86=AXIS2_PLACEMENT_3D('Circle Axis2P3D',#84,#85,$) ;
#106=AXIS2_PLACEMENT_3D('Torus Axis2P3D',#103,#104,#105) ;
#110=AXIS2_PLACEMENT_3D('Circle Axis2P3D',#108,#109,$) ;
#119=AXIS2_PLACEMENT_3D('Circle Axis2P3D',#117,#118,$) ;
#124=AXIS2_PLACEMENT_3D('Circle Axis2P3D',#122,#123,$) ;
#137=AXIS2_PLACEMENT_3D('Cylinder Axis2P3D',#134,#135,#136) ;
#148=AXIS2_PLACEMENT_3D('Circle Axis2P3D',#146,#147,$) ;
#168=AXIS2_PLACEMENT_3D('Torus Axis2P3D',#165,#166,#167) ;
#172=AXIS2_PLACEMENT_3D('Circle Axis2P3D',#170,#171,$) ;
#181=AXIS2_PLACEMENT_3D('Circle Axis2P3D',#179,#180,$) ;
#186=AXIS2_PLACEMENT_3D('Circle Axis2P3D',#184,#185,$) ;
#199=AXIS2_PLACEMENT_3D('Cylinder Axis2P3D',#196,#197,#198) ;
#210=AXIS2_PLACEMENT_3D('Circle Axis2P3D',#208,#209,$) ;
#230=AXIS2_PLACEMENT_3D('Torus Axis2P3D',#227,#228,#229) ;
#234=AXIS2_PLACEMENT_3D('Circle Axis2P3D',#232,#233,$) ;
#243=AXIS2_PLACEMENT_3D('Circle Axis2P3D',#241,#242,$) ;
#248=AXIS2_PLACEMENT_3D('Circle Axis2P3D',#246,#247,$) ;
#261=AXIS2_PLACEMENT_3D('Cylinder Axis2P3D',#258,#259,#260) ;
#282=AXIS2_PLACEMENT_3D('Circle Axis2P3D',#280,#281,$) ;
#287=AXIS2_PLACEMENT_3D('Circle Axis2P3D',#285,#286,$) ;
#299=AXIS2_PLACEMENT_3D('Circle Axis2P3D',#297,#298,$) ;
#311=AXIS2_PLACEMENT_3D('Circle Axis2P3D',#309,#310,$) ;
#323=AXIS2_PLACEMENT_3D('Circle Axis2P3D',#321,#322,$) ;
#335=AXIS2_PLACEMENT_3D('Circle Axis2P3D',#333,#334,$) ;
#347=AXIS2_PLACEMENT_3D('Circle Axis2P3D',#345,#346,$) ;
#359=AXIS2_PLACEMENT_3D('Circle Axis2P3D',#357,#358,$) ;
#17=CARTESIAN_POINT(' ',(0.,0.,0.)) ;
#32=CARTESIAN_POINT('Axis2P3D Location',(45.2,8.2,1.35)) ;
#37=CARTESIAN_POINT('Axis2P3D Location',(52.05,8.2,1.35)) ;
#41=CARTESIAN_POINT('Vertex',(53.4,8.2,1.35)) ;
#43=CARTESIAN_POINT('Vertex',(50.7,8.2,1.35)) ;
#46=CARTESIAN_POINT('Axis2P3D Location',(45.2,8.2,1.35)) ;
#50=CARTESIAN_POINT('Vertex',(45.2,2.7,1.35)) ;
#53=CARTESIAN_POINT('Axis2P3D Location',(45.2,1.35,1.35)) ;
#57=CARTESIAN_POINT('Vertex',(45.2,1.06581410364E-014,1.35)) ;
#60=CARTESIAN_POINT('Axis2P3D Location',(45.2,8.2,1.35)) ;
#72=CARTESIAN_POINT('Axis2P3D Location',(52.05,44.95,1.35)) ;
#77=CARTESIAN_POINT('Line Origine',(53.4,44.95,1.35)) ;
#81=CARTESIAN_POINT('Vertex',(53.4,81.7,1.35)) ;
#84=CARTESIAN_POINT('Axis2P3D Location',(52.05,81.7,1.35)) ;
#88=CARTESIAN_POINT('Vertex',(50.7,81.7,1.35)) ;
#91=CARTESIAN_POINT('Line Origine',(50.7,44.95,1.35)) ;
#103=CARTESIAN_POINT('Axis2P3D Location',(45.2,81.7,1.35)) ;
#108=CARTESIAN_POINT('Axis2P3D Location',(45.2,88.55,1.35)) ;
#112=CARTESIAN_POINT('Vertex',(45.2,89.9,1.35)) ;
#114=CARTESIAN_POINT('Vertex',(45.2,87.2,1.35)) ;
#117=CARTESIAN_POINT('Axis2P3D Location',(45.2,81.7,1.35)) ;
#122=CARTESIAN_POINT('Axis2P3D Location',(45.2,81.7,1.35)) ;
#134=CARTESIAN_POINT('Axis2P3D Location',(26.7,88.55,1.35)) ;
#139=CARTESIAN_POINT('Line Origine',(26.7,89.9,1.35)) ;
#143=CARTESIAN_POINT('Vertex',(8.2,89.9,1.35)) ;
#146=CARTESIAN_POINT('Axis2P3D Location',(8.2,88.55,1.35)) ;
#150=CARTESIAN_POINT('Vertex',(8.2,87.2,1.35)) ;
#153=CARTESIAN_POINT('Line Origine',(26.7,87.2,1.35)) ;
#165=CARTESIAN_POINT('Axis2P3D Location',(8.2,81.7,1.35)) ;
#170=CARTESIAN_POINT('Axis2P3D Location',(1.35,81.7,1.35)) ;
#174=CARTESIAN_POINT('Vertex',(-7.1054273576E-015,81.7,1.35)) ;
#176=CARTESIAN_POINT('Vertex',(2.7,81.7,1.35)) ;
#179=CARTESIAN_POINT('Axis2P3D Location',(8.2,81.7,1.35)) ;
#184=CARTESIAN_POINT('Axis2P3D Location',(8.2,81.7,1.35)) ;
#196=CARTESIAN_POINT('Axis2P3D Location',(1.35,44.95,1.35)) ;
#201=CARTESIAN_POINT('Line Origine',(-4.4408920985E-016,44.95,1.35)) ;
#205=CARTESIAN_POINT('Vertex',(1.7763568394E-015,8.2,1.35)) ;
#208=CARTESIAN_POINT('Axis2P3D Location',(1.35,8.2,1.35)) ;
#212=CARTESIAN_POINT('Vertex',(2.7,8.2,1.35)) ;
#215=CARTESIAN_POINT('Line Origine',(2.7,44.95,1.35)) ;
#227=CARTESIAN_POINT('Axis2P3D Location',(8.2,8.2,1.35)) ;
#232=CARTESIAN_POINT('Axis2P3D Location',(8.2,1.35,1.35)) ;
#236=CARTESIAN_POINT('Vertex',(8.2,1.42108547152E-014,1.35)) ;
#238=CARTESIAN_POINT('Vertex',(8.2,2.7,1.35)) ;
#241=CARTESIAN_POINT('Axis2P3D Location',(8.2,8.2,1.35)) ;
#246=CARTESIAN_POINT('Axis2P3D Location',(8.2,8.2,1.35)) ;
#258=CARTESIAN_POINT('Axis2P3D Location',(26.7,1.35,1.35)) ;
#263=CARTESIAN_POINT('Line Origine',(26.7,3.10862446895E-015,1.35)) ;
#268=CARTESIAN_POINT('Line Origine',(26.7,2.7,1.35)) ;
#280=CARTESIAN_POINT('Axis2P3D Location',(52.05,8.2,1.35)) ;
#285=CARTESIAN_POINT('Axis2P3D Location',(45.2,1.35,1.35)) ;
#297=CARTESIAN_POINT('Axis2P3D Location',(52.05,81.7,1.35)) ;
#309=CARTESIAN_POINT('Axis2P3D Location',(45.2,88.55,1.35)) ;
#321=CARTESIAN_POINT('Axis2P3D Location',(8.2,88.55,1.35)) ;
#333=CARTESIAN_POINT('Axis2P3D Location',(1.35,81.7,1.35)) ;
#345=CARTESIAN_POINT('Axis2P3D Location',(1.35,8.2,1.35)) ;
#357=CARTESIAN_POINT('Axis2P3D Location',(8.2,1.35,1.35)) ;
#33=DIRECTION('Axis2P3D Direction',(0.,0.,1.)) ;
#34=DIRECTION('Axis2P3D XDirection',(8.66515531415E-016,-1.,0.)) ;
#38=DIRECTION('Axis2P3D Direction',(8.881784197E-016,-1.,0.)) ;
#47=DIRECTION('Axis2P3D Direction',(-0.,0.,1.)) ;
#54=DIRECTION('Axis2P3D Direction',(-1.,-1.0985210053E-015,0.)) ;
#61=DIRECTION('Axis2P3D Direction',(-0.,0.,1.)) ;
#73=DIRECTION('Axis2P3D Direction',(6.12323399574E-017,-1.,0.)) ;
#74=DIRECTION('Axis2P3D XDirection',(1.,6.12323399574E-017,0.)) ;
#78=DIRECTION('Vector Direction',(0.,-1.,0.)) ;
#85=DIRECTION('Axis2P3D Direction',(6.12323399574E-017,-1.,0.)) ;
#92=DIRECTION('Vector Direction',(0.,-1.,0.)) ;
#104=DIRECTION('Axis2P3D Direction',(0.,0.,1.)) ;
#105=DIRECTION('Axis2P3D XDirection',(1.,0.,0.)) ;
#109=DIRECTION('Axis2P3D Direction',(1.,-4.4408920985E-016,0.)) ;
#118=DIRECTION('Axis2P3D Direction',(0.,-0.,1.)) ;
#123=DIRECTION('Axis2P3D Direction',(0.,-0.,1.)) ;
#135=DIRECTION('Axis2P3D Direction',(1.,6.12323399574E-017,-0.)) ;
#136=DIRECTION('Axis2P3D XDirection',(-6.12323399574E-017,1.,0.)) ;
#140=DIRECTION('Vector Direction',(1.,0.,0.)) ;
#147=DIRECTION('Axis2P3D Direction',(1.,6.12323399574E-017,-0.)) ;
#154=DIRECTION('Vector Direction',(1.,0.,0.)) ;
#166=DIRECTION('Axis2P3D Direction',(0.,0.,1.)) ;
#167=DIRECTION('Axis2P3D XDirection',(-4.33257765707E-016,1.,0.)) ;
#171=DIRECTION('Axis2P3D Direction',(-2.22044604925E-016,1.,0.)) ;
#180=DIRECTION('Axis2P3D Direction',(0.,0.,1.)) ;
#185=DIRECTION('Axis2P3D Direction',(0.,0.,1.)) ;
#197=DIRECTION('Axis2P3D Direction',(-6.12323399574E-017,1.,0.)) ;
#198=DIRECTION('Axis2P3D XDirection',(-1.,-6.12323399574E-017,0.)) ;
#202=DIRECTION('Vector Direction',(-6.04203006599E-017,1.,0.)) ;
#209=DIRECTION('Axis2P3D Direction',(-6.12323399574E-017,1.,0.)) ;
#216=DIRECTION('Vector Direction',(-6.04203006599E-017,1.,0.)) ;
#228=DIRECTION('Axis2P3D Direction',(0.,0.,1.)) ;
#229=DIRECTION('Axis2P3D XDirection',(-1.,-2.16628882854E-015,0.)) ;
#233=DIRECTION('Axis2P3D Direction',(-1.,-5.93199455493E-016,0.)) ;
#242=DIRECTION('Axis2P3D Direction',(0.,0.,1.)) ;
#247=DIRECTION('Axis2P3D Direction',(0.,0.,1.)) ;
#259=DIRECTION('Axis2P3D Direction',(-1.,-6.12323399574E-017,0.)) ;
#260=DIRECTION('Axis2P3D XDirection',(6.12323399574E-017,-1.,0.)) ;
#264=DIRECTION('Vector Direction',(-1.,-6.00120553851E-017,0.)) ;
#269=DIRECTION('Vector Direction',(-1.,-7.20144664622E-017,0.)) ;
#281=DIRECTION('Axis2P3D Direction',(8.881784197E-016,-1.,0.)) ;
#286=DIRECTION('Axis2P3D Direction',(-1.,-1.0985210053E-015,0.)) ;
#298=DIRECTION('Axis2P3D Direction',(6.12323399574E-017,-1.,0.)) ;
#310=DIRECTION('Axis2P3D Direction',(1.,-4.4408920985E-016,0.)) ;
#322=DIRECTION('Axis2P3D Direction',(1.,6.12323399574E-017,-0.)) ;
#334=DIRECTION('Axis2P3D Direction',(-2.22044604925E-016,1.,0.)) ;
#346=DIRECTION('Axis2P3D Direction',(-6.12323399574E-017,1.,0.)) ;
#358=DIRECTION('Axis2P3D Direction',(-1.,-5.93199455493E-016,0.)) ;
#30=PRESENTATION_LAYER_ASSIGNMENT('1',' ',(#21)) ;
#8=PRODUCT_RELATED_PRODUCT_CATEGORY('part',$,(#5)) ;
#7=PRODUCT_CATEGORY('part','specification') ;
#29=STYLED_ITEM(' ',(#28),#21) ;
#28=PRESENTATION_STYLE_ASSIGNMENT((#27)) ;
#27=SURFACE_STYLE_USAGE(.BOTH.,#26) ;
#26=SURFACE_SIDE_STYLE(' ',(#25)) ;
#25=SURFACE_STYLE_FILL_AREA(#24) ;
#24=FILL_AREA_STYLE(' ',(#23)) ;
#23=FILL_AREA_STYLE_COLOUR(' ',#22) ;
#79=VECTOR('Line Direction',#78,1.) ;
#93=VECTOR('Line Direction',#92,1.) ;
#141=VECTOR('Line Direction',#140,1.) ;
#155=VECTOR('Line Direction',#154,1.) ;
#203=VECTOR('Line Direction',#202,1.) ;
#217=VECTOR('Line Direction',#216,1.) ;
#265=VECTOR('Line Direction',#264,1.) ;
#270=VECTOR('Line Direction',#269,1.) ;
#15=UNCERTAINTY_MEASURE_WITH_UNIT(LENGTH_MEASURE(0.005),#12,'distance_accuracy_value','CONFUSED CURVE UNCERTAINTY') ;
#377=SHAPE_REPRESENTATION_RELATIONSHIP(' ',' ',#19,#376) ;
#66=ORIENTED_EDGE('',*,*,#45,.T.) ;
#67=ORIENTED_EDGE('',*,*,#52,.F.) ;
#68=ORIENTED_EDGE('',*,*,#59,.F.) ;
#69=ORIENTED_EDGE('',*,*,#64,.T.) ;
#97=ORIENTED_EDGE('',*,*,#83,.F.) ;
#98=ORIENTED_EDGE('',*,*,#90,.T.) ;
#99=ORIENTED_EDGE('',*,*,#95,.T.) ;
#100=ORIENTED_EDGE('',*,*,#45,.F.) ;
#128=ORIENTED_EDGE('',*,*,#116,.T.) ;
#129=ORIENTED_EDGE('',*,*,#121,.F.) ;
#130=ORIENTED_EDGE('',*,*,#90,.F.) ;
#131=ORIENTED_EDGE('',*,*,#126,.T.) ;
#159=ORIENTED_EDGE('',*,*,#145,.F.) ;
#160=ORIENTED_EDGE('',*,*,#152,.T.) ;
#161=ORIENTED_EDGE('',*,*,#157,.T.) ;
#162=ORIENTED_EDGE('',*,*,#116,.F.) ;
#190=ORIENTED_EDGE('',*,*,#178,.T.) ;
#191=ORIENTED_EDGE('',*,*,#183,.F.) ;
#192=ORIENTED_EDGE('',*,*,#152,.F.) ;
#193=ORIENTED_EDGE('',*,*,#188,.T.) ;
#221=ORIENTED_EDGE('',*,*,#207,.F.) ;
#222=ORIENTED_EDGE('',*,*,#214,.T.) ;
#223=ORIENTED_EDGE('',*,*,#219,.T.) ;
#224=ORIENTED_EDGE('',*,*,#178,.F.) ;
#252=ORIENTED_EDGE('',*,*,#240,.T.) ;
#253=ORIENTED_EDGE('',*,*,#245,.F.) ;
#254=ORIENTED_EDGE('',*,*,#214,.F.) ;
#255=ORIENTED_EDGE('',*,*,#250,.T.) ;
#274=ORIENTED_EDGE('',*,*,#267,.F.) ;
#275=ORIENTED_EDGE('',*,*,#59,.T.) ;
#276=ORIENTED_EDGE('',*,*,#272,.T.) ;
#277=ORIENTED_EDGE('',*,*,#240,.F.) ;
#291=ORIENTED_EDGE('',*,*,#284,.T.) ;
#292=ORIENTED_EDGE('',*,*,#64,.F.) ;
#293=ORIENTED_EDGE('',*,*,#289,.F.) ;
#294=ORIENTED_EDGE('',*,*,#52,.T.) ;
#303=ORIENTED_EDGE('',*,*,#95,.F.) ;
#304=ORIENTED_EDGE('',*,*,#301,.T.) ;
#305=ORIENTED_EDGE('',*,*,#83,.T.) ;
#306=ORIENTED_EDGE('',*,*,#284,.F.) ;
#315=ORIENTED_EDGE('',*,*,#313,.T.) ;
#316=ORIENTED_EDGE('',*,*,#126,.F.) ;
#317=ORIENTED_EDGE('',*,*,#301,.F.) ;
#318=ORIENTED_EDGE('',*,*,#121,.T.) ;
#327=ORIENTED_EDGE('',*,*,#157,.F.) ;
#328=ORIENTED_EDGE('',*,*,#325,.T.) ;
#329=ORIENTED_EDGE('',*,*,#145,.T.) ;
#330=ORIENTED_EDGE('',*,*,#313,.F.) ;
#339=ORIENTED_EDGE('',*,*,#337,.T.) ;
#340=ORIENTED_EDGE('',*,*,#188,.F.) ;
#341=ORIENTED_EDGE('',*,*,#325,.F.) ;
#342=ORIENTED_EDGE('',*,*,#183,.T.) ;
#351=ORIENTED_EDGE('',*,*,#219,.F.) ;
#352=ORIENTED_EDGE('',*,*,#349,.T.) ;
#353=ORIENTED_EDGE('',*,*,#207,.T.) ;
#354=ORIENTED_EDGE('',*,*,#337,.F.) ;
#363=ORIENTED_EDGE('',*,*,#361,.T.) ;
#364=ORIENTED_EDGE('',*,*,#250,.F.) ;
#365=ORIENTED_EDGE('',*,*,#349,.F.) ;
#366=ORIENTED_EDGE('',*,*,#245,.T.) ;
#370=ORIENTED_EDGE('',*,*,#272,.F.) ;
#371=ORIENTED_EDGE('',*,*,#289,.T.) ;
#372=ORIENTED_EDGE('',*,*,#267,.T.) ;
#373=ORIENTED_EDGE('',*,*,#361,.F.) ;
#31=CLOSED_SHELL('Closed Shell',(#71,#102,#133,#164,#195,#226,#257,#279,#296,#308,#320,#332,#344,#356,#368,#375)) ;
#376=ADVANCED_BREP_SHAPE_REPRESENTATION('NONE',(#21),#16) ;
#71=ADVANCED_FACE('Aussenkoerper',(#70),#36,.T.) ;
#102=ADVANCED_FACE('Aussenkoerper',(#101),#76,.T.) ;
#133=ADVANCED_FACE('Aussenkoerper',(#132),#107,.T.) ;
#164=ADVANCED_FACE('Aussenkoerper',(#163),#138,.T.) ;
#195=ADVANCED_FACE('Aussenkoerper',(#194),#169,.T.) ;
#226=ADVANCED_FACE('Aussenkoerper',(#225),#200,.T.) ;
#257=ADVANCED_FACE('Aussenkoerper',(#256),#231,.T.) ;
#279=ADVANCED_FACE('Aussenkoerper',(#278),#262,.T.) ;
#296=ADVANCED_FACE('Aussenkoerper',(#295),#36,.T.) ;
#308=ADVANCED_FACE('Aussenkoerper',(#307),#76,.T.) ;
#320=ADVANCED_FACE('Aussenkoerper',(#319),#107,.T.) ;
#332=ADVANCED_FACE('Aussenkoerper',(#331),#138,.T.) ;
#344=ADVANCED_FACE('Aussenkoerper',(#343),#169,.T.) ;
#356=ADVANCED_FACE('Aussenkoerper',(#355),#200,.T.) ;
#368=ADVANCED_FACE('Aussenkoerper',(#367),#231,.T.) ;
#375=ADVANCED_FACE('Aussenkoerper',(#374),#262,.T.) ;
#4=APPLICATION_PROTOCOL_DEFINITION('international standard','automotive_design',2001,#1) ;
#21=MANIFOLD_SOLID_BREP('Aussenkoerper',#31) ;
#40=CIRCLE('generated circle',#39,1.35) ;
#49=CIRCLE('generated circle',#48,5.5) ;
#56=CIRCLE('generated circle',#55,1.35) ;
#63=CIRCLE('generated circle',#62,8.2) ;
#87=CIRCLE('generated circle',#86,1.35) ;
#111=CIRCLE('generated circle',#110,1.35) ;
#120=CIRCLE('generated circle',#119,5.5) ;
#125=CIRCLE('generated circle',#124,8.2) ;
#149=CIRCLE('generated circle',#148,1.35) ;
#173=CIRCLE('generated circle',#172,1.35) ;
#182=CIRCLE('generated circle',#181,5.5) ;
#187=CIRCLE('generated circle',#186,8.2) ;
#211=CIRCLE('generated circle',#210,1.35) ;
#235=CIRCLE('generated circle',#234,1.35) ;
#244=CIRCLE('generated circle',#243,5.5) ;
#249=CIRCLE('generated circle',#248,8.2) ;
#283=CIRCLE('generated circle',#282,1.35) ;
#288=CIRCLE('generated circle',#287,1.35) ;
#300=CIRCLE('generated circle',#299,1.35) ;
#312=CIRCLE('generated circle',#311,1.35) ;
#324=CIRCLE('generated circle',#323,1.35) ;
#336=CIRCLE('generated circle',#335,1.35) ;
#348=CIRCLE('generated circle',#347,1.35) ;
#360=CIRCLE('generated circle',#359,1.35) ;
#22=COLOUR_RGB('Colour',1.,0.501960784314,0.) ;
#76=CYLINDRICAL_SURFACE('generated cylinder',#75,1.35) ;
#138=CYLINDRICAL_SURFACE('generated cylinder',#137,1.35) ;
#200=CYLINDRICAL_SURFACE('generated cylinder',#199,1.35) ;
#262=CYLINDRICAL_SURFACE('generated cylinder',#261,1.35) ;
#36=TOROIDAL_SURFACE('homeo Torus',#35,6.85,1.35) ;
#107=TOROIDAL_SURFACE('homeo Torus',#106,6.85,1.35) ;
#169=TOROIDAL_SURFACE('homeo Torus',#168,6.85,1.35) ;
#231=TOROIDAL_SURFACE('homeo Torus',#230,6.85,1.35) ;
#45=EDGE_CURVE('',#42,#44,#40,.T.) ;
#52=EDGE_CURVE('',#51,#44,#49,.T.) ;
#59=EDGE_CURVE('',#58,#51,#56,.T.) ;
#64=EDGE_CURVE('',#58,#42,#63,.T.) ;
#83=EDGE_CURVE('',#82,#42,#80,.T.) ;
#90=EDGE_CURVE('',#82,#89,#87,.T.) ;
#95=EDGE_CURVE('',#89,#44,#94,.T.) ;
#116=EDGE_CURVE('',#113,#115,#111,.T.) ;
#121=EDGE_CURVE('',#89,#115,#120,.T.) ;
#126=EDGE_CURVE('',#82,#113,#125,.T.) ;
#145=EDGE_CURVE('',#144,#113,#142,.T.) ;
#152=EDGE_CURVE('',#144,#151,#149,.T.) ;
#157=EDGE_CURVE('',#151,#115,#156,.T.) ;
#178=EDGE_CURVE('',#175,#177,#173,.T.) ;
#183=EDGE_CURVE('',#151,#177,#182,.T.) ;
#188=EDGE_CURVE('',#144,#175,#187,.T.) ;
#207=EDGE_CURVE('',#206,#175,#204,.T.) ;
#214=EDGE_CURVE('',#206,#213,#211,.T.) ;
#219=EDGE_CURVE('',#213,#177,#218,.T.) ;
#240=EDGE_CURVE('',#237,#239,#235,.T.) ;
#245=EDGE_CURVE('',#213,#239,#244,.T.) ;
#250=EDGE_CURVE('',#206,#237,#249,.T.) ;
#267=EDGE_CURVE('',#58,#237,#266,.T.) ;
#272=EDGE_CURVE('',#51,#239,#271,.T.) ;
#284=EDGE_CURVE('',#44,#42,#283,.T.) ;
#289=EDGE_CURVE('',#51,#58,#288,.T.) ;
#301=EDGE_CURVE('',#89,#82,#300,.T.) ;
#313=EDGE_CURVE('',#115,#113,#312,.T.) ;
#325=EDGE_CURVE('',#151,#144,#324,.T.) ;
#337=EDGE_CURVE('',#177,#175,#336,.T.) ;
#349=EDGE_CURVE('',#213,#206,#348,.T.) ;
#361=EDGE_CURVE('',#239,#237,#360,.T.) ;
#65=EDGE_LOOP('',(#66,#67,#68,#69)) ;
#96=EDGE_LOOP('',(#97,#98,#99,#100)) ;
#127=EDGE_LOOP('',(#128,#129,#130,#131)) ;
#158=EDGE_LOOP('',(#159,#160,#161,#162)) ;
#189=EDGE_LOOP('',(#190,#191,#192,#193)) ;
#220=EDGE_LOOP('',(#221,#222,#223,#224)) ;
#251=EDGE_LOOP('',(#252,#253,#254,#255)) ;
#273=EDGE_LOOP('',(#274,#275,#276,#277)) ;
#290=EDGE_LOOP('',(#291,#292,#293,#294)) ;
#302=EDGE_LOOP('',(#303,#304,#305,#306)) ;
#314=EDGE_LOOP('',(#315,#316,#317,#318)) ;
#326=EDGE_LOOP('',(#327,#328,#329,#330)) ;
#338=EDGE_LOOP('',(#339,#340,#341,#342)) ;
#350=EDGE_LOOP('',(#351,#352,#353,#354)) ;
#362=EDGE_LOOP('',(#363,#364,#365,#366)) ;
#369=EDGE_LOOP('',(#370,#371,#372,#373)) ;
#70=FACE_OUTER_BOUND('',#65,.T.) ;
#101=FACE_OUTER_BOUND('',#96,.T.) ;
#132=FACE_OUTER_BOUND('',#127,.T.) ;
#163=FACE_OUTER_BOUND('',#158,.T.) ;
#194=FACE_OUTER_BOUND('',#189,.T.) ;
#225=FACE_OUTER_BOUND('',#220,.T.) ;
#256=FACE_OUTER_BOUND('',#251,.T.) ;
#278=FACE_OUTER_BOUND('',#273,.T.) ;
#295=FACE_OUTER_BOUND('',#290,.T.) ;
#307=FACE_OUTER_BOUND('',#302,.T.) ;
#319=FACE_OUTER_BOUND('',#314,.T.) ;
#331=FACE_OUTER_BOUND('',#326,.T.) ;
#343=FACE_OUTER_BOUND('',#338,.T.) ;
#355=FACE_OUTER_BOUND('',#350,.T.) ;
#367=FACE_OUTER_BOUND('',#362,.T.) ;
#374=FACE_OUTER_BOUND('',#369,.T.) ;
#80=LINE('Line',#77,#79) ;
#94=LINE('Line',#91,#93) ;
#142=LINE('Line',#139,#141) ;
#156=LINE('Line',#153,#155) ;
#204=LINE('Line',#201,#203) ;
#218=LINE('Line',#215,#217) ;
#266=LINE('Line',#263,#265) ;
#271=LINE('Line',#268,#270) ;
#9=PRODUCT_CATEGORY_RELATIONSHIP(' ',' ',#7,#8) ;
#6=PRODUCT_DEFINITION_FORMATION_WITH_SPECIFIED_SOURCE('',' ',#5,.NOT_KNOWN.) ;
#20=SHAPE_DEFINITION_REPRESENTATION(#11,#19) ;
#42=VERTEX_POINT('',#41) ;
#44=VERTEX_POINT('',#43) ;
#51=VERTEX_POINT('',#50) ;
#58=VERTEX_POINT('',#57) ;
#82=VERTEX_POINT('',#81) ;
#89=VERTEX_POINT('',#88) ;
#113=VERTEX_POINT('',#112) ;
#115=VERTEX_POINT('',#114) ;
#144=VERTEX_POINT('',#143) ;
#151=VERTEX_POINT('',#150) ;
#175=VERTEX_POINT('',#174) ;
#177=VERTEX_POINT('',#176) ;
#206=VERTEX_POINT('',#205) ;
#213=VERTEX_POINT('',#212) ;
#237=VERTEX_POINT('',#236) ;
#239=VERTEX_POINT('',#238) ;
#12=(LENGTH_UNIT()NAMED_UNIT(*)SI_UNIT(.MILLI.,.METRE.)) ;
#13=(NAMED_UNIT(*)PLANE_ANGLE_UNIT()SI_UNIT($,.RADIAN.)) ;
#14=(NAMED_UNIT(*)SI_UNIT($,.STERADIAN.)SOLID_ANGLE_UNIT()) ;
#16=(GEOMETRIC_REPRESENTATION_CONTEXT(3)GLOBAL_UNCERTAINTY_ASSIGNED_CONTEXT((#15))GLOBAL_UNIT_ASSIGNED_CONTEXT((#12,#13,#14))REPRESENTATION_CONTEXT(' ',' ')) ;
ENDSEC;
END-ISO-10303-21;
